ISO-10303-21;
HEADER;
FILE_DESCRIPTION((''),'2;1');
FILE_NAME('LAN_ER25_PROTOTYP_A0_D16','2017-11-30T',('Jon'),(''),
'CREO PARAMETRIC BY PTC INC, 2016260','CREO PARAMETRIC BY PTC INC, 2016260','');
FILE_SCHEMA(('CONFIG_CONTROL_DESIGN'));
ENDSEC;
DATA;
#1=CARTESIAN_POINT('',(0.E0,0.E0,0.E0));
#2=DIRECTION('',(-1.E0,0.E0,0.E0));
#3=DIRECTION('',(0.E0,-1.E0,0.E0));
#4=AXIS2_PLACEMENT_3D('',#1,#2,#3);
#6=CARTESIAN_POINT('',(0.E0,0.E0,0.E0));
#7=DIRECTION('',(-1.E0,0.E0,0.E0));
#8=DIRECTION('',(0.E0,1.E0,0.E0));
#9=AXIS2_PLACEMENT_3D('',#6,#7,#8);
#11=CARTESIAN_POINT('',(0.E0,0.E0,0.E0));
#12=DIRECTION('',(1.E0,0.E0,0.E0));
#13=DIRECTION('',(0.E0,1.E0,0.E0));
#14=AXIS2_PLACEMENT_3D('',#11,#12,#13);
#16=DIRECTION('',(-8.677654533689E-1,4.969739610276E-1,0.E0));
#17=VECTOR('',#16,5.761925622400E0);
#18=CARTESIAN_POINT('',(0.E0,1.024988380017E1,0.E0));
#19=LINE('',#18,#17);
#20=DIRECTION('',(-8.677654533689E-1,-4.969739610276E-1,0.E0));
#21=VECTOR('',#20,5.761925622400E0);
#22=CARTESIAN_POINT('',(0.E0,-1.024988380017E1,0.E0));
#23=LINE('',#22,#21);
#24=CARTESIAN_POINT('',(0.E0,0.E0,0.E0));
#25=DIRECTION('',(-1.E0,0.E0,0.E0));
#26=DIRECTION('',(0.E0,1.E0,0.E0));
#27=AXIS2_PLACEMENT_3D('',#24,#25,#26);
#29=CARTESIAN_POINT('',(-5.E0,0.E0,0.E0));
#30=DIRECTION('',(-1.E0,0.E0,0.E0));
#31=DIRECTION('',(0.E0,1.E0,0.E0));
#32=AXIS2_PLACEMENT_3D('',#29,#30,#31);
#34=CARTESIAN_POINT('',(-5.E0,0.E0,0.E0));
#35=DIRECTION('',(1.E0,0.E0,0.E0));
#36=DIRECTION('',(0.E0,1.E0,0.E0));
#37=AXIS2_PLACEMENT_3D('',#34,#35,#36);
#39=CARTESIAN_POINT('',(-5.E0,0.E0,0.E0));
#40=DIRECTION('',(1.E0,0.E0,0.E0));
#41=DIRECTION('',(0.E0,1.E0,0.E0));
#42=AXIS2_PLACEMENT_3D('',#39,#40,#41);
#44=DIRECTION('',(-1.E0,0.E0,0.E0));
#45=VECTOR('',#44,3.E0);
#46=CARTESIAN_POINT('',(-5.E0,1.1E1,0.E0));
#47=LINE('',#46,#45);
#48=DIRECTION('',(-1.E0,0.E0,0.E0));
#49=VECTOR('',#48,3.E0);
#50=CARTESIAN_POINT('',(-5.E0,-1.1E1,0.E0));
#51=LINE('',#50,#49);
#52=CARTESIAN_POINT('',(-5.E0,0.E0,0.E0));
#53=DIRECTION('',(-1.E0,0.E0,0.E0));
#54=DIRECTION('',(0.E0,1.E0,0.E0));
#55=AXIS2_PLACEMENT_3D('',#52,#53,#54);
#57=CARTESIAN_POINT('',(-8.E0,0.E0,0.E0));
#58=DIRECTION('',(-1.E0,0.E0,0.E0));
#59=DIRECTION('',(0.E0,1.E0,0.E0));
#60=AXIS2_PLACEMENT_3D('',#57,#58,#59);
#62=CARTESIAN_POINT('',(-8.E0,0.E0,0.E0));
#63=DIRECTION('',(1.E0,0.E0,0.E0));
#64=DIRECTION('',(0.E0,1.E0,0.E0));
#65=AXIS2_PLACEMENT_3D('',#62,#63,#64);
#67=CARTESIAN_POINT('',(-3.35E1,0.E0,0.E0));
#68=DIRECTION('',(1.E0,0.E0,0.E0));
#69=DIRECTION('',(0.E0,1.E0,0.E0));
#70=AXIS2_PLACEMENT_3D('',#67,#68,#69);
#72=CARTESIAN_POINT('',(-8.E0,0.E0,0.E0));
#73=DIRECTION('',(1.E0,0.E0,0.E0));
#74=DIRECTION('',(0.E0,1.E0,0.E0));
#75=AXIS2_PLACEMENT_3D('',#72,#73,#74);
#77=CARTESIAN_POINT('',(-3.4E1,0.E0,0.E0));
#78=DIRECTION('',(1.E0,0.E0,0.E0));
#79=DIRECTION('',(0.E0,1.E0,0.E0));
#80=AXIS2_PLACEMENT_3D('',#77,#78,#79);
#82=CARTESIAN_POINT('',(-3.4E1,0.E0,0.E0));
#83=DIRECTION('',(1.E0,0.E0,0.E0));
#84=DIRECTION('',(0.E0,1.E0,0.E0));
#85=AXIS2_PLACEMENT_3D('',#82,#83,#84);
#87=CARTESIAN_POINT('',(-3.35E1,0.E0,0.E0));
#88=DIRECTION('',(-1.E0,0.E0,0.E0));
#89=DIRECTION('',(0.E0,-1.E0,0.E0));
#90=AXIS2_PLACEMENT_3D('',#87,#88,#89);
#92=CARTESIAN_POINT('',(-3.4E1,0.E0,0.E0));
#93=DIRECTION('',(1.E0,0.E0,0.E0));
#94=DIRECTION('',(0.E0,-1.E0,0.E0));
#95=AXIS2_PLACEMENT_3D('',#92,#93,#94);
#97=DIRECTION('',(8.660254037844E-1,-5.E-1,0.E0));
#98=VECTOR('',#97,5.773502691896E-1);
#99=CARTESIAN_POINT('',(-3.4E1,7.388675134595E0,0.E0));
#100=LINE('',#99,#98);
#101=CARTESIAN_POINT('',(-3.35E1,0.E0,0.E0));
#102=DIRECTION('',(1.E0,0.E0,0.E0));
#103=DIRECTION('',(0.E0,-1.E0,0.E0));
#104=AXIS2_PLACEMENT_3D('',#101,#102,#103);
#106=DIRECTION('',(-8.660254037844E-1,-5.E-1,0.E0));
#107=VECTOR('',#106,5.773502691896E-1);
#108=CARTESIAN_POINT('',(-3.35E1,-7.1E0,0.E0));
#109=LINE('',#108,#107);
#110=CARTESIAN_POINT('',(-3.3E1,0.E0,0.E0));
#111=DIRECTION('',(1.E0,0.E0,0.E0));
#112=DIRECTION('',(0.E0,-1.E0,0.E0));
#113=AXIS2_PLACEMENT_3D('',#110,#111,#112);
#115=DIRECTION('',(1.E0,0.E0,0.E0));
#116=VECTOR('',#115,5.E-1);
#117=CARTESIAN_POINT('',(-3.35E1,-7.1E0,0.E0));
#118=LINE('',#117,#116);
#119=DIRECTION('',(1.E0,0.E0,0.E0));
#120=VECTOR('',#119,5.E-1);
#121=CARTESIAN_POINT('',(-3.35E1,7.1E0,0.E0));
#122=LINE('',#121,#120);
#123=CARTESIAN_POINT('',(-3.3E1,0.E0,0.E0));
#124=DIRECTION('',(-1.E0,0.E0,0.E0));
#125=DIRECTION('',(0.E0,-1.E0,0.E0));
#126=AXIS2_PLACEMENT_3D('',#123,#124,#125);
#128=CARTESIAN_POINT('',(-3.3E1,0.E0,0.E0));
#129=DIRECTION('',(-1.E0,0.E0,0.E0));
#130=DIRECTION('',(0.E0,1.E0,0.E0));
#131=AXIS2_PLACEMENT_3D('',#128,#129,#130);
#133=DIRECTION('',(-1.E0,0.E0,0.E0));
#134=VECTOR('',#133,3.3E1);
#135=CARTESIAN_POINT('',(0.E0,-8.E0,0.E0));
#136=LINE('',#135,#134);
#137=DIRECTION('',(-1.E0,0.E0,0.E0));
#138=VECTOR('',#137,3.3E1);
#139=CARTESIAN_POINT('',(0.E0,8.E0,0.E0));
#140=LINE('',#139,#138);
#141=CARTESIAN_POINT('',(-3.3E1,0.E0,0.E0));
#142=DIRECTION('',(1.E0,0.E0,0.E0));
#143=DIRECTION('',(0.E0,1.E0,0.E0));
#144=AXIS2_PLACEMENT_3D('',#141,#142,#143);
#146=CARTESIAN_POINT('',(-3.4E1,0.E0,0.E0));
#147=DIRECTION('',(1.E0,0.E0,0.E0));
#148=DIRECTION('',(0.E0,-1.E0,0.E0));
#149=AXIS2_PLACEMENT_3D('',#146,#147,#148);
#151=DIRECTION('',(8.829350025703E-1,-4.694952409090E-1,0.E0));
#152=VECTOR('',#151,5.662931003352E-1);
#153=CARTESIAN_POINT('',(-3.4E1,-8.649604561706E0,0.E0));
#154=LINE('',#153,#152);
#155=DIRECTION('',(-8.829350025703E-1,-4.694952409090E-1,0.E0));
#156=VECTOR('',#155,5.662931003352E-1);
#157=CARTESIAN_POINT('',(-3.35E1,8.915476477273E0,0.E0));
#158=LINE('',#157,#156);
#159=CARTESIAN_POINT('',(-3.35E1,0.E0,0.E0));
#160=DIRECTION('',(1.E0,0.E0,0.E0));
#161=DIRECTION('',(0.E0,-1.E0,0.E0));
#162=AXIS2_PLACEMENT_3D('',#159,#160,#161);
#164=DIRECTION('',(-9.902643361353E-1,1.391996572499E-1,0.E0));
#165=VECTOR('',#164,2.575070016105E1);
#166=CARTESIAN_POINT('',(-8.E0,-1.249996511364E1,0.E0));
#167=LINE('',#166,#165);
#168=CARTESIAN_POINT('',(-8.E0,0.E0,0.E0));
#169=DIRECTION('',(-1.E0,0.E0,0.E0));
#170=DIRECTION('',(0.E0,1.E0,0.E0));
#171=AXIS2_PLACEMENT_3D('',#168,#169,#170);
#173=DIRECTION('',(-9.902643361353E-1,-1.391996572499E-1,0.E0));
#174=VECTOR('',#173,2.575070016105E1);
#175=CARTESIAN_POINT('',(-8.E0,1.249996511364E1,0.E0));
#176=LINE('',#175,#174);
#177=CARTESIAN_POINT('',(0.E0,1.024988380017E1,0.E0));
#178=CARTESIAN_POINT('',(-5.E0,1.311341079988E1,0.E0));
#179=VERTEX_POINT('',#177);
#180=VERTEX_POINT('',#178);
#181=CARTESIAN_POINT('',(-5.E0,1.1E1,0.E0));
#182=CARTESIAN_POINT('',(-8.E0,1.1E1,0.E0));
#183=VERTEX_POINT('',#181);
#184=VERTEX_POINT('',#182);
#185=CARTESIAN_POINT('',(0.E0,-1.024988380017E1,0.E0));
#186=CARTESIAN_POINT('',(-5.E0,-1.311341079988E1,0.E0));
#187=VERTEX_POINT('',#185);
#188=VERTEX_POINT('',#186);
#189=CARTESIAN_POINT('',(-5.E0,-1.1E1,0.E0));
#190=CARTESIAN_POINT('',(-8.E0,-1.1E1,0.E0));
#191=VERTEX_POINT('',#189);
#192=VERTEX_POINT('',#190);
#193=CARTESIAN_POINT('',(-3.35E1,-7.1E0,0.E0));
#194=CARTESIAN_POINT('',(-3.35E1,7.1E0,0.E0));
#195=VERTEX_POINT('',#193);
#196=VERTEX_POINT('',#194);
#197=CARTESIAN_POINT('',(-3.35E1,8.915476477273E0,0.E0));
#198=CARTESIAN_POINT('',(-3.35E1,-8.915476477273E0,0.E0));
#199=VERTEX_POINT('',#197);
#200=VERTEX_POINT('',#198);
#201=CARTESIAN_POINT('',(-3.4E1,7.388675134595E0,0.E0));
#202=CARTESIAN_POINT('',(-3.4E1,-7.388675134595E0,0.E0));
#203=VERTEX_POINT('',#201);
#204=VERTEX_POINT('',#202);
#205=CARTESIAN_POINT('',(-3.4E1,8.649604561706E0,0.E0));
#206=CARTESIAN_POINT('',(-3.4E1,-8.649604561706E0,0.E0));
#207=VERTEX_POINT('',#205);
#208=VERTEX_POINT('',#206);
#209=CARTESIAN_POINT('',(-8.E0,1.249996511364E1,0.E0));
#210=CARTESIAN_POINT('',(-8.E0,-1.249996511364E1,0.E0));
#211=VERTEX_POINT('',#209);
#212=VERTEX_POINT('',#210);
#213=CARTESIAN_POINT('',(-3.3E1,-8.E0,0.E0));
#214=CARTESIAN_POINT('',(-3.3E1,8.E0,0.E0));
#215=VERTEX_POINT('',#213);
#216=VERTEX_POINT('',#214);
#217=CARTESIAN_POINT('',(0.E0,-8.E0,0.E0));
#218=CARTESIAN_POINT('',(0.E0,8.E0,0.E0));
#219=VERTEX_POINT('',#217);
#220=VERTEX_POINT('',#218);
#221=CARTESIAN_POINT('',(-3.3E1,7.1E0,0.E0));
#222=CARTESIAN_POINT('',(-3.3E1,-7.1E0,0.E0));
#223=VERTEX_POINT('',#221);
#224=VERTEX_POINT('',#222);
#225=CARTESIAN_POINT('',(0.E0,0.E0,0.E0));
#226=DIRECTION('',(1.E0,0.E0,0.E0));
#227=DIRECTION('',(0.E0,-1.E0,0.E0));
#228=AXIS2_PLACEMENT_3D('',#225,#226,#227);
#229=PLANE('',#228);
#231=ORIENTED_EDGE('',*,*,#230,.F.);
#233=ORIENTED_EDGE('',*,*,#232,.T.);
#234=EDGE_LOOP('',(#231,#233));
#235=FACE_OUTER_BOUND('',#234,.F.);
#237=ORIENTED_EDGE('',*,*,#236,.F.);
#239=ORIENTED_EDGE('',*,*,#238,.F.);
#240=EDGE_LOOP('',(#237,#239));
#241=FACE_BOUND('',#240,.F.);
#242=ADVANCED_FACE('',(#235,#241),#229,.T.);
#243=CARTESIAN_POINT('',(-2.5E0,0.E0,0.E0));
#244=DIRECTION('',(-1.E0,0.E0,0.E0));
#245=DIRECTION('',(0.E0,1.E0,0.E0));
#246=AXIS2_PLACEMENT_3D('',#243,#244,#245);
#247=CONICAL_SURFACE('',#246,1.168164730003E1,2.98E1);
#249=ORIENTED_EDGE('',*,*,#248,.F.);
#250=ORIENTED_EDGE('',*,*,#230,.T.);
#252=ORIENTED_EDGE('',*,*,#251,.T.);
#254=ORIENTED_EDGE('',*,*,#253,.F.);
#255=EDGE_LOOP('',(#249,#250,#252,#254));
#256=FACE_OUTER_BOUND('',#255,.F.);
#257=ADVANCED_FACE('',(#256),#247,.T.);
#258=CARTESIAN_POINT('',(-2.5E0,0.E0,0.E0));
#259=DIRECTION('',(-1.E0,0.E0,0.E0));
#260=DIRECTION('',(0.E0,1.E0,0.E0));
#261=AXIS2_PLACEMENT_3D('',#258,#259,#260);
#262=CONICAL_SURFACE('',#261,1.168164730003E1,2.98E1);
#263=ORIENTED_EDGE('',*,*,#248,.T.);
#265=ORIENTED_EDGE('',*,*,#264,.T.);
#266=ORIENTED_EDGE('',*,*,#251,.F.);
#267=ORIENTED_EDGE('',*,*,#232,.F.);
#268=EDGE_LOOP('',(#263,#265,#266,#267));
#269=FACE_OUTER_BOUND('',#268,.F.);
#270=ADVANCED_FACE('',(#269),#262,.T.);
#271=CARTESIAN_POINT('',(-5.E0,0.E0,0.E0));
#272=DIRECTION('',(1.E0,0.E0,0.E0));
#273=DIRECTION('',(0.E0,-1.E0,0.E0));
#274=AXIS2_PLACEMENT_3D('',#271,#272,#273);
#275=PLANE('',#274);
#276=ORIENTED_EDGE('',*,*,#264,.F.);
#277=ORIENTED_EDGE('',*,*,#253,.T.);
#278=EDGE_LOOP('',(#276,#277));
#279=FACE_OUTER_BOUND('',#278,.F.);
#281=ORIENTED_EDGE('',*,*,#280,.F.);
#283=ORIENTED_EDGE('',*,*,#282,.T.);
#284=EDGE_LOOP('',(#281,#283));
#285=FACE_BOUND('',#284,.F.);
#286=ADVANCED_FACE('',(#279,#285),#275,.F.);
#287=CARTESIAN_POINT('',(0.E0,0.E0,0.E0));
#288=DIRECTION('',(1.E0,0.E0,0.E0));
#289=DIRECTION('',(0.E0,-1.E0,0.E0));
#290=AXIS2_PLACEMENT_3D('',#287,#288,#289);
#291=CYLINDRICAL_SURFACE('',#290,1.1E1);
#293=ORIENTED_EDGE('',*,*,#292,.F.);
#294=ORIENTED_EDGE('',*,*,#280,.T.);
#296=ORIENTED_EDGE('',*,*,#295,.T.);
#298=ORIENTED_EDGE('',*,*,#297,.F.);
#299=EDGE_LOOP('',(#293,#294,#296,#298));
#300=FACE_OUTER_BOUND('',#299,.F.);
#301=ADVANCED_FACE('',(#300),#291,.T.);
#302=CARTESIAN_POINT('',(0.E0,0.E0,0.E0));
#303=DIRECTION('',(1.E0,0.E0,0.E0));
#304=DIRECTION('',(0.E0,-1.E0,0.E0));
#305=AXIS2_PLACEMENT_3D('',#302,#303,#304);
#306=CYLINDRICAL_SURFACE('',#305,1.1E1);
#307=ORIENTED_EDGE('',*,*,#292,.T.);
#309=ORIENTED_EDGE('',*,*,#308,.T.);
#310=ORIENTED_EDGE('',*,*,#295,.F.);
#311=ORIENTED_EDGE('',*,*,#282,.F.);
#312=EDGE_LOOP('',(#307,#309,#310,#311));
#313=FACE_OUTER_BOUND('',#312,.F.);
#314=ADVANCED_FACE('',(#313),#306,.T.);
#315=CARTESIAN_POINT('',(-8.E0,0.E0,0.E0));
#316=DIRECTION('',(1.E0,0.E0,0.E0));
#317=DIRECTION('',(0.E0,-1.E0,0.E0));
#318=AXIS2_PLACEMENT_3D('',#315,#316,#317);
#319=PLANE('',#318);
#321=ORIENTED_EDGE('',*,*,#320,.F.);
#323=ORIENTED_EDGE('',*,*,#322,.T.);
#324=EDGE_LOOP('',(#321,#323));
#325=FACE_OUTER_BOUND('',#324,.F.);
#326=ORIENTED_EDGE('',*,*,#308,.F.);
#327=ORIENTED_EDGE('',*,*,#297,.T.);
#328=EDGE_LOOP('',(#326,#327));
#329=FACE_BOUND('',#328,.F.);
#330=ADVANCED_FACE('',(#325,#329),#319,.T.);
#331=CARTESIAN_POINT('',(-2.075E1,0.E0,0.E0));
#332=DIRECTION('',(1.E0,0.E0,0.E0));
#333=DIRECTION('',(0.E0,-1.E0,0.E0));
#334=AXIS2_PLACEMENT_3D('',#331,#332,#333);
#335=CONICAL_SURFACE('',#334,1.070772079545E1,8.001536519498E0);
#337=ORIENTED_EDGE('',*,*,#336,.F.);
#339=ORIENTED_EDGE('',*,*,#338,.F.);
#340=ORIENTED_EDGE('',*,*,#320,.T.);
#342=ORIENTED_EDGE('',*,*,#341,.T.);
#343=EDGE_LOOP('',(#337,#339,#340,#342));
#344=FACE_OUTER_BOUND('',#343,.F.);
#345=ADVANCED_FACE('',(#344),#335,.T.);
#346=CARTESIAN_POINT('',(-3.375E1,0.E0,0.E0));
#347=DIRECTION('',(1.E0,0.E0,0.E0));
#348=DIRECTION('',(0.E0,-1.E0,0.E0));
#349=AXIS2_PLACEMENT_3D('',#346,#347,#348);
#350=CONICAL_SURFACE('',#349,8.782540519489E0,2.800153651950E1);
#352=ORIENTED_EDGE('',*,*,#351,.F.);
#354=ORIENTED_EDGE('',*,*,#353,.F.);
#355=ORIENTED_EDGE('',*,*,#336,.T.);
#357=ORIENTED_EDGE('',*,*,#356,.F.);
#358=EDGE_LOOP('',(#352,#354,#355,#357));
#359=FACE_OUTER_BOUND('',#358,.F.);
#360=ADVANCED_FACE('',(#359),#350,.T.);
#361=CARTESIAN_POINT('',(-3.4E1,0.E0,0.E0));
#362=DIRECTION('',(1.E0,0.E0,0.E0));
#363=DIRECTION('',(0.E0,-1.E0,0.E0));
#364=AXIS2_PLACEMENT_3D('',#361,#362,#363);
#365=PLANE('',#364);
#366=ORIENTED_EDGE('',*,*,#351,.T.);
#368=ORIENTED_EDGE('',*,*,#367,.T.);
#369=EDGE_LOOP('',(#366,#368));
#370=FACE_OUTER_BOUND('',#369,.F.);
#372=ORIENTED_EDGE('',*,*,#371,.F.);
#374=ORIENTED_EDGE('',*,*,#373,.F.);
#375=EDGE_LOOP('',(#372,#374));
#376=FACE_BOUND('',#375,.F.);
#377=ADVANCED_FACE('',(#370,#376),#365,.F.);
#378=CARTESIAN_POINT('',(-3.375E1,0.E0,0.E0));
#379=DIRECTION('',(-1.E0,0.E0,0.E0));
#380=DIRECTION('',(0.E0,1.E0,0.E0));
#381=AXIS2_PLACEMENT_3D('',#378,#379,#380);
#382=CONICAL_SURFACE('',#381,7.244337567297E0,3.E1);
#383=ORIENTED_EDGE('',*,*,#371,.T.);
#385=ORIENTED_EDGE('',*,*,#384,.F.);
#387=ORIENTED_EDGE('',*,*,#386,.T.);
#389=ORIENTED_EDGE('',*,*,#388,.F.);
#390=EDGE_LOOP('',(#383,#385,#387,#389));
#391=FACE_OUTER_BOUND('',#390,.F.);
#392=ADVANCED_FACE('',(#391),#382,.F.);
#393=CARTESIAN_POINT('',(-3.375E1,0.E0,0.E0));
#394=DIRECTION('',(-1.E0,0.E0,0.E0));
#395=DIRECTION('',(0.E0,1.E0,0.E0));
#396=AXIS2_PLACEMENT_3D('',#393,#394,#395);
#397=CONICAL_SURFACE('',#396,7.244337567297E0,3.E1);
#398=ORIENTED_EDGE('',*,*,#373,.T.);
#399=ORIENTED_EDGE('',*,*,#388,.T.);
#401=ORIENTED_EDGE('',*,*,#400,.F.);
#402=ORIENTED_EDGE('',*,*,#384,.T.);
#403=EDGE_LOOP('',(#398,#399,#401,#402));
#404=FACE_OUTER_BOUND('',#403,.F.);
#405=ADVANCED_FACE('',(#404),#397,.F.);
#406=CARTESIAN_POINT('',(-3.430495934556E1,0.E0,0.E0));
#407=DIRECTION('',(1.E0,0.E0,0.E0));
#408=DIRECTION('',(0.E0,-1.E0,0.E0));
#409=AXIS2_PLACEMENT_3D('',#406,#407,#408);
#410=CYLINDRICAL_SURFACE('',#409,7.1E0);
#412=ORIENTED_EDGE('',*,*,#411,.F.);
#414=ORIENTED_EDGE('',*,*,#413,.F.);
#415=ORIENTED_EDGE('',*,*,#400,.T.);
#417=ORIENTED_EDGE('',*,*,#416,.T.);
#418=EDGE_LOOP('',(#412,#414,#415,#417));
#419=FACE_OUTER_BOUND('',#418,.F.);
#420=ADVANCED_FACE('',(#419),#410,.F.);
#421=CARTESIAN_POINT('',(-3.3E1,0.E0,0.E0));
#422=DIRECTION('',(-1.E0,0.E0,0.E0));
#423=DIRECTION('',(0.E0,-1.E0,0.E0));
#424=AXIS2_PLACEMENT_3D('',#421,#422,#423);
#425=PLANE('',#424);
#427=ORIENTED_EDGE('',*,*,#426,.T.);
#429=ORIENTED_EDGE('',*,*,#428,.T.);
#430=EDGE_LOOP('',(#427,#429));
#431=FACE_OUTER_BOUND('',#430,.F.);
#433=ORIENTED_EDGE('',*,*,#432,.T.);
#434=ORIENTED_EDGE('',*,*,#411,.T.);
#435=EDGE_LOOP('',(#433,#434));
#436=FACE_BOUND('',#435,.F.);
#437=ADVANCED_FACE('',(#431,#436),#425,.F.);
#438=CARTESIAN_POINT('',(0.E0,0.E0,0.E0));
#439=DIRECTION('',(-1.E0,0.E0,0.E0));
#440=DIRECTION('',(0.E0,-1.E0,0.E0));
#441=AXIS2_PLACEMENT_3D('',#438,#439,#440);
#442=CYLINDRICAL_SURFACE('',#441,8.E0);
#443=ORIENTED_EDGE('',*,*,#236,.T.);
#445=ORIENTED_EDGE('',*,*,#444,.T.);
#446=ORIENTED_EDGE('',*,*,#426,.F.);
#448=ORIENTED_EDGE('',*,*,#447,.F.);
#449=EDGE_LOOP('',(#443,#445,#446,#448));
#450=FACE_OUTER_BOUND('',#449,.F.);
#451=ADVANCED_FACE('',(#450),#442,.F.);
#452=CARTESIAN_POINT('',(0.E0,0.E0,0.E0));
#453=DIRECTION('',(-1.E0,0.E0,0.E0));
#454=DIRECTION('',(0.E0,-1.E0,0.E0));
#455=AXIS2_PLACEMENT_3D('',#452,#453,#454);
#456=CYLINDRICAL_SURFACE('',#455,8.E0);
#457=ORIENTED_EDGE('',*,*,#238,.T.);
#458=ORIENTED_EDGE('',*,*,#447,.T.);
#459=ORIENTED_EDGE('',*,*,#428,.F.);
#460=ORIENTED_EDGE('',*,*,#444,.F.);
#461=EDGE_LOOP('',(#457,#458,#459,#460));
#462=FACE_OUTER_BOUND('',#461,.F.);
#463=ADVANCED_FACE('',(#462),#456,.F.);
#464=CARTESIAN_POINT('',(-3.430495934556E1,0.E0,0.E0));
#465=DIRECTION('',(1.E0,0.E0,0.E0));
#466=DIRECTION('',(0.E0,-1.E0,0.E0));
#467=AXIS2_PLACEMENT_3D('',#464,#465,#466);
#468=CYLINDRICAL_SURFACE('',#467,7.1E0);
#469=ORIENTED_EDGE('',*,*,#432,.F.);
#470=ORIENTED_EDGE('',*,*,#416,.F.);
#471=ORIENTED_EDGE('',*,*,#386,.F.);
#472=ORIENTED_EDGE('',*,*,#413,.T.);
#473=EDGE_LOOP('',(#469,#470,#471,#472));
#474=FACE_OUTER_BOUND('',#473,.F.);
#475=ADVANCED_FACE('',(#474),#468,.F.);
#476=CARTESIAN_POINT('',(-3.375E1,0.E0,0.E0));
#477=DIRECTION('',(1.E0,0.E0,0.E0));
#478=DIRECTION('',(0.E0,-1.E0,0.E0));
#479=AXIS2_PLACEMENT_3D('',#476,#477,#478);
#480=CONICAL_SURFACE('',#479,8.782540519489E0,2.800153651950E1);
#481=ORIENTED_EDGE('',*,*,#367,.F.);
#482=ORIENTED_EDGE('',*,*,#356,.T.);
#484=ORIENTED_EDGE('',*,*,#483,.T.);
#485=ORIENTED_EDGE('',*,*,#353,.T.);
#486=EDGE_LOOP('',(#481,#482,#484,#485));
#487=FACE_OUTER_BOUND('',#486,.F.);
#488=ADVANCED_FACE('',(#487),#480,.T.);
#489=CARTESIAN_POINT('',(-2.075E1,0.E0,0.E0));
#490=DIRECTION('',(1.E0,0.E0,0.E0));
#491=DIRECTION('',(0.E0,-1.E0,0.E0));
#492=AXIS2_PLACEMENT_3D('',#489,#490,#491);
#493=CONICAL_SURFACE('',#492,1.070772079545E1,8.001536519498E0);
#494=ORIENTED_EDGE('',*,*,#483,.F.);
#495=ORIENTED_EDGE('',*,*,#341,.F.);
#496=ORIENTED_EDGE('',*,*,#322,.F.);
#497=ORIENTED_EDGE('',*,*,#338,.T.);
#498=EDGE_LOOP('',(#494,#495,#496,#497));
#499=FACE_OUTER_BOUND('',#498,.F.);
#500=ADVANCED_FACE('',(#499),#493,.T.);
#501=CLOSED_SHELL('',(#242,#257,#270,#286,#301,#314,#330,#345,#360,#377,#392,
#405,#420,#437,#451,#463,#475,#488,#500));
#502=MANIFOLD_SOLID_BREP('',#501);
#504=DIMENSIONAL_EXPONENTS(0.E0,0.E0,0.E0,0.E0,0.E0,0.E0,0.E0);
#506=PLANE_ANGLE_MEASURE_WITH_UNIT(PLANE_ANGLE_MEASURE(1.745329251994E-2),#505);
#507=(CONVERSION_BASED_UNIT('DEGREE',#506)NAMED_UNIT(*)PLANE_ANGLE_UNIT());
#509=UNCERTAINTY_MEASURE_WITH_UNIT(LENGTH_MEASURE(1.E-2),#503,'closure',
'Maximum model space distance between geometric entities at asserted connectivities');
#510=(GEOMETRIC_REPRESENTATION_CONTEXT(3)GLOBAL_UNCERTAINTY_ASSIGNED_CONTEXT((
#509))GLOBAL_UNIT_ASSIGNED_CONTEXT((#503,#507,#508))REPRESENTATION_CONTEXT
('ID1','3'));
#512=APPLICATION_CONTEXT(
'CONFIGURATION CONTROLLED 3D DESIGNS OF MECHANICAL PARTS AND ASSEMBLIES');
#513=APPLICATION_PROTOCOL_DEFINITION('international standard',
'config_control_design',1994,#512);
#514=DESIGN_CONTEXT('',#512,'design');
#515=MECHANICAL_CONTEXT('',#512,'mechanical');
#516=PRODUCT('LAN_ER25_PROTOTYP_A0_D16','LAN_ER25_PROTOTYP_A0_D16',
'NOT SPECIFIED',(#515));
#517=PRODUCT_DEFINITION_FORMATION_WITH_SPECIFIED_SOURCE('1','LAST_VERSION',#516,
.MADE.);
#521=PRODUCT_CATEGORY('part','');
#522=PRODUCT_RELATED_PRODUCT_CATEGORY('detail','',(#516));
#523=PRODUCT_CATEGORY_RELATIONSHIP('','',#521,#522);
#524=SECURITY_CLASSIFICATION_LEVEL('unclassified');
#525=SECURITY_CLASSIFICATION('','',#524);
#526=CC_DESIGN_SECURITY_CLASSIFICATION(#525,(#517));
#527=APPROVAL_STATUS('approved');
#528=APPROVAL(#527,'');
#529=CC_DESIGN_APPROVAL(#528,(#525,#517,#518));
#530=CALENDAR_DATE(117,30,11);
#531=COORDINATED_UNIVERSAL_TIME_OFFSET(1,0,.AHEAD.);
#532=LOCAL_TIME(8,58,5.8E1,#531);
#533=DATE_AND_TIME(#530,#532);
#534=APPROVAL_DATE_TIME(#533,#528);
#535=DATE_TIME_ROLE('creation_date');
#536=CC_DESIGN_DATE_AND_TIME_ASSIGNMENT(#533,#535,(#518));
#537=DATE_TIME_ROLE('classification_date');
#538=CC_DESIGN_DATE_AND_TIME_ASSIGNMENT(#533,#537,(#525));
#539=PERSON('UNSPECIFIED','UNSPECIFIED',$,$,$,$);
#540=ORGANIZATION('UNSPECIFIED','UNSPECIFIED','UNSPECIFIED');
#541=PERSON_AND_ORGANIZATION(#539,#540);
#542=APPROVAL_ROLE('approver');
#543=APPROVAL_PERSON_ORGANIZATION(#541,#528,#542);
#544=PERSON_AND_ORGANIZATION_ROLE('creator');
#545=CC_DESIGN_PERSON_AND_ORGANIZATION_ASSIGNMENT(#541,#544,(#517,#518));
#546=PERSON_AND_ORGANIZATION_ROLE('design_supplier');
#547=CC_DESIGN_PERSON_AND_ORGANIZATION_ASSIGNMENT(#541,#546,(#517));
#548=PERSON_AND_ORGANIZATION_ROLE('classification_officer');
#549=CC_DESIGN_PERSON_AND_ORGANIZATION_ASSIGNMENT(#541,#548,(#525));
#550=PERSON_AND_ORGANIZATION_ROLE('design_owner');
#551=CC_DESIGN_PERSON_AND_ORGANIZATION_ASSIGNMENT(#541,#550,(#516));
#5=CIRCLE('',#4,8.E0);
#10=CIRCLE('',#9,8.E0);
#15=CIRCLE('',#14,1.024988380017E1);
#28=CIRCLE('',#27,1.024988380017E1);
#33=CIRCLE('',#32,1.311341079988E1);
#38=CIRCLE('',#37,1.311341079988E1);
#43=CIRCLE('',#42,1.1E1);
#56=CIRCLE('',#55,1.1E1);
#61=CIRCLE('',#60,1.1E1);
#66=CIRCLE('',#65,1.1E1);
#71=CIRCLE('',#70,8.915476477273E0);
#76=CIRCLE('',#75,1.249996511364E1);
#81=CIRCLE('',#80,8.649604561706E0);
#86=CIRCLE('',#85,7.388675134595E0);
#91=CIRCLE('',#90,7.1E0);
#96=CIRCLE('',#95,7.388675134595E0);
#105=CIRCLE('',#104,7.1E0);
#114=CIRCLE('',#113,7.1E0);
#127=CIRCLE('',#126,8.E0);
#132=CIRCLE('',#131,8.E0);
#145=CIRCLE('',#144,7.1E0);
#150=CIRCLE('',#149,8.649604561706E0);
#163=CIRCLE('',#162,8.915476477273E0);
#172=CIRCLE('',#171,1.249996511364E1);
#230=EDGE_CURVE('',#179,#187,#15,.T.);
#232=EDGE_CURVE('',#179,#187,#28,.T.);
#236=EDGE_CURVE('',#219,#220,#5,.T.);
#238=EDGE_CURVE('',#220,#219,#10,.T.);
#248=EDGE_CURVE('',#179,#180,#19,.T.);
#251=EDGE_CURVE('',#187,#188,#23,.T.);
#253=EDGE_CURVE('',#180,#188,#38,.T.);
#264=EDGE_CURVE('',#180,#188,#33,.T.);
#280=EDGE_CURVE('',#183,#191,#43,.T.);
#282=EDGE_CURVE('',#183,#191,#56,.T.);
#292=EDGE_CURVE('',#183,#184,#47,.T.);
#295=EDGE_CURVE('',#191,#192,#51,.T.);
#297=EDGE_CURVE('',#184,#192,#66,.T.);
#308=EDGE_CURVE('',#184,#192,#61,.T.);
#320=EDGE_CURVE('',#211,#212,#76,.T.);
#322=EDGE_CURVE('',#211,#212,#172,.T.);
#336=EDGE_CURVE('',#199,#200,#71,.T.);
#338=EDGE_CURVE('',#211,#199,#176,.T.);
#341=EDGE_CURVE('',#212,#200,#167,.T.);
#351=EDGE_CURVE('',#207,#208,#81,.T.);
#353=EDGE_CURVE('',#199,#207,#158,.T.);
#356=EDGE_CURVE('',#208,#200,#154,.T.);
#367=EDGE_CURVE('',#208,#207,#150,.T.);
#371=EDGE_CURVE('',#203,#204,#86,.T.);
#373=EDGE_CURVE('',#204,#203,#96,.T.);
#384=EDGE_CURVE('',#195,#204,#109,.T.);
#386=EDGE_CURVE('',#195,#196,#91,.T.);
#388=EDGE_CURVE('',#203,#196,#100,.T.);
#400=EDGE_CURVE('',#195,#196,#105,.T.);
#411=EDGE_CURVE('',#224,#223,#114,.T.);
#413=EDGE_CURVE('',#195,#224,#118,.T.);
#416=EDGE_CURVE('',#196,#223,#122,.T.);
#426=EDGE_CURVE('',#215,#216,#127,.T.);
#428=EDGE_CURVE('',#216,#215,#132,.T.);
#432=EDGE_CURVE('',#223,#224,#145,.T.);
#444=EDGE_CURVE('',#220,#216,#140,.T.);
#447=EDGE_CURVE('',#219,#215,#136,.T.);
#483=EDGE_CURVE('',#200,#199,#163,.T.);
#503=(LENGTH_UNIT()NAMED_UNIT(*)SI_UNIT(.MILLI.,.METRE.));
#505=(NAMED_UNIT(*)PLANE_ANGLE_UNIT()SI_UNIT($,.RADIAN.));
#508=(NAMED_UNIT(*)SI_UNIT($,.STERADIAN.)SOLID_ANGLE_UNIT());
#511=ADVANCED_BREP_SHAPE_REPRESENTATION('',(#502),#510);
#518=PRODUCT_DEFINITION('design','',#517,#514);
#519=PRODUCT_DEFINITION_SHAPE('','SHAPE FOR LAN_ER25_PROTOTYP_A0_D16.',#518);
#520=SHAPE_DEFINITION_REPRESENTATION(#519,#511);
ENDSEC;
END-ISO-10303-21;
