ISO-10303-21;
HEADER;
FILE_DESCRIPTION((''),'2;1');
FILE_NAME('LAN_ER25_PROTOTYP_A0_D4','2017-11-30T',('Jon'),(''),
'CREO PARAMETRIC BY PTC INC, 2016260','CREO PARAMETRIC BY PTC INC, 2016260','');
FILE_SCHEMA(('CONFIG_CONTROL_DESIGN'));
ENDSEC;
DATA;
#1=CARTESIAN_POINT('',(0.E0,0.E0,0.E0));
#2=DIRECTION('',(-1.E0,0.E0,0.E0));
#3=DIRECTION('',(0.E0,-1.E0,0.E0));
#4=AXIS2_PLACEMENT_3D('',#1,#2,#3);
#6=CARTESIAN_POINT('',(0.E0,0.E0,0.E0));
#7=DIRECTION('',(-1.E0,0.E0,0.E0));
#8=DIRECTION('',(0.E0,1.E0,0.E0));
#9=AXIS2_PLACEMENT_3D('',#6,#7,#8);
#11=CARTESIAN_POINT('',(0.E0,0.E0,0.E0));
#12=DIRECTION('',(1.E0,0.E0,0.E0));
#13=DIRECTION('',(0.E0,1.E0,0.E0));
#14=AXIS2_PLACEMENT_3D('',#11,#12,#13);
#16=DIRECTION('',(-8.677654533689E-1,4.969739610276E-1,0.E0));
#17=VECTOR('',#16,5.761925622400E0);
#18=CARTESIAN_POINT('',(0.E0,1.024988380017E1,0.E0));
#19=LINE('',#18,#17);
#20=DIRECTION('',(-8.677654533689E-1,-4.969739610276E-1,0.E0));
#21=VECTOR('',#20,5.761925622400E0);
#22=CARTESIAN_POINT('',(0.E0,-1.024988380017E1,0.E0));
#23=LINE('',#22,#21);
#24=CARTESIAN_POINT('',(0.E0,0.E0,0.E0));
#25=DIRECTION('',(-1.E0,0.E0,0.E0));
#26=DIRECTION('',(0.E0,1.E0,0.E0));
#27=AXIS2_PLACEMENT_3D('',#24,#25,#26);
#29=CARTESIAN_POINT('',(-5.E0,0.E0,0.E0));
#30=DIRECTION('',(-1.E0,0.E0,0.E0));
#31=DIRECTION('',(0.E0,1.E0,0.E0));
#32=AXIS2_PLACEMENT_3D('',#29,#30,#31);
#34=CARTESIAN_POINT('',(-5.E0,0.E0,0.E0));
#35=DIRECTION('',(1.E0,0.E0,0.E0));
#36=DIRECTION('',(0.E0,1.E0,0.E0));
#37=AXIS2_PLACEMENT_3D('',#34,#35,#36);
#39=CARTESIAN_POINT('',(-5.E0,0.E0,0.E0));
#40=DIRECTION('',(1.E0,0.E0,0.E0));
#41=DIRECTION('',(0.E0,1.E0,0.E0));
#42=AXIS2_PLACEMENT_3D('',#39,#40,#41);
#44=DIRECTION('',(-1.E0,0.E0,0.E0));
#45=VECTOR('',#44,3.E0);
#46=CARTESIAN_POINT('',(-5.E0,1.1E1,0.E0));
#47=LINE('',#46,#45);
#48=DIRECTION('',(-1.E0,0.E0,0.E0));
#49=VECTOR('',#48,3.E0);
#50=CARTESIAN_POINT('',(-5.E0,-1.1E1,0.E0));
#51=LINE('',#50,#49);
#52=CARTESIAN_POINT('',(-5.E0,0.E0,0.E0));
#53=DIRECTION('',(-1.E0,0.E0,0.E0));
#54=DIRECTION('',(0.E0,1.E0,0.E0));
#55=AXIS2_PLACEMENT_3D('',#52,#53,#54);
#57=CARTESIAN_POINT('',(-8.E0,0.E0,0.E0));
#58=DIRECTION('',(-1.E0,0.E0,0.E0));
#59=DIRECTION('',(0.E0,1.E0,0.E0));
#60=AXIS2_PLACEMENT_3D('',#57,#58,#59);
#62=CARTESIAN_POINT('',(-8.E0,0.E0,0.E0));
#63=DIRECTION('',(1.E0,0.E0,0.E0));
#64=DIRECTION('',(0.E0,1.E0,0.E0));
#65=AXIS2_PLACEMENT_3D('',#62,#63,#64);
#67=CARTESIAN_POINT('',(-3.35E1,0.E0,0.E0));
#68=DIRECTION('',(1.E0,0.E0,0.E0));
#69=DIRECTION('',(0.E0,1.E0,0.E0));
#70=AXIS2_PLACEMENT_3D('',#67,#68,#69);
#72=CARTESIAN_POINT('',(-8.E0,0.E0,0.E0));
#73=DIRECTION('',(1.E0,0.E0,0.E0));
#74=DIRECTION('',(0.E0,1.E0,0.E0));
#75=AXIS2_PLACEMENT_3D('',#72,#73,#74);
#77=CARTESIAN_POINT('',(-3.4E1,0.E0,0.E0));
#78=DIRECTION('',(1.E0,0.E0,0.E0));
#79=DIRECTION('',(0.E0,1.E0,0.E0));
#80=AXIS2_PLACEMENT_3D('',#77,#78,#79);
#82=CARTESIAN_POINT('',(-3.4E1,0.E0,0.E0));
#83=DIRECTION('',(1.E0,0.E0,0.E0));
#84=DIRECTION('',(0.E0,1.E0,0.E0));
#85=AXIS2_PLACEMENT_3D('',#82,#83,#84);
#87=CARTESIAN_POINT('',(-3.35E1,0.E0,0.E0));
#88=DIRECTION('',(-1.E0,0.E0,0.E0));
#89=DIRECTION('',(0.E0,-1.E0,0.E0));
#90=AXIS2_PLACEMENT_3D('',#87,#88,#89);
#92=CARTESIAN_POINT('',(-3.4E1,0.E0,0.E0));
#93=DIRECTION('',(1.E0,0.E0,0.E0));
#94=DIRECTION('',(0.E0,-1.E0,0.E0));
#95=AXIS2_PLACEMENT_3D('',#92,#93,#94);
#97=DIRECTION('',(8.660254037844E-1,-5.E-1,0.E0));
#98=VECTOR('',#97,5.773502691896E-1);
#99=CARTESIAN_POINT('',(-3.4E1,7.388675134595E0,0.E0));
#100=LINE('',#99,#98);
#101=CARTESIAN_POINT('',(-3.35E1,0.E0,0.E0));
#102=DIRECTION('',(1.E0,0.E0,0.E0));
#103=DIRECTION('',(0.E0,-1.E0,0.E0));
#104=AXIS2_PLACEMENT_3D('',#101,#102,#103);
#106=DIRECTION('',(-8.660254037844E-1,-5.E-1,0.E0));
#107=VECTOR('',#106,5.773502691896E-1);
#108=CARTESIAN_POINT('',(-3.35E1,-7.1E0,0.E0));
#109=LINE('',#108,#107);
#110=DIRECTION('',(1.E0,0.E0,0.E0));
#111=VECTOR('',#110,1.5E0);
#112=CARTESIAN_POINT('',(-3.35E1,7.1E0,0.E0));
#113=LINE('',#112,#111);
#114=CARTESIAN_POINT('',(-3.2E1,0.E0,0.E0));
#115=DIRECTION('',(1.E0,0.E0,0.E0));
#116=DIRECTION('',(0.E0,-1.E0,0.E0));
#117=AXIS2_PLACEMENT_3D('',#114,#115,#116);
#119=DIRECTION('',(1.E0,0.E0,0.E0));
#120=VECTOR('',#119,1.5E0);
#121=CARTESIAN_POINT('',(-3.35E1,-7.1E0,0.E0));
#122=LINE('',#121,#120);
#123=CARTESIAN_POINT('',(-3.2E1,0.E0,0.E0));
#124=DIRECTION('',(-1.E0,0.E0,0.E0));
#125=DIRECTION('',(0.E0,-1.E0,0.E0));
#126=AXIS2_PLACEMENT_3D('',#123,#124,#125);
#128=CARTESIAN_POINT('',(-2.905551362713E1,0.E0,0.E0));
#129=DIRECTION('',(-1.E0,0.E0,0.E0));
#130=DIRECTION('',(0.E0,-1.E0,0.E0));
#131=AXIS2_PLACEMENT_3D('',#128,#129,#130);
#133=DIRECTION('',(-1.E0,0.E0,0.E0));
#134=VECTOR('',#133,2.905551362713E1);
#135=CARTESIAN_POINT('',(0.E0,-2.E0,0.E0));
#136=LINE('',#135,#134);
#137=DIRECTION('',(-1.E0,0.E0,0.E0));
#138=VECTOR('',#137,2.905551362713E1);
#139=CARTESIAN_POINT('',(0.E0,2.E0,0.E0));
#140=LINE('',#139,#138);
#141=CARTESIAN_POINT('',(-2.905551362713E1,0.E0,0.E0));
#142=DIRECTION('',(-1.E0,0.E0,0.E0));
#143=DIRECTION('',(0.E0,1.E0,0.E0));
#144=AXIS2_PLACEMENT_3D('',#141,#142,#143);
#146=DIRECTION('',(5.E-1,8.660254037844E-1,0.E0));
#147=VECTOR('',#146,5.888972745734E0);
#148=CARTESIAN_POINT('',(-3.2E1,-7.1E0,0.E0));
#149=LINE('',#148,#147);
#150=DIRECTION('',(5.E-1,-8.660254037844E-1,0.E0));
#151=VECTOR('',#150,5.888972745734E0);
#152=CARTESIAN_POINT('',(-3.2E1,7.1E0,0.E0));
#153=LINE('',#152,#151);
#154=CARTESIAN_POINT('',(-3.4E1,0.E0,0.E0));
#155=DIRECTION('',(1.E0,0.E0,0.E0));
#156=DIRECTION('',(0.E0,-1.E0,0.E0));
#157=AXIS2_PLACEMENT_3D('',#154,#155,#156);
#159=DIRECTION('',(8.829350025703E-1,-4.694952409090E-1,0.E0));
#160=VECTOR('',#159,5.662931003352E-1);
#161=CARTESIAN_POINT('',(-3.4E1,-8.649604561706E0,0.E0));
#162=LINE('',#161,#160);
#163=DIRECTION('',(-8.829350025703E-1,-4.694952409090E-1,0.E0));
#164=VECTOR('',#163,5.662931003352E-1);
#165=CARTESIAN_POINT('',(-3.35E1,8.915476477273E0,0.E0));
#166=LINE('',#165,#164);
#167=CARTESIAN_POINT('',(-3.35E1,0.E0,0.E0));
#168=DIRECTION('',(1.E0,0.E0,0.E0));
#169=DIRECTION('',(0.E0,-1.E0,0.E0));
#170=AXIS2_PLACEMENT_3D('',#167,#168,#169);
#172=DIRECTION('',(-9.902643361353E-1,1.391996572499E-1,0.E0));
#173=VECTOR('',#172,2.575070016105E1);
#174=CARTESIAN_POINT('',(-8.E0,-1.249996511364E1,0.E0));
#175=LINE('',#174,#173);
#176=CARTESIAN_POINT('',(-8.E0,0.E0,0.E0));
#177=DIRECTION('',(-1.E0,0.E0,0.E0));
#178=DIRECTION('',(0.E0,1.E0,0.E0));
#179=AXIS2_PLACEMENT_3D('',#176,#177,#178);
#181=DIRECTION('',(-9.902643361353E-1,-1.391996572499E-1,0.E0));
#182=VECTOR('',#181,2.575070016105E1);
#183=CARTESIAN_POINT('',(-8.E0,1.249996511364E1,0.E0));
#184=LINE('',#183,#182);
#185=CARTESIAN_POINT('',(0.E0,1.024988380017E1,0.E0));
#186=CARTESIAN_POINT('',(-5.E0,1.311341079988E1,0.E0));
#187=VERTEX_POINT('',#185);
#188=VERTEX_POINT('',#186);
#189=CARTESIAN_POINT('',(-5.E0,1.1E1,0.E0));
#190=CARTESIAN_POINT('',(-8.E0,1.1E1,0.E0));
#191=VERTEX_POINT('',#189);
#192=VERTEX_POINT('',#190);
#193=CARTESIAN_POINT('',(0.E0,-1.024988380017E1,0.E0));
#194=CARTESIAN_POINT('',(-5.E0,-1.311341079988E1,0.E0));
#195=VERTEX_POINT('',#193);
#196=VERTEX_POINT('',#194);
#197=CARTESIAN_POINT('',(-5.E0,-1.1E1,0.E0));
#198=CARTESIAN_POINT('',(-8.E0,-1.1E1,0.E0));
#199=VERTEX_POINT('',#197);
#200=VERTEX_POINT('',#198);
#201=CARTESIAN_POINT('',(-3.35E1,7.1E0,0.E0));
#202=CARTESIAN_POINT('',(-3.2E1,7.1E0,0.E0));
#203=VERTEX_POINT('',#201);
#204=VERTEX_POINT('',#202);
#205=CARTESIAN_POINT('',(-3.35E1,-7.1E0,0.E0));
#206=CARTESIAN_POINT('',(-3.2E1,-7.1E0,0.E0));
#207=VERTEX_POINT('',#205);
#208=VERTEX_POINT('',#206);
#209=CARTESIAN_POINT('',(-3.35E1,8.915476477273E0,0.E0));
#210=CARTESIAN_POINT('',(-3.35E1,-8.915476477273E0,0.E0));
#211=VERTEX_POINT('',#209);
#212=VERTEX_POINT('',#210);
#213=CARTESIAN_POINT('',(-3.4E1,7.388675134595E0,0.E0));
#214=CARTESIAN_POINT('',(-3.4E1,-7.388675134595E0,0.E0));
#215=VERTEX_POINT('',#213);
#216=VERTEX_POINT('',#214);
#217=CARTESIAN_POINT('',(-3.4E1,8.649604561706E0,0.E0));
#218=CARTESIAN_POINT('',(-3.4E1,-8.649604561706E0,0.E0));
#219=VERTEX_POINT('',#217);
#220=VERTEX_POINT('',#218);
#221=CARTESIAN_POINT('',(-8.E0,1.249996511364E1,0.E0));
#222=CARTESIAN_POINT('',(-8.E0,-1.249996511364E1,0.E0));
#223=VERTEX_POINT('',#221);
#224=VERTEX_POINT('',#222);
#225=CARTESIAN_POINT('',(0.E0,-2.E0,0.E0));
#226=CARTESIAN_POINT('',(0.E0,2.E0,0.E0));
#227=VERTEX_POINT('',#225);
#228=VERTEX_POINT('',#226);
#229=CARTESIAN_POINT('',(-2.905551362713E1,-2.E0,0.E0));
#230=CARTESIAN_POINT('',(-2.905551362713E1,2.E0,0.E0));
#231=VERTEX_POINT('',#229);
#232=VERTEX_POINT('',#230);
#233=CARTESIAN_POINT('',(0.E0,0.E0,0.E0));
#234=DIRECTION('',(1.E0,0.E0,0.E0));
#235=DIRECTION('',(0.E0,-1.E0,0.E0));
#236=AXIS2_PLACEMENT_3D('',#233,#234,#235);
#237=PLANE('',#236);
#239=ORIENTED_EDGE('',*,*,#238,.F.);
#241=ORIENTED_EDGE('',*,*,#240,.T.);
#242=EDGE_LOOP('',(#239,#241));
#243=FACE_OUTER_BOUND('',#242,.F.);
#245=ORIENTED_EDGE('',*,*,#244,.F.);
#247=ORIENTED_EDGE('',*,*,#246,.F.);
#248=EDGE_LOOP('',(#245,#247));
#249=FACE_BOUND('',#248,.F.);
#250=ADVANCED_FACE('',(#243,#249),#237,.T.);
#251=CARTESIAN_POINT('',(-2.5E0,0.E0,0.E0));
#252=DIRECTION('',(-1.E0,0.E0,0.E0));
#253=DIRECTION('',(0.E0,1.E0,0.E0));
#254=AXIS2_PLACEMENT_3D('',#251,#252,#253);
#255=CONICAL_SURFACE('',#254,1.168164730003E1,2.98E1);
#257=ORIENTED_EDGE('',*,*,#256,.F.);
#258=ORIENTED_EDGE('',*,*,#238,.T.);
#260=ORIENTED_EDGE('',*,*,#259,.T.);
#262=ORIENTED_EDGE('',*,*,#261,.F.);
#263=EDGE_LOOP('',(#257,#258,#260,#262));
#264=FACE_OUTER_BOUND('',#263,.F.);
#265=ADVANCED_FACE('',(#264),#255,.T.);
#266=CARTESIAN_POINT('',(-2.5E0,0.E0,0.E0));
#267=DIRECTION('',(-1.E0,0.E0,0.E0));
#268=DIRECTION('',(0.E0,1.E0,0.E0));
#269=AXIS2_PLACEMENT_3D('',#266,#267,#268);
#270=CONICAL_SURFACE('',#269,1.168164730003E1,2.98E1);
#271=ORIENTED_EDGE('',*,*,#256,.T.);
#273=ORIENTED_EDGE('',*,*,#272,.T.);
#274=ORIENTED_EDGE('',*,*,#259,.F.);
#275=ORIENTED_EDGE('',*,*,#240,.F.);
#276=EDGE_LOOP('',(#271,#273,#274,#275));
#277=FACE_OUTER_BOUND('',#276,.F.);
#278=ADVANCED_FACE('',(#277),#270,.T.);
#279=CARTESIAN_POINT('',(-5.E0,0.E0,0.E0));
#280=DIRECTION('',(1.E0,0.E0,0.E0));
#281=DIRECTION('',(0.E0,-1.E0,0.E0));
#282=AXIS2_PLACEMENT_3D('',#279,#280,#281);
#283=PLANE('',#282);
#284=ORIENTED_EDGE('',*,*,#272,.F.);
#285=ORIENTED_EDGE('',*,*,#261,.T.);
#286=EDGE_LOOP('',(#284,#285));
#287=FACE_OUTER_BOUND('',#286,.F.);
#289=ORIENTED_EDGE('',*,*,#288,.F.);
#291=ORIENTED_EDGE('',*,*,#290,.T.);
#292=EDGE_LOOP('',(#289,#291));
#293=FACE_BOUND('',#292,.F.);
#294=ADVANCED_FACE('',(#287,#293),#283,.F.);
#295=CARTESIAN_POINT('',(0.E0,0.E0,0.E0));
#296=DIRECTION('',(1.E0,0.E0,0.E0));
#297=DIRECTION('',(0.E0,-1.E0,0.E0));
#298=AXIS2_PLACEMENT_3D('',#295,#296,#297);
#299=CYLINDRICAL_SURFACE('',#298,1.1E1);
#301=ORIENTED_EDGE('',*,*,#300,.F.);
#302=ORIENTED_EDGE('',*,*,#288,.T.);
#304=ORIENTED_EDGE('',*,*,#303,.T.);
#306=ORIENTED_EDGE('',*,*,#305,.F.);
#307=EDGE_LOOP('',(#301,#302,#304,#306));
#308=FACE_OUTER_BOUND('',#307,.F.);
#309=ADVANCED_FACE('',(#308),#299,.T.);
#310=CARTESIAN_POINT('',(0.E0,0.E0,0.E0));
#311=DIRECTION('',(1.E0,0.E0,0.E0));
#312=DIRECTION('',(0.E0,-1.E0,0.E0));
#313=AXIS2_PLACEMENT_3D('',#310,#311,#312);
#314=CYLINDRICAL_SURFACE('',#313,1.1E1);
#315=ORIENTED_EDGE('',*,*,#300,.T.);
#317=ORIENTED_EDGE('',*,*,#316,.T.);
#318=ORIENTED_EDGE('',*,*,#303,.F.);
#319=ORIENTED_EDGE('',*,*,#290,.F.);
#320=EDGE_LOOP('',(#315,#317,#318,#319));
#321=FACE_OUTER_BOUND('',#320,.F.);
#322=ADVANCED_FACE('',(#321),#314,.T.);
#323=CARTESIAN_POINT('',(-8.E0,0.E0,0.E0));
#324=DIRECTION('',(1.E0,0.E0,0.E0));
#325=DIRECTION('',(0.E0,-1.E0,0.E0));
#326=AXIS2_PLACEMENT_3D('',#323,#324,#325);
#327=PLANE('',#326);
#329=ORIENTED_EDGE('',*,*,#328,.F.);
#331=ORIENTED_EDGE('',*,*,#330,.T.);
#332=EDGE_LOOP('',(#329,#331));
#333=FACE_OUTER_BOUND('',#332,.F.);
#334=ORIENTED_EDGE('',*,*,#316,.F.);
#335=ORIENTED_EDGE('',*,*,#305,.T.);
#336=EDGE_LOOP('',(#334,#335));
#337=FACE_BOUND('',#336,.F.);
#338=ADVANCED_FACE('',(#333,#337),#327,.T.);
#339=CARTESIAN_POINT('',(-2.075E1,0.E0,0.E0));
#340=DIRECTION('',(1.E0,0.E0,0.E0));
#341=DIRECTION('',(0.E0,-1.E0,0.E0));
#342=AXIS2_PLACEMENT_3D('',#339,#340,#341);
#343=CONICAL_SURFACE('',#342,1.070772079545E1,8.001536519498E0);
#345=ORIENTED_EDGE('',*,*,#344,.F.);
#347=ORIENTED_EDGE('',*,*,#346,.F.);
#348=ORIENTED_EDGE('',*,*,#328,.T.);
#350=ORIENTED_EDGE('',*,*,#349,.T.);
#351=EDGE_LOOP('',(#345,#347,#348,#350));
#352=FACE_OUTER_BOUND('',#351,.F.);
#353=ADVANCED_FACE('',(#352),#343,.T.);
#354=CARTESIAN_POINT('',(-3.375E1,0.E0,0.E0));
#355=DIRECTION('',(1.E0,0.E0,0.E0));
#356=DIRECTION('',(0.E0,-1.E0,0.E0));
#357=AXIS2_PLACEMENT_3D('',#354,#355,#356);
#358=CONICAL_SURFACE('',#357,8.782540519489E0,2.800153651950E1);
#360=ORIENTED_EDGE('',*,*,#359,.F.);
#362=ORIENTED_EDGE('',*,*,#361,.F.);
#363=ORIENTED_EDGE('',*,*,#344,.T.);
#365=ORIENTED_EDGE('',*,*,#364,.F.);
#366=EDGE_LOOP('',(#360,#362,#363,#365));
#367=FACE_OUTER_BOUND('',#366,.F.);
#368=ADVANCED_FACE('',(#367),#358,.T.);
#369=CARTESIAN_POINT('',(-3.4E1,0.E0,0.E0));
#370=DIRECTION('',(1.E0,0.E0,0.E0));
#371=DIRECTION('',(0.E0,-1.E0,0.E0));
#372=AXIS2_PLACEMENT_3D('',#369,#370,#371);
#373=PLANE('',#372);
#374=ORIENTED_EDGE('',*,*,#359,.T.);
#376=ORIENTED_EDGE('',*,*,#375,.T.);
#377=EDGE_LOOP('',(#374,#376));
#378=FACE_OUTER_BOUND('',#377,.F.);
#380=ORIENTED_EDGE('',*,*,#379,.F.);
#382=ORIENTED_EDGE('',*,*,#381,.F.);
#383=EDGE_LOOP('',(#380,#382));
#384=FACE_BOUND('',#383,.F.);
#385=ADVANCED_FACE('',(#378,#384),#373,.F.);
#386=CARTESIAN_POINT('',(-3.375E1,0.E0,0.E0));
#387=DIRECTION('',(-1.E0,0.E0,0.E0));
#388=DIRECTION('',(0.E0,1.E0,0.E0));
#389=AXIS2_PLACEMENT_3D('',#386,#387,#388);
#390=CONICAL_SURFACE('',#389,7.244337567297E0,3.E1);
#391=ORIENTED_EDGE('',*,*,#379,.T.);
#393=ORIENTED_EDGE('',*,*,#392,.F.);
#395=ORIENTED_EDGE('',*,*,#394,.T.);
#397=ORIENTED_EDGE('',*,*,#396,.F.);
#398=EDGE_LOOP('',(#391,#393,#395,#397));
#399=FACE_OUTER_BOUND('',#398,.F.);
#400=ADVANCED_FACE('',(#399),#390,.F.);
#401=CARTESIAN_POINT('',(-3.375E1,0.E0,0.E0));
#402=DIRECTION('',(-1.E0,0.E0,0.E0));
#403=DIRECTION('',(0.E0,1.E0,0.E0));
#404=AXIS2_PLACEMENT_3D('',#401,#402,#403);
#405=CONICAL_SURFACE('',#404,7.244337567297E0,3.E1);
#406=ORIENTED_EDGE('',*,*,#381,.T.);
#407=ORIENTED_EDGE('',*,*,#396,.T.);
#409=ORIENTED_EDGE('',*,*,#408,.F.);
#410=ORIENTED_EDGE('',*,*,#392,.T.);
#411=EDGE_LOOP('',(#406,#407,#409,#410));
#412=FACE_OUTER_BOUND('',#411,.F.);
#413=ADVANCED_FACE('',(#412),#405,.F.);
#414=CARTESIAN_POINT('',(-3.430495934556E1,0.E0,0.E0));
#415=DIRECTION('',(1.E0,0.E0,0.E0));
#416=DIRECTION('',(0.E0,-1.E0,0.E0));
#417=AXIS2_PLACEMENT_3D('',#414,#415,#416);
#418=CYLINDRICAL_SURFACE('',#417,7.1E0);
#420=ORIENTED_EDGE('',*,*,#419,.T.);
#422=ORIENTED_EDGE('',*,*,#421,.F.);
#424=ORIENTED_EDGE('',*,*,#423,.F.);
#425=ORIENTED_EDGE('',*,*,#408,.T.);
#426=EDGE_LOOP('',(#420,#422,#424,#425));
#427=FACE_OUTER_BOUND('',#426,.F.);
#428=ADVANCED_FACE('',(#427),#418,.F.);
#429=CARTESIAN_POINT('',(-3.430495934556E1,0.E0,0.E0));
#430=DIRECTION('',(1.E0,0.E0,0.E0));
#431=DIRECTION('',(0.E0,-1.E0,0.E0));
#432=AXIS2_PLACEMENT_3D('',#429,#430,#431);
#433=CYLINDRICAL_SURFACE('',#432,7.1E0);
#434=ORIENTED_EDGE('',*,*,#419,.F.);
#435=ORIENTED_EDGE('',*,*,#394,.F.);
#436=ORIENTED_EDGE('',*,*,#423,.T.);
#438=ORIENTED_EDGE('',*,*,#437,.T.);
#439=EDGE_LOOP('',(#434,#435,#436,#438));
#440=FACE_OUTER_BOUND('',#439,.F.);
#441=ADVANCED_FACE('',(#440),#433,.F.);
#442=CARTESIAN_POINT('',(-3.052775681357E1,0.E0,0.E0));
#443=DIRECTION('',(-1.E0,0.E0,0.E0));
#444=DIRECTION('',(0.E0,1.E0,0.E0));
#445=AXIS2_PLACEMENT_3D('',#442,#443,#444);
#446=CONICAL_SURFACE('',#445,4.55E0,6.E1);
#448=ORIENTED_EDGE('',*,*,#447,.T.);
#450=ORIENTED_EDGE('',*,*,#449,.F.);
#451=ORIENTED_EDGE('',*,*,#437,.F.);
#453=ORIENTED_EDGE('',*,*,#452,.T.);
#454=EDGE_LOOP('',(#448,#450,#451,#453));
#455=FACE_OUTER_BOUND('',#454,.F.);
#456=ADVANCED_FACE('',(#455),#446,.F.);
#457=CARTESIAN_POINT('',(0.E0,0.E0,0.E0));
#458=DIRECTION('',(-1.E0,0.E0,0.E0));
#459=DIRECTION('',(0.E0,-1.E0,0.E0));
#460=AXIS2_PLACEMENT_3D('',#457,#458,#459);
#461=CYLINDRICAL_SURFACE('',#460,2.E0);
#462=ORIENTED_EDGE('',*,*,#244,.T.);
#464=ORIENTED_EDGE('',*,*,#463,.T.);
#465=ORIENTED_EDGE('',*,*,#447,.F.);
#467=ORIENTED_EDGE('',*,*,#466,.F.);
#468=EDGE_LOOP('',(#462,#464,#465,#467));
#469=FACE_OUTER_BOUND('',#468,.F.);
#470=ADVANCED_FACE('',(#469),#461,.F.);
#471=CARTESIAN_POINT('',(0.E0,0.E0,0.E0));
#472=DIRECTION('',(-1.E0,0.E0,0.E0));
#473=DIRECTION('',(0.E0,-1.E0,0.E0));
#474=AXIS2_PLACEMENT_3D('',#471,#472,#473);
#475=CYLINDRICAL_SURFACE('',#474,2.E0);
#476=ORIENTED_EDGE('',*,*,#246,.T.);
#477=ORIENTED_EDGE('',*,*,#466,.T.);
#479=ORIENTED_EDGE('',*,*,#478,.F.);
#480=ORIENTED_EDGE('',*,*,#463,.F.);
#481=EDGE_LOOP('',(#476,#477,#479,#480));
#482=FACE_OUTER_BOUND('',#481,.F.);
#483=ADVANCED_FACE('',(#482),#475,.F.);
#484=CARTESIAN_POINT('',(-3.052775681357E1,0.E0,0.E0));
#485=DIRECTION('',(-1.E0,0.E0,0.E0));
#486=DIRECTION('',(0.E0,1.E0,0.E0));
#487=AXIS2_PLACEMENT_3D('',#484,#485,#486);
#488=CONICAL_SURFACE('',#487,4.55E0,6.E1);
#489=ORIENTED_EDGE('',*,*,#478,.T.);
#490=ORIENTED_EDGE('',*,*,#452,.F.);
#491=ORIENTED_EDGE('',*,*,#421,.T.);
#492=ORIENTED_EDGE('',*,*,#449,.T.);
#493=EDGE_LOOP('',(#489,#490,#491,#492));
#494=FACE_OUTER_BOUND('',#493,.F.);
#495=ADVANCED_FACE('',(#494),#488,.F.);
#496=CARTESIAN_POINT('',(-3.375E1,0.E0,0.E0));
#497=DIRECTION('',(1.E0,0.E0,0.E0));
#498=DIRECTION('',(0.E0,-1.E0,0.E0));
#499=AXIS2_PLACEMENT_3D('',#496,#497,#498);
#500=CONICAL_SURFACE('',#499,8.782540519489E0,2.800153651950E1);
#501=ORIENTED_EDGE('',*,*,#375,.F.);
#502=ORIENTED_EDGE('',*,*,#364,.T.);
#504=ORIENTED_EDGE('',*,*,#503,.T.);
#505=ORIENTED_EDGE('',*,*,#361,.T.);
#506=EDGE_LOOP('',(#501,#502,#504,#505));
#507=FACE_OUTER_BOUND('',#506,.F.);
#508=ADVANCED_FACE('',(#507),#500,.T.);
#509=CARTESIAN_POINT('',(-2.075E1,0.E0,0.E0));
#510=DIRECTION('',(1.E0,0.E0,0.E0));
#511=DIRECTION('',(0.E0,-1.E0,0.E0));
#512=AXIS2_PLACEMENT_3D('',#509,#510,#511);
#513=CONICAL_SURFACE('',#512,1.070772079545E1,8.001536519498E0);
#514=ORIENTED_EDGE('',*,*,#503,.F.);
#515=ORIENTED_EDGE('',*,*,#349,.F.);
#516=ORIENTED_EDGE('',*,*,#330,.F.);
#517=ORIENTED_EDGE('',*,*,#346,.T.);
#518=EDGE_LOOP('',(#514,#515,#516,#517));
#519=FACE_OUTER_BOUND('',#518,.F.);
#520=ADVANCED_FACE('',(#519),#513,.T.);
#521=CLOSED_SHELL('',(#250,#265,#278,#294,#309,#322,#338,#353,#368,#385,#400,
#413,#428,#441,#456,#470,#483,#495,#508,#520));
#522=MANIFOLD_SOLID_BREP('',#521);
#524=DIMENSIONAL_EXPONENTS(0.E0,0.E0,0.E0,0.E0,0.E0,0.E0,0.E0);
#526=PLANE_ANGLE_MEASURE_WITH_UNIT(PLANE_ANGLE_MEASURE(1.745329251994E-2),#525);
#527=(CONVERSION_BASED_UNIT('DEGREE',#526)NAMED_UNIT(*)PLANE_ANGLE_UNIT());
#529=UNCERTAINTY_MEASURE_WITH_UNIT(LENGTH_MEASURE(1.E-2),#523,'closure',
'Maximum model space distance between geometric entities at asserted connectivities');
#530=(GEOMETRIC_REPRESENTATION_CONTEXT(3)GLOBAL_UNCERTAINTY_ASSIGNED_CONTEXT((
#529))GLOBAL_UNIT_ASSIGNED_CONTEXT((#523,#527,#528))REPRESENTATION_CONTEXT
('ID1','3'));
#532=APPLICATION_CONTEXT(
'CONFIGURATION CONTROLLED 3D DESIGNS OF MECHANICAL PARTS AND ASSEMBLIES');
#533=APPLICATION_PROTOCOL_DEFINITION('international standard',
'config_control_design',1994,#532);
#534=DESIGN_CONTEXT('',#532,'design');
#535=MECHANICAL_CONTEXT('',#532,'mechanical');
#536=PRODUCT('LAN_ER25_PROTOTYP_A0_D4','LAN_ER25_PROTOTYP_A0_D4',
'NOT SPECIFIED',(#535));
#537=PRODUCT_DEFINITION_FORMATION_WITH_SPECIFIED_SOURCE('1','LAST_VERSION',#536,
.MADE.);
#541=PRODUCT_CATEGORY('part','');
#542=PRODUCT_RELATED_PRODUCT_CATEGORY('detail','',(#536));
#543=PRODUCT_CATEGORY_RELATIONSHIP('','',#541,#542);
#544=SECURITY_CLASSIFICATION_LEVEL('unclassified');
#545=SECURITY_CLASSIFICATION('','',#544);
#546=CC_DESIGN_SECURITY_CLASSIFICATION(#545,(#537));
#547=APPROVAL_STATUS('approved');
#548=APPROVAL(#547,'');
#549=CC_DESIGN_APPROVAL(#548,(#545,#537,#538));
#550=CALENDAR_DATE(117,30,11);
#551=COORDINATED_UNIVERSAL_TIME_OFFSET(1,0,.AHEAD.);
#552=LOCAL_TIME(8,39,2.7E1,#551);
#553=DATE_AND_TIME(#550,#552);
#554=APPROVAL_DATE_TIME(#553,#548);
#555=DATE_TIME_ROLE('creation_date');
#556=CC_DESIGN_DATE_AND_TIME_ASSIGNMENT(#553,#555,(#538));
#557=DATE_TIME_ROLE('classification_date');
#558=CC_DESIGN_DATE_AND_TIME_ASSIGNMENT(#553,#557,(#545));
#559=PERSON('UNSPECIFIED','UNSPECIFIED',$,$,$,$);
#560=ORGANIZATION('UNSPECIFIED','UNSPECIFIED','UNSPECIFIED');
#561=PERSON_AND_ORGANIZATION(#559,#560);
#562=APPROVAL_ROLE('approver');
#563=APPROVAL_PERSON_ORGANIZATION(#561,#548,#562);
#564=PERSON_AND_ORGANIZATION_ROLE('creator');
#565=CC_DESIGN_PERSON_AND_ORGANIZATION_ASSIGNMENT(#561,#564,(#537,#538));
#566=PERSON_AND_ORGANIZATION_ROLE('design_supplier');
#567=CC_DESIGN_PERSON_AND_ORGANIZATION_ASSIGNMENT(#561,#566,(#537));
#568=PERSON_AND_ORGANIZATION_ROLE('classification_officer');
#569=CC_DESIGN_PERSON_AND_ORGANIZATION_ASSIGNMENT(#561,#568,(#545));
#570=PERSON_AND_ORGANIZATION_ROLE('design_owner');
#571=CC_DESIGN_PERSON_AND_ORGANIZATION_ASSIGNMENT(#561,#570,(#536));
#5=CIRCLE('',#4,2.E0);
#10=CIRCLE('',#9,2.E0);
#15=CIRCLE('',#14,1.024988380017E1);
#28=CIRCLE('',#27,1.024988380017E1);
#33=CIRCLE('',#32,1.311341079988E1);
#38=CIRCLE('',#37,1.311341079988E1);
#43=CIRCLE('',#42,1.1E1);
#56=CIRCLE('',#55,1.1E1);
#61=CIRCLE('',#60,1.1E1);
#66=CIRCLE('',#65,1.1E1);
#71=CIRCLE('',#70,8.915476477273E0);
#76=CIRCLE('',#75,1.249996511364E1);
#81=CIRCLE('',#80,8.649604561706E0);
#86=CIRCLE('',#85,7.388675134595E0);
#91=CIRCLE('',#90,7.1E0);
#96=CIRCLE('',#95,7.388675134595E0);
#105=CIRCLE('',#104,7.1E0);
#118=CIRCLE('',#117,7.1E0);
#127=CIRCLE('',#126,7.1E0);
#132=CIRCLE('',#131,2.E0);
#145=CIRCLE('',#144,2.E0);
#158=CIRCLE('',#157,8.649604561706E0);
#171=CIRCLE('',#170,8.915476477273E0);
#180=CIRCLE('',#179,1.249996511364E1);
#238=EDGE_CURVE('',#187,#195,#15,.T.);
#240=EDGE_CURVE('',#187,#195,#28,.T.);
#244=EDGE_CURVE('',#227,#228,#5,.T.);
#246=EDGE_CURVE('',#228,#227,#10,.T.);
#256=EDGE_CURVE('',#187,#188,#19,.T.);
#259=EDGE_CURVE('',#195,#196,#23,.T.);
#261=EDGE_CURVE('',#188,#196,#38,.T.);
#272=EDGE_CURVE('',#188,#196,#33,.T.);
#288=EDGE_CURVE('',#191,#199,#43,.T.);
#290=EDGE_CURVE('',#191,#199,#56,.T.);
#300=EDGE_CURVE('',#191,#192,#47,.T.);
#303=EDGE_CURVE('',#199,#200,#51,.T.);
#305=EDGE_CURVE('',#192,#200,#66,.T.);
#316=EDGE_CURVE('',#192,#200,#61,.T.);
#328=EDGE_CURVE('',#223,#224,#76,.T.);
#330=EDGE_CURVE('',#223,#224,#180,.T.);
#344=EDGE_CURVE('',#211,#212,#71,.T.);
#346=EDGE_CURVE('',#223,#211,#184,.T.);
#349=EDGE_CURVE('',#224,#212,#175,.T.);
#359=EDGE_CURVE('',#219,#220,#81,.T.);
#361=EDGE_CURVE('',#211,#219,#166,.T.);
#364=EDGE_CURVE('',#220,#212,#162,.T.);
#375=EDGE_CURVE('',#220,#219,#158,.T.);
#379=EDGE_CURVE('',#215,#216,#86,.T.);
#381=EDGE_CURVE('',#216,#215,#96,.T.);
#392=EDGE_CURVE('',#207,#216,#109,.T.);
#394=EDGE_CURVE('',#207,#203,#91,.T.);
#396=EDGE_CURVE('',#215,#203,#100,.T.);
#408=EDGE_CURVE('',#207,#203,#105,.T.);
#419=EDGE_CURVE('',#203,#204,#113,.T.);
#421=EDGE_CURVE('',#208,#204,#118,.T.);
#423=EDGE_CURVE('',#207,#208,#122,.T.);
#437=EDGE_CURVE('',#208,#204,#127,.T.);
#447=EDGE_CURVE('',#231,#232,#132,.T.);
#449=EDGE_CURVE('',#204,#232,#153,.T.);
#452=EDGE_CURVE('',#208,#231,#149,.T.);
#463=EDGE_CURVE('',#228,#232,#140,.T.);
#466=EDGE_CURVE('',#227,#231,#136,.T.);
#478=EDGE_CURVE('',#232,#231,#145,.T.);
#503=EDGE_CURVE('',#212,#211,#171,.T.);
#523=(LENGTH_UNIT()NAMED_UNIT(*)SI_UNIT(.MILLI.,.METRE.));
#525=(NAMED_UNIT(*)PLANE_ANGLE_UNIT()SI_UNIT($,.RADIAN.));
#528=(NAMED_UNIT(*)SI_UNIT($,.STERADIAN.)SOLID_ANGLE_UNIT());
#531=ADVANCED_BREP_SHAPE_REPRESENTATION('',(#522),#530);
#538=PRODUCT_DEFINITION('design','',#537,#534);
#539=PRODUCT_DEFINITION_SHAPE('','SHAPE FOR LAN_ER25_PROTOTYP_A0_D4.',#538);
#540=SHAPE_DEFINITION_REPRESENTATION(#539,#531);
ENDSEC;
END-ISO-10303-21;
