ISO-10303-21;
HEADER;
FILE_DESCRIPTION((''),'2;1');
FILE_NAME('LAN_ER16_PROTOTYP_A0_D10','2017-11-30T',('Jon'),(''),
'CREO PARAMETRIC BY PTC INC, 2016260','CREO PARAMETRIC BY PTC INC, 2016260','');
FILE_SCHEMA(('CONFIG_CONTROL_DESIGN'));
ENDSEC;
DATA;
#1=CARTESIAN_POINT('',(0.E0,0.E0,0.E0));
#2=DIRECTION('',(-1.E0,0.E0,0.E0));
#3=DIRECTION('',(0.E0,-1.E0,0.E0));
#4=AXIS2_PLACEMENT_3D('',#1,#2,#3);
#6=CARTESIAN_POINT('',(0.E0,0.E0,0.E0));
#7=DIRECTION('',(-1.E0,0.E0,0.E0));
#8=DIRECTION('',(0.E0,1.E0,0.E0));
#9=AXIS2_PLACEMENT_3D('',#6,#7,#8);
#11=CARTESIAN_POINT('',(0.E0,0.E0,0.E0));
#12=DIRECTION('',(1.E0,0.E0,0.E0));
#13=DIRECTION('',(0.E0,1.E0,0.E0));
#14=AXIS2_PLACEMENT_3D('',#11,#12,#13);
#16=DIRECTION('',(-8.677654533689E-1,4.969739610276E-1,0.E0));
#17=VECTOR('',#16,4.609540497920E0);
#18=CARTESIAN_POINT('',(0.E0,6.250089200116E0,0.E0));
#19=LINE('',#18,#17);
#20=DIRECTION('',(-8.677654533689E-1,-4.969739610276E-1,0.E0));
#21=VECTOR('',#20,4.609540497920E0);
#22=CARTESIAN_POINT('',(0.E0,-6.250089200116E0,0.E0));
#23=LINE('',#22,#21);
#24=CARTESIAN_POINT('',(0.E0,0.E0,0.E0));
#25=DIRECTION('',(-1.E0,0.E0,0.E0));
#26=DIRECTION('',(0.E0,1.E0,0.E0));
#27=AXIS2_PLACEMENT_3D('',#24,#25,#26);
#29=CARTESIAN_POINT('',(-4.E0,0.E0,0.E0));
#30=DIRECTION('',(-1.E0,0.E0,0.E0));
#31=DIRECTION('',(0.E0,1.E0,0.E0));
#32=AXIS2_PLACEMENT_3D('',#29,#30,#31);
#34=CARTESIAN_POINT('',(-4.E0,0.E0,0.E0));
#35=DIRECTION('',(1.E0,0.E0,0.E0));
#36=DIRECTION('',(0.E0,1.E0,0.E0));
#37=AXIS2_PLACEMENT_3D('',#34,#35,#36);
#39=CARTESIAN_POINT('',(-4.E0,0.E0,0.E0));
#40=DIRECTION('',(1.E0,0.E0,0.E0));
#41=DIRECTION('',(0.E0,1.E0,0.E0));
#42=AXIS2_PLACEMENT_3D('',#39,#40,#41);
#44=DIRECTION('',(-1.E0,0.E0,0.E0));
#45=VECTOR('',#44,2.7E0);
#46=CARTESIAN_POINT('',(-4.E0,6.9E0,0.E0));
#47=LINE('',#46,#45);
#48=DIRECTION('',(-1.E0,0.E0,0.E0));
#49=VECTOR('',#48,2.7E0);
#50=CARTESIAN_POINT('',(-4.E0,-6.9E0,0.E0));
#51=LINE('',#50,#49);
#52=CARTESIAN_POINT('',(-4.E0,0.E0,0.E0));
#53=DIRECTION('',(-1.E0,0.E0,0.E0));
#54=DIRECTION('',(0.E0,1.E0,0.E0));
#55=AXIS2_PLACEMENT_3D('',#52,#53,#54);
#57=CARTESIAN_POINT('',(-6.7E0,0.E0,0.E0));
#58=DIRECTION('',(-1.E0,0.E0,0.E0));
#59=DIRECTION('',(0.E0,1.E0,0.E0));
#60=AXIS2_PLACEMENT_3D('',#57,#58,#59);
#62=CARTESIAN_POINT('',(-6.7E0,0.E0,0.E0));
#63=DIRECTION('',(1.E0,0.E0,0.E0));
#64=DIRECTION('',(0.E0,1.E0,0.E0));
#65=AXIS2_PLACEMENT_3D('',#62,#63,#64);
#67=CARTESIAN_POINT('',(-2.71E1,0.E0,0.E0));
#68=DIRECTION('',(1.E0,0.E0,0.E0));
#69=DIRECTION('',(0.E0,1.E0,0.E0));
#70=AXIS2_PLACEMENT_3D('',#67,#68,#69);
#72=CARTESIAN_POINT('',(-6.7E0,0.E0,0.E0));
#73=DIRECTION('',(1.E0,0.E0,0.E0));
#74=DIRECTION('',(0.E0,1.E0,0.E0));
#75=AXIS2_PLACEMENT_3D('',#72,#73,#74);
#77=CARTESIAN_POINT('',(-2.75E1,0.E0,0.E0));
#78=DIRECTION('',(1.E0,0.E0,0.E0));
#79=DIRECTION('',(0.E0,1.E0,0.E0));
#80=AXIS2_PLACEMENT_3D('',#77,#78,#79);
#82=CARTESIAN_POINT('',(-2.75E1,0.E0,0.E0));
#83=DIRECTION('',(1.E0,0.E0,0.E0));
#84=DIRECTION('',(0.E0,-1.E0,0.E0));
#85=AXIS2_PLACEMENT_3D('',#82,#83,#84);
#87=DIRECTION('',(8.829393110765E-1,-4.694871382218E-1,0.E0));
#88=VECTOR('',#87,4.530322695818E-1);
#89=CARTESIAN_POINT('',(-2.75E1,-4.919863970350E0,0.E0));
#90=LINE('',#89,#88);
#91=DIRECTION('',(-8.829393110765E-1,-4.694871382218E-1,0.E0));
#92=VECTOR('',#91,4.530322695818E-1);
#93=CARTESIAN_POINT('',(-2.71E1,5.132556794118E0,0.E0));
#94=LINE('',#93,#92);
#95=CARTESIAN_POINT('',(-2.71E1,0.E0,0.E0));
#96=DIRECTION('',(1.E0,0.E0,0.E0));
#97=DIRECTION('',(0.E0,-1.E0,0.E0));
#98=AXIS2_PLACEMENT_3D('',#95,#96,#97);
#100=DIRECTION('',(-9.902656135246E-1,1.391905696186E-1,0.E0));
#101=VECTOR('',#100,2.060053355523E1);
#102=CARTESIAN_POINT('',(-6.7E0,-7.999956794118E0,0.E0));
#103=LINE('',#102,#101);
#104=CARTESIAN_POINT('',(-6.7E0,0.E0,0.E0));
#105=DIRECTION('',(-1.E0,0.E0,0.E0));
#106=DIRECTION('',(0.E0,1.E0,0.E0));
#107=AXIS2_PLACEMENT_3D('',#104,#105,#106);
#109=DIRECTION('',(-9.902656135246E-1,-1.391905696186E-1,0.E0));
#110=VECTOR('',#109,2.060053355523E1);
#111=CARTESIAN_POINT('',(-6.7E0,7.999956794118E0,0.E0));
#112=LINE('',#111,#110);
#113=CARTESIAN_POINT('',(-2.75E1,0.E0,0.E0));
#114=DIRECTION('',(1.E0,0.E0,0.E0));
#115=DIRECTION('',(0.E0,1.E0,0.E0));
#116=AXIS2_PLACEMENT_3D('',#113,#114,#115);
#118=CARTESIAN_POINT('',(-2.74E1,0.E0,0.E0));
#119=DIRECTION('',(-1.E0,0.E0,0.E0));
#120=DIRECTION('',(0.E0,-1.E0,0.E0));
#121=AXIS2_PLACEMENT_3D('',#118,#119,#120);
#123=CARTESIAN_POINT('',(-2.75E1,0.E0,0.E0));
#124=DIRECTION('',(1.E0,0.E0,0.E0));
#125=DIRECTION('',(0.E0,-1.E0,0.E0));
#126=AXIS2_PLACEMENT_3D('',#123,#124,#125);
#128=DIRECTION('',(8.660254037844E-1,-5.E-1,0.E0));
#129=VECTOR('',#128,1.154700538379E-1);
#130=CARTESIAN_POINT('',(-2.75E1,4.107735026919E0,0.E0));
#131=LINE('',#130,#129);
#132=CARTESIAN_POINT('',(-2.74E1,0.E0,0.E0));
#133=DIRECTION('',(1.E0,0.E0,0.E0));
#134=DIRECTION('',(0.E0,-1.E0,0.E0));
#135=AXIS2_PLACEMENT_3D('',#132,#133,#134);
#137=DIRECTION('',(-8.660254037844E-1,-5.E-1,0.E0));
#138=VECTOR('',#137,1.154700538379E-1);
#139=CARTESIAN_POINT('',(-2.74E1,-4.05E0,0.E0));
#140=LINE('',#139,#138);
#141=DIRECTION('',(1.E0,0.E0,0.E0));
#142=VECTOR('',#141,1.9E0);
#143=CARTESIAN_POINT('',(-2.74E1,4.05E0,0.E0));
#144=LINE('',#143,#142);
#145=CARTESIAN_POINT('',(-2.55E1,0.E0,0.E0));
#146=DIRECTION('',(1.E0,0.E0,0.E0));
#147=DIRECTION('',(0.E0,-1.E0,0.E0));
#148=AXIS2_PLACEMENT_3D('',#145,#146,#147);
#150=DIRECTION('',(1.E0,0.E0,0.E0));
#151=VECTOR('',#150,1.9E0);
#152=CARTESIAN_POINT('',(-2.74E1,-4.05E0,0.E0));
#153=LINE('',#152,#151);
#154=CARTESIAN_POINT('',(-2.55E1,0.E0,0.E0));
#155=DIRECTION('',(-1.E0,0.E0,0.E0));
#156=DIRECTION('',(0.E0,-1.E0,0.E0));
#157=AXIS2_PLACEMENT_3D('',#154,#155,#156);
#159=CARTESIAN_POINT('',(-2.547113248654E1,0.E0,0.E0));
#160=DIRECTION('',(1.E0,0.E0,0.E0));
#161=DIRECTION('',(0.E0,1.E0,0.E0));
#162=AXIS2_PLACEMENT_3D('',#159,#160,#161);
#164=CARTESIAN_POINT('',(-2.3E1,0.E0,0.E0));
#165=DIRECTION('',(1.E0,0.E0,0.E0));
#166=DIRECTION('',(0.E0,1.E0,0.E0));
#167=AXIS2_PLACEMENT_3D('',#164,#165,#166);
#169=DIRECTION('',(1.E0,0.E0,0.E0));
#170=VECTOR('',#169,2.471132486541E0);
#171=CARTESIAN_POINT('',(-2.547113248654E1,4.E0,0.E0));
#172=LINE('',#171,#170);
#173=CARTESIAN_POINT('',(-2.3E1,0.E0,0.E0));
#174=DIRECTION('',(-1.E0,0.E0,0.E0));
#175=DIRECTION('',(0.E0,-1.E0,0.E0));
#176=AXIS2_PLACEMENT_3D('',#173,#174,#175);
#178=CARTESIAN_POINT('',(-2.3E1,0.E0,0.E0));
#179=DIRECTION('',(-1.E0,0.E0,0.E0));
#180=DIRECTION('',(0.E0,1.E0,0.E0));
#181=AXIS2_PLACEMENT_3D('',#178,#179,#180);
#183=DIRECTION('',(-1.E0,0.E0,0.E0));
#184=VECTOR('',#183,2.3E1);
#185=CARTESIAN_POINT('',(0.E0,-5.E0,0.E0));
#186=LINE('',#185,#184);
#187=DIRECTION('',(-1.E0,0.E0,0.E0));
#188=VECTOR('',#187,2.3E1);
#189=CARTESIAN_POINT('',(0.E0,5.E0,0.E0));
#190=LINE('',#189,#188);
#191=CARTESIAN_POINT('',(-2.3E1,0.E0,0.E0));
#192=DIRECTION('',(1.E0,0.E0,0.E0));
#193=DIRECTION('',(0.E0,-1.E0,0.E0));
#194=AXIS2_PLACEMENT_3D('',#191,#192,#193);
#196=DIRECTION('',(1.E0,0.E0,0.E0));
#197=VECTOR('',#196,2.471132486541E0);
#198=CARTESIAN_POINT('',(-2.547113248654E1,-4.E0,0.E0));
#199=LINE('',#198,#197);
#200=CARTESIAN_POINT('',(-2.547113248654E1,0.E0,0.E0));
#201=DIRECTION('',(1.E0,0.E0,0.E0));
#202=DIRECTION('',(0.E0,-1.E0,0.E0));
#203=AXIS2_PLACEMENT_3D('',#200,#201,#202);
#205=DIRECTION('',(5.E-1,8.660254037845E-1,0.E0));
#206=VECTOR('',#205,5.773502691896E-2);
#207=CARTESIAN_POINT('',(-2.55E1,-4.05E0,0.E0));
#208=LINE('',#207,#206);
#209=DIRECTION('',(5.E-1,-8.660254037845E-1,-1.071175688236E-14));
#210=VECTOR('',#209,5.773502691896E-2);
#211=CARTESIAN_POINT('',(-2.55E1,4.05E0,0.E0));
#212=LINE('',#211,#210);
#213=CARTESIAN_POINT('',(0.E0,6.250089200116E0,0.E0));
#214=CARTESIAN_POINT('',(-4.E0,8.540910799884E0,0.E0));
#215=VERTEX_POINT('',#213);
#216=VERTEX_POINT('',#214);
#217=CARTESIAN_POINT('',(-4.E0,6.9E0,0.E0));
#218=CARTESIAN_POINT('',(-6.7E0,6.9E0,0.E0));
#219=VERTEX_POINT('',#217);
#220=VERTEX_POINT('',#218);
#221=CARTESIAN_POINT('',(0.E0,-6.250089200116E0,0.E0));
#222=CARTESIAN_POINT('',(-4.E0,-8.540910799884E0,0.E0));
#223=VERTEX_POINT('',#221);
#224=VERTEX_POINT('',#222);
#225=CARTESIAN_POINT('',(-4.E0,-6.9E0,0.E0));
#226=CARTESIAN_POINT('',(-6.7E0,-6.9E0,0.E0));
#227=VERTEX_POINT('',#225);
#228=VERTEX_POINT('',#226);
#229=CARTESIAN_POINT('',(-2.74E1,4.05E0,0.E0));
#230=CARTESIAN_POINT('',(-2.55E1,4.05E0,0.E0));
#231=VERTEX_POINT('',#229);
#232=VERTEX_POINT('',#230);
#233=CARTESIAN_POINT('',(-2.74E1,-4.05E0,0.E0));
#234=CARTESIAN_POINT('',(-2.55E1,-4.05E0,0.E0));
#235=VERTEX_POINT('',#233);
#236=VERTEX_POINT('',#234);
#237=CARTESIAN_POINT('',(-2.71E1,5.132556794118E0,0.E0));
#238=CARTESIAN_POINT('',(-2.71E1,-5.132556794118E0,0.E0));
#239=VERTEX_POINT('',#237);
#240=VERTEX_POINT('',#238);
#241=CARTESIAN_POINT('',(-2.75E1,4.919863970350E0,0.E0));
#242=CARTESIAN_POINT('',(-2.75E1,-4.919863970350E0,0.E0));
#243=VERTEX_POINT('',#241);
#244=VERTEX_POINT('',#242);
#245=CARTESIAN_POINT('',(-2.547113248654E1,4.E0,0.E0));
#246=CARTESIAN_POINT('',(-2.547113248654E1,-4.E0,0.E0));
#247=VERTEX_POINT('',#245);
#248=VERTEX_POINT('',#246);
#249=CARTESIAN_POINT('',(-2.75E1,4.107735026919E0,0.E0));
#250=CARTESIAN_POINT('',(-2.75E1,-4.107735026919E0,0.E0));
#251=VERTEX_POINT('',#249);
#252=VERTEX_POINT('',#250);
#253=CARTESIAN_POINT('',(-6.7E0,7.999956794118E0,0.E0));
#254=CARTESIAN_POINT('',(-6.7E0,-7.999956794118E0,0.E0));
#255=VERTEX_POINT('',#253);
#256=VERTEX_POINT('',#254);
#257=CARTESIAN_POINT('',(-2.3E1,-5.E0,0.E0));
#258=CARTESIAN_POINT('',(-2.3E1,5.E0,0.E0));
#259=VERTEX_POINT('',#257);
#260=VERTEX_POINT('',#258);
#261=CARTESIAN_POINT('',(0.E0,-5.E0,0.E0));
#262=CARTESIAN_POINT('',(0.E0,5.E0,0.E0));
#263=VERTEX_POINT('',#261);
#264=VERTEX_POINT('',#262);
#265=CARTESIAN_POINT('',(-2.3E1,4.E0,0.E0));
#266=CARTESIAN_POINT('',(-2.3E1,-4.E0,0.E0));
#267=VERTEX_POINT('',#265);
#268=VERTEX_POINT('',#266);
#269=CARTESIAN_POINT('',(0.E0,0.E0,0.E0));
#270=DIRECTION('',(1.E0,0.E0,0.E0));
#271=DIRECTION('',(0.E0,-1.E0,0.E0));
#272=AXIS2_PLACEMENT_3D('',#269,#270,#271);
#273=PLANE('',#272);
#275=ORIENTED_EDGE('',*,*,#274,.F.);
#277=ORIENTED_EDGE('',*,*,#276,.T.);
#278=EDGE_LOOP('',(#275,#277));
#279=FACE_OUTER_BOUND('',#278,.F.);
#281=ORIENTED_EDGE('',*,*,#280,.F.);
#283=ORIENTED_EDGE('',*,*,#282,.F.);
#284=EDGE_LOOP('',(#281,#283));
#285=FACE_BOUND('',#284,.F.);
#286=ADVANCED_FACE('',(#279,#285),#273,.T.);
#287=CARTESIAN_POINT('',(-2.E0,0.E0,0.E0));
#288=DIRECTION('',(-1.E0,0.E0,0.E0));
#289=DIRECTION('',(0.E0,1.E0,0.E0));
#290=AXIS2_PLACEMENT_3D('',#287,#288,#289);
#291=CONICAL_SURFACE('',#290,7.3955E0,2.98E1);
#293=ORIENTED_EDGE('',*,*,#292,.F.);
#294=ORIENTED_EDGE('',*,*,#274,.T.);
#296=ORIENTED_EDGE('',*,*,#295,.T.);
#298=ORIENTED_EDGE('',*,*,#297,.F.);
#299=EDGE_LOOP('',(#293,#294,#296,#298));
#300=FACE_OUTER_BOUND('',#299,.F.);
#301=ADVANCED_FACE('',(#300),#291,.T.);
#302=CARTESIAN_POINT('',(-2.E0,0.E0,0.E0));
#303=DIRECTION('',(-1.E0,0.E0,0.E0));
#304=DIRECTION('',(0.E0,1.E0,0.E0));
#305=AXIS2_PLACEMENT_3D('',#302,#303,#304);
#306=CONICAL_SURFACE('',#305,7.3955E0,2.98E1);
#307=ORIENTED_EDGE('',*,*,#292,.T.);
#309=ORIENTED_EDGE('',*,*,#308,.T.);
#310=ORIENTED_EDGE('',*,*,#295,.F.);
#311=ORIENTED_EDGE('',*,*,#276,.F.);
#312=EDGE_LOOP('',(#307,#309,#310,#311));
#313=FACE_OUTER_BOUND('',#312,.F.);
#314=ADVANCED_FACE('',(#313),#306,.T.);
#315=CARTESIAN_POINT('',(-4.E0,0.E0,0.E0));
#316=DIRECTION('',(1.E0,0.E0,0.E0));
#317=DIRECTION('',(0.E0,-1.E0,0.E0));
#318=AXIS2_PLACEMENT_3D('',#315,#316,#317);
#319=PLANE('',#318);
#320=ORIENTED_EDGE('',*,*,#308,.F.);
#321=ORIENTED_EDGE('',*,*,#297,.T.);
#322=EDGE_LOOP('',(#320,#321));
#323=FACE_OUTER_BOUND('',#322,.F.);
#325=ORIENTED_EDGE('',*,*,#324,.F.);
#327=ORIENTED_EDGE('',*,*,#326,.T.);
#328=EDGE_LOOP('',(#325,#327));
#329=FACE_BOUND('',#328,.F.);
#330=ADVANCED_FACE('',(#323,#329),#319,.F.);
#331=CARTESIAN_POINT('',(0.E0,0.E0,0.E0));
#332=DIRECTION('',(1.E0,0.E0,0.E0));
#333=DIRECTION('',(0.E0,-1.E0,0.E0));
#334=AXIS2_PLACEMENT_3D('',#331,#332,#333);
#335=CYLINDRICAL_SURFACE('',#334,6.9E0);
#337=ORIENTED_EDGE('',*,*,#336,.F.);
#338=ORIENTED_EDGE('',*,*,#324,.T.);
#340=ORIENTED_EDGE('',*,*,#339,.T.);
#342=ORIENTED_EDGE('',*,*,#341,.F.);
#343=EDGE_LOOP('',(#337,#338,#340,#342));
#344=FACE_OUTER_BOUND('',#343,.F.);
#345=ADVANCED_FACE('',(#344),#335,.T.);
#346=CARTESIAN_POINT('',(0.E0,0.E0,0.E0));
#347=DIRECTION('',(1.E0,0.E0,0.E0));
#348=DIRECTION('',(0.E0,-1.E0,0.E0));
#349=AXIS2_PLACEMENT_3D('',#346,#347,#348);
#350=CYLINDRICAL_SURFACE('',#349,6.9E0);
#351=ORIENTED_EDGE('',*,*,#336,.T.);
#353=ORIENTED_EDGE('',*,*,#352,.T.);
#354=ORIENTED_EDGE('',*,*,#339,.F.);
#355=ORIENTED_EDGE('',*,*,#326,.F.);
#356=EDGE_LOOP('',(#351,#353,#354,#355));
#357=FACE_OUTER_BOUND('',#356,.F.);
#358=ADVANCED_FACE('',(#357),#350,.T.);
#359=CARTESIAN_POINT('',(-6.7E0,0.E0,0.E0));
#360=DIRECTION('',(1.E0,0.E0,0.E0));
#361=DIRECTION('',(0.E0,-1.E0,0.E0));
#362=AXIS2_PLACEMENT_3D('',#359,#360,#361);
#363=PLANE('',#362);
#365=ORIENTED_EDGE('',*,*,#364,.F.);
#367=ORIENTED_EDGE('',*,*,#366,.T.);
#368=EDGE_LOOP('',(#365,#367));
#369=FACE_OUTER_BOUND('',#368,.F.);
#370=ORIENTED_EDGE('',*,*,#352,.F.);
#371=ORIENTED_EDGE('',*,*,#341,.T.);
#372=EDGE_LOOP('',(#370,#371));
#373=FACE_BOUND('',#372,.F.);
#374=ADVANCED_FACE('',(#369,#373),#363,.T.);
#375=CARTESIAN_POINT('',(-1.69E1,0.E0,0.E0));
#376=DIRECTION('',(1.E0,0.E0,0.E0));
#377=DIRECTION('',(0.E0,-1.E0,0.E0));
#378=AXIS2_PLACEMENT_3D('',#375,#376,#377);
#379=CONICAL_SURFACE('',#378,6.566256794118E0,8.001010717888E0);
#381=ORIENTED_EDGE('',*,*,#380,.F.);
#383=ORIENTED_EDGE('',*,*,#382,.F.);
#384=ORIENTED_EDGE('',*,*,#364,.T.);
#386=ORIENTED_EDGE('',*,*,#385,.T.);
#387=EDGE_LOOP('',(#381,#383,#384,#386));
#388=FACE_OUTER_BOUND('',#387,.F.);
#389=ADVANCED_FACE('',(#388),#379,.T.);
#390=CARTESIAN_POINT('',(-2.73E1,0.E0,0.E0));
#391=DIRECTION('',(1.E0,0.E0,0.E0));
#392=DIRECTION('',(0.E0,-1.E0,0.E0));
#393=AXIS2_PLACEMENT_3D('',#390,#391,#392);
#394=CONICAL_SURFACE('',#393,5.026210382234E0,2.800101071789E1);
#396=ORIENTED_EDGE('',*,*,#395,.F.);
#398=ORIENTED_EDGE('',*,*,#397,.F.);
#399=ORIENTED_EDGE('',*,*,#380,.T.);
#401=ORIENTED_EDGE('',*,*,#400,.F.);
#402=EDGE_LOOP('',(#396,#398,#399,#401));
#403=FACE_OUTER_BOUND('',#402,.F.);
#404=ADVANCED_FACE('',(#403),#394,.T.);
#405=CARTESIAN_POINT('',(-2.75E1,0.E0,0.E0));
#406=DIRECTION('',(1.E0,0.E0,0.E0));
#407=DIRECTION('',(0.E0,-1.E0,0.E0));
#408=AXIS2_PLACEMENT_3D('',#405,#406,#407);
#409=PLANE('',#408);
#410=ORIENTED_EDGE('',*,*,#395,.T.);
#412=ORIENTED_EDGE('',*,*,#411,.T.);
#413=EDGE_LOOP('',(#410,#412));
#414=FACE_OUTER_BOUND('',#413,.F.);
#416=ORIENTED_EDGE('',*,*,#415,.F.);
#418=ORIENTED_EDGE('',*,*,#417,.F.);
#419=EDGE_LOOP('',(#416,#418));
#420=FACE_BOUND('',#419,.F.);
#421=ADVANCED_FACE('',(#414,#420),#409,.F.);
#422=CARTESIAN_POINT('',(-2.73E1,0.E0,0.E0));
#423=DIRECTION('',(1.E0,0.E0,0.E0));
#424=DIRECTION('',(0.E0,-1.E0,0.E0));
#425=AXIS2_PLACEMENT_3D('',#422,#423,#424);
#426=CONICAL_SURFACE('',#425,5.026210382234E0,2.800101071789E1);
#427=ORIENTED_EDGE('',*,*,#411,.F.);
#428=ORIENTED_EDGE('',*,*,#400,.T.);
#430=ORIENTED_EDGE('',*,*,#429,.T.);
#431=ORIENTED_EDGE('',*,*,#397,.T.);
#432=EDGE_LOOP('',(#427,#428,#430,#431));
#433=FACE_OUTER_BOUND('',#432,.F.);
#434=ADVANCED_FACE('',(#433),#426,.T.);
#435=CARTESIAN_POINT('',(-1.69E1,0.E0,0.E0));
#436=DIRECTION('',(1.E0,0.E0,0.E0));
#437=DIRECTION('',(0.E0,-1.E0,0.E0));
#438=AXIS2_PLACEMENT_3D('',#435,#436,#437);
#439=CONICAL_SURFACE('',#438,6.566256794118E0,8.001010717888E0);
#440=ORIENTED_EDGE('',*,*,#429,.F.);
#441=ORIENTED_EDGE('',*,*,#385,.F.);
#442=ORIENTED_EDGE('',*,*,#366,.F.);
#443=ORIENTED_EDGE('',*,*,#382,.T.);
#444=EDGE_LOOP('',(#440,#441,#442,#443));
#445=FACE_OUTER_BOUND('',#444,.F.);
#446=ADVANCED_FACE('',(#445),#439,.T.);
#447=CARTESIAN_POINT('',(-2.745E1,0.E0,0.E0));
#448=DIRECTION('',(-1.E0,0.E0,0.E0));
#449=DIRECTION('',(0.E0,1.E0,0.E0));
#450=AXIS2_PLACEMENT_3D('',#447,#448,#449);
#451=CONICAL_SURFACE('',#450,4.078867513459E0,3.E1);
#452=ORIENTED_EDGE('',*,*,#415,.T.);
#454=ORIENTED_EDGE('',*,*,#453,.F.);
#456=ORIENTED_EDGE('',*,*,#455,.T.);
#458=ORIENTED_EDGE('',*,*,#457,.F.);
#459=EDGE_LOOP('',(#452,#454,#456,#458));
#460=FACE_OUTER_BOUND('',#459,.F.);
#461=ADVANCED_FACE('',(#460),#451,.F.);
#462=CARTESIAN_POINT('',(-2.745E1,0.E0,0.E0));
#463=DIRECTION('',(-1.E0,0.E0,0.E0));
#464=DIRECTION('',(0.E0,1.E0,0.E0));
#465=AXIS2_PLACEMENT_3D('',#462,#463,#464);
#466=CONICAL_SURFACE('',#465,4.078867513459E0,3.E1);
#467=ORIENTED_EDGE('',*,*,#417,.T.);
#468=ORIENTED_EDGE('',*,*,#457,.T.);
#470=ORIENTED_EDGE('',*,*,#469,.F.);
#471=ORIENTED_EDGE('',*,*,#453,.T.);
#472=EDGE_LOOP('',(#467,#468,#470,#471));
#473=FACE_OUTER_BOUND('',#472,.F.);
#474=ADVANCED_FACE('',(#473),#466,.F.);
#475=CARTESIAN_POINT('',(-2.771691342951E1,0.E0,0.E0));
#476=DIRECTION('',(1.E0,0.E0,0.E0));
#477=DIRECTION('',(0.E0,-1.E0,0.E0));
#478=AXIS2_PLACEMENT_3D('',#475,#476,#477);
#479=CYLINDRICAL_SURFACE('',#478,4.05E0);
#481=ORIENTED_EDGE('',*,*,#480,.T.);
#483=ORIENTED_EDGE('',*,*,#482,.F.);
#485=ORIENTED_EDGE('',*,*,#484,.F.);
#486=ORIENTED_EDGE('',*,*,#469,.T.);
#487=EDGE_LOOP('',(#481,#483,#485,#486));
#488=FACE_OUTER_BOUND('',#487,.F.);
#489=ADVANCED_FACE('',(#488),#479,.F.);
#490=CARTESIAN_POINT('',(-2.771691342951E1,0.E0,0.E0));
#491=DIRECTION('',(1.E0,0.E0,0.E0));
#492=DIRECTION('',(0.E0,-1.E0,0.E0));
#493=AXIS2_PLACEMENT_3D('',#490,#491,#492);
#494=CYLINDRICAL_SURFACE('',#493,4.05E0);
#495=ORIENTED_EDGE('',*,*,#480,.F.);
#496=ORIENTED_EDGE('',*,*,#455,.F.);
#497=ORIENTED_EDGE('',*,*,#484,.T.);
#499=ORIENTED_EDGE('',*,*,#498,.T.);
#500=EDGE_LOOP('',(#495,#496,#497,#499));
#501=FACE_OUTER_BOUND('',#500,.F.);
#502=ADVANCED_FACE('',(#501),#494,.F.);
#503=CARTESIAN_POINT('',(-2.548556624327E1,0.E0,0.E0));
#504=DIRECTION('',(-1.E0,0.E0,0.E0));
#505=DIRECTION('',(0.E0,1.E0,0.E0));
#506=AXIS2_PLACEMENT_3D('',#503,#504,#505);
#507=CONICAL_SURFACE('',#506,4.025E0,6.E1);
#509=ORIENTED_EDGE('',*,*,#508,.F.);
#511=ORIENTED_EDGE('',*,*,#510,.F.);
#512=ORIENTED_EDGE('',*,*,#498,.F.);
#514=ORIENTED_EDGE('',*,*,#513,.T.);
#515=EDGE_LOOP('',(#509,#511,#512,#514));
#516=FACE_OUTER_BOUND('',#515,.F.);
#517=ADVANCED_FACE('',(#516),#507,.F.);
#518=CARTESIAN_POINT('',(-2.75E1,0.E0,0.E0));
#519=DIRECTION('',(1.E0,0.E0,0.E0));
#520=DIRECTION('',(0.E0,1.E0,0.E0));
#521=AXIS2_PLACEMENT_3D('',#518,#519,#520);
#522=CYLINDRICAL_SURFACE('',#521,4.E0);
#524=ORIENTED_EDGE('',*,*,#523,.F.);
#526=ORIENTED_EDGE('',*,*,#525,.F.);
#527=ORIENTED_EDGE('',*,*,#508,.T.);
#529=ORIENTED_EDGE('',*,*,#528,.T.);
#530=EDGE_LOOP('',(#524,#526,#527,#529));
#531=FACE_OUTER_BOUND('',#530,.F.);
#532=ADVANCED_FACE('',(#531),#522,.F.);
#533=CARTESIAN_POINT('',(-2.3E1,0.E0,0.E0));
#534=DIRECTION('',(-1.E0,0.E0,0.E0));
#535=DIRECTION('',(0.E0,-1.E0,0.E0));
#536=AXIS2_PLACEMENT_3D('',#533,#534,#535);
#537=PLANE('',#536);
#539=ORIENTED_EDGE('',*,*,#538,.T.);
#541=ORIENTED_EDGE('',*,*,#540,.T.);
#542=EDGE_LOOP('',(#539,#541));
#543=FACE_OUTER_BOUND('',#542,.F.);
#544=ORIENTED_EDGE('',*,*,#523,.T.);
#546=ORIENTED_EDGE('',*,*,#545,.T.);
#547=EDGE_LOOP('',(#544,#546));
#548=FACE_BOUND('',#547,.F.);
#549=ADVANCED_FACE('',(#543,#548),#537,.F.);
#550=CARTESIAN_POINT('',(0.E0,0.E0,0.E0));
#551=DIRECTION('',(-1.E0,0.E0,0.E0));
#552=DIRECTION('',(0.E0,-1.E0,0.E0));
#553=AXIS2_PLACEMENT_3D('',#550,#551,#552);
#554=CYLINDRICAL_SURFACE('',#553,5.E0);
#555=ORIENTED_EDGE('',*,*,#280,.T.);
#557=ORIENTED_EDGE('',*,*,#556,.T.);
#558=ORIENTED_EDGE('',*,*,#538,.F.);
#560=ORIENTED_EDGE('',*,*,#559,.F.);
#561=EDGE_LOOP('',(#555,#557,#558,#560));
#562=FACE_OUTER_BOUND('',#561,.F.);
#563=ADVANCED_FACE('',(#562),#554,.F.);
#564=CARTESIAN_POINT('',(0.E0,0.E0,0.E0));
#565=DIRECTION('',(-1.E0,0.E0,0.E0));
#566=DIRECTION('',(0.E0,-1.E0,0.E0));
#567=AXIS2_PLACEMENT_3D('',#564,#565,#566);
#568=CYLINDRICAL_SURFACE('',#567,5.E0);
#569=ORIENTED_EDGE('',*,*,#282,.T.);
#570=ORIENTED_EDGE('',*,*,#559,.T.);
#571=ORIENTED_EDGE('',*,*,#540,.F.);
#572=ORIENTED_EDGE('',*,*,#556,.F.);
#573=EDGE_LOOP('',(#569,#570,#571,#572));
#574=FACE_OUTER_BOUND('',#573,.F.);
#575=ADVANCED_FACE('',(#574),#568,.F.);
#576=CARTESIAN_POINT('',(-2.75E1,0.E0,0.E0));
#577=DIRECTION('',(1.E0,0.E0,0.E0));
#578=DIRECTION('',(0.E0,1.E0,0.E0));
#579=AXIS2_PLACEMENT_3D('',#576,#577,#578);
#580=CYLINDRICAL_SURFACE('',#579,4.E0);
#581=ORIENTED_EDGE('',*,*,#545,.F.);
#582=ORIENTED_EDGE('',*,*,#528,.F.);
#584=ORIENTED_EDGE('',*,*,#583,.T.);
#585=ORIENTED_EDGE('',*,*,#525,.T.);
#586=EDGE_LOOP('',(#581,#582,#584,#585));
#587=FACE_OUTER_BOUND('',#586,.F.);
#588=ADVANCED_FACE('',(#587),#580,.F.);
#589=CARTESIAN_POINT('',(-2.548556624327E1,0.E0,0.E0));
#590=DIRECTION('',(-1.E0,0.E0,0.E0));
#591=DIRECTION('',(0.E0,1.E0,0.E0));
#592=AXIS2_PLACEMENT_3D('',#589,#590,#591);
#593=CONICAL_SURFACE('',#592,4.025E0,6.E1);
#594=ORIENTED_EDGE('',*,*,#583,.F.);
#595=ORIENTED_EDGE('',*,*,#513,.F.);
#596=ORIENTED_EDGE('',*,*,#482,.T.);
#597=ORIENTED_EDGE('',*,*,#510,.T.);
#598=EDGE_LOOP('',(#594,#595,#596,#597));
#599=FACE_OUTER_BOUND('',#598,.F.);
#600=ADVANCED_FACE('',(#599),#593,.F.);
#601=CLOSED_SHELL('',(#286,#301,#314,#330,#345,#358,#374,#389,#404,#421,#434,
#446,#461,#474,#489,#502,#517,#532,#549,#563,#575,#588,#600));
#602=MANIFOLD_SOLID_BREP('',#601);
#604=DIMENSIONAL_EXPONENTS(0.E0,0.E0,0.E0,0.E0,0.E0,0.E0,0.E0);
#606=PLANE_ANGLE_MEASURE_WITH_UNIT(PLANE_ANGLE_MEASURE(1.745329251994E-2),#605);
#607=(CONVERSION_BASED_UNIT('DEGREE',#606)NAMED_UNIT(*)PLANE_ANGLE_UNIT());
#609=UNCERTAINTY_MEASURE_WITH_UNIT(LENGTH_MEASURE(1.E-2),#603,'closure',
'Maximum model space distance between geometric entities at asserted connectivities');
#610=(GEOMETRIC_REPRESENTATION_CONTEXT(3)GLOBAL_UNCERTAINTY_ASSIGNED_CONTEXT((
#609))GLOBAL_UNIT_ASSIGNED_CONTEXT((#603,#607,#608))REPRESENTATION_CONTEXT
('ID1','3'));
#612=APPLICATION_CONTEXT(
'CONFIGURATION CONTROLLED 3D DESIGNS OF MECHANICAL PARTS AND ASSEMBLIES');
#613=APPLICATION_PROTOCOL_DEFINITION('international standard',
'config_control_design',1994,#612);
#614=DESIGN_CONTEXT('',#612,'design');
#615=MECHANICAL_CONTEXT('',#612,'mechanical');
#616=PRODUCT('LAN_ER16_PROTOTYP_A0_D10','LAN_ER16_PROTOTYP_A0_D10',
'NOT SPECIFIED',(#615));
#617=PRODUCT_DEFINITION_FORMATION_WITH_SPECIFIED_SOURCE('1','LAST_VERSION',#616,
.MADE.);
#621=PRODUCT_CATEGORY('part','');
#622=PRODUCT_RELATED_PRODUCT_CATEGORY('detail','',(#616));
#623=PRODUCT_CATEGORY_RELATIONSHIP('','',#621,#622);
#624=SECURITY_CLASSIFICATION_LEVEL('unclassified');
#625=SECURITY_CLASSIFICATION('','',#624);
#626=CC_DESIGN_SECURITY_CLASSIFICATION(#625,(#617));
#627=APPROVAL_STATUS('approved');
#628=APPROVAL(#627,'');
#629=CC_DESIGN_APPROVAL(#628,(#625,#617,#618));
#630=CALENDAR_DATE(117,30,11);
#631=COORDINATED_UNIVERSAL_TIME_OFFSET(1,0,.AHEAD.);
#632=LOCAL_TIME(8,25,4.8E1,#631);
#633=DATE_AND_TIME(#630,#632);
#634=APPROVAL_DATE_TIME(#633,#628);
#635=DATE_TIME_ROLE('creation_date');
#636=CC_DESIGN_DATE_AND_TIME_ASSIGNMENT(#633,#635,(#618));
#637=DATE_TIME_ROLE('classification_date');
#638=CC_DESIGN_DATE_AND_TIME_ASSIGNMENT(#633,#637,(#625));
#639=PERSON('UNSPECIFIED','UNSPECIFIED',$,$,$,$);
#640=ORGANIZATION('UNSPECIFIED','UNSPECIFIED','UNSPECIFIED');
#641=PERSON_AND_ORGANIZATION(#639,#640);
#642=APPROVAL_ROLE('approver');
#643=APPROVAL_PERSON_ORGANIZATION(#641,#628,#642);
#644=PERSON_AND_ORGANIZATION_ROLE('creator');
#645=CC_DESIGN_PERSON_AND_ORGANIZATION_ASSIGNMENT(#641,#644,(#617,#618));
#646=PERSON_AND_ORGANIZATION_ROLE('design_supplier');
#647=CC_DESIGN_PERSON_AND_ORGANIZATION_ASSIGNMENT(#641,#646,(#617));
#648=PERSON_AND_ORGANIZATION_ROLE('classification_officer');
#649=CC_DESIGN_PERSON_AND_ORGANIZATION_ASSIGNMENT(#641,#648,(#625));
#650=PERSON_AND_ORGANIZATION_ROLE('design_owner');
#651=CC_DESIGN_PERSON_AND_ORGANIZATION_ASSIGNMENT(#641,#650,(#616));
#5=CIRCLE('',#4,5.E0);
#10=CIRCLE('',#9,5.E0);
#15=CIRCLE('',#14,6.250089200116E0);
#28=CIRCLE('',#27,6.250089200116E0);
#33=CIRCLE('',#32,8.540910799884E0);
#38=CIRCLE('',#37,8.540910799884E0);
#43=CIRCLE('',#42,6.9E0);
#56=CIRCLE('',#55,6.9E0);
#61=CIRCLE('',#60,6.9E0);
#66=CIRCLE('',#65,6.9E0);
#71=CIRCLE('',#70,5.132556794118E0);
#76=CIRCLE('',#75,7.999956794118E0);
#81=CIRCLE('',#80,4.919863970350E0);
#86=CIRCLE('',#85,4.919863970350E0);
#99=CIRCLE('',#98,5.132556794118E0);
#108=CIRCLE('',#107,7.999956794118E0);
#117=CIRCLE('',#116,4.107735026919E0);
#122=CIRCLE('',#121,4.05E0);
#127=CIRCLE('',#126,4.107735026919E0);
#136=CIRCLE('',#135,4.05E0);
#149=CIRCLE('',#148,4.05E0);
#158=CIRCLE('',#157,4.05E0);
#163=CIRCLE('',#162,4.E0);
#168=CIRCLE('',#167,4.E0);
#177=CIRCLE('',#176,5.E0);
#182=CIRCLE('',#181,5.E0);
#195=CIRCLE('',#194,4.E0);
#204=CIRCLE('',#203,4.E0);
#274=EDGE_CURVE('',#215,#223,#15,.T.);
#276=EDGE_CURVE('',#215,#223,#28,.T.);
#280=EDGE_CURVE('',#263,#264,#5,.T.);
#282=EDGE_CURVE('',#264,#263,#10,.T.);
#292=EDGE_CURVE('',#215,#216,#19,.T.);
#295=EDGE_CURVE('',#223,#224,#23,.T.);
#297=EDGE_CURVE('',#216,#224,#38,.T.);
#308=EDGE_CURVE('',#216,#224,#33,.T.);
#324=EDGE_CURVE('',#219,#227,#43,.T.);
#326=EDGE_CURVE('',#219,#227,#56,.T.);
#336=EDGE_CURVE('',#219,#220,#47,.T.);
#339=EDGE_CURVE('',#227,#228,#51,.T.);
#341=EDGE_CURVE('',#220,#228,#66,.T.);
#352=EDGE_CURVE('',#220,#228,#61,.T.);
#364=EDGE_CURVE('',#255,#256,#76,.T.);
#366=EDGE_CURVE('',#255,#256,#108,.T.);
#380=EDGE_CURVE('',#239,#240,#71,.T.);
#382=EDGE_CURVE('',#255,#239,#112,.T.);
#385=EDGE_CURVE('',#256,#240,#103,.T.);
#395=EDGE_CURVE('',#243,#244,#81,.T.);
#397=EDGE_CURVE('',#239,#243,#94,.T.);
#400=EDGE_CURVE('',#244,#240,#90,.T.);
#411=EDGE_CURVE('',#244,#243,#86,.T.);
#415=EDGE_CURVE('',#251,#252,#117,.T.);
#417=EDGE_CURVE('',#252,#251,#127,.T.);
#429=EDGE_CURVE('',#240,#239,#99,.T.);
#453=EDGE_CURVE('',#235,#252,#140,.T.);
#455=EDGE_CURVE('',#235,#231,#122,.T.);
#457=EDGE_CURVE('',#251,#231,#131,.T.);
#469=EDGE_CURVE('',#235,#231,#136,.T.);
#480=EDGE_CURVE('',#231,#232,#144,.T.);
#482=EDGE_CURVE('',#236,#232,#149,.T.);
#484=EDGE_CURVE('',#235,#236,#153,.T.);
#498=EDGE_CURVE('',#236,#232,#158,.T.);
#508=EDGE_CURVE('',#247,#248,#163,.T.);
#510=EDGE_CURVE('',#232,#247,#212,.T.);
#513=EDGE_CURVE('',#236,#248,#208,.T.);
#523=EDGE_CURVE('',#267,#268,#168,.T.);
#525=EDGE_CURVE('',#247,#267,#172,.T.);
#528=EDGE_CURVE('',#248,#268,#199,.T.);
#538=EDGE_CURVE('',#259,#260,#177,.T.);
#540=EDGE_CURVE('',#260,#259,#182,.T.);
#545=EDGE_CURVE('',#268,#267,#195,.T.);
#556=EDGE_CURVE('',#264,#260,#190,.T.);
#559=EDGE_CURVE('',#263,#259,#186,.T.);
#583=EDGE_CURVE('',#248,#247,#204,.T.);
#603=(LENGTH_UNIT()NAMED_UNIT(*)SI_UNIT(.MILLI.,.METRE.));
#605=(NAMED_UNIT(*)PLANE_ANGLE_UNIT()SI_UNIT($,.RADIAN.));
#608=(NAMED_UNIT(*)SI_UNIT($,.STERADIAN.)SOLID_ANGLE_UNIT());
#611=ADVANCED_BREP_SHAPE_REPRESENTATION('',(#602),#610);
#618=PRODUCT_DEFINITION('design','',#617,#614);
#619=PRODUCT_DEFINITION_SHAPE('','SHAPE FOR LAN_ER16_PROTOTYP_A0_D10.',#618);
#620=SHAPE_DEFINITION_REPRESENTATION(#619,#611);
ENDSEC;
END-ISO-10303-21;
