ISO-10303-21;
HEADER;
FILE_DESCRIPTION((''),'2;1');
FILE_NAME('LAN_ER16_PROTOTYP_A0_D8','2017-11-30T',('Jon'),(''),
'CREO PARAMETRIC BY PTC INC, 2016260','CREO PARAMETRIC BY PTC INC, 2016260','');
FILE_SCHEMA(('CONFIG_CONTROL_DESIGN'));
ENDSEC;
DATA;
#1=CARTESIAN_POINT('',(0.E0,0.E0,0.E0));
#2=DIRECTION('',(-1.E0,0.E0,0.E0));
#3=DIRECTION('',(0.E0,-1.E0,0.E0));
#4=AXIS2_PLACEMENT_3D('',#1,#2,#3);
#6=CARTESIAN_POINT('',(0.E0,0.E0,0.E0));
#7=DIRECTION('',(-1.E0,0.E0,0.E0));
#8=DIRECTION('',(0.E0,1.E0,0.E0));
#9=AXIS2_PLACEMENT_3D('',#6,#7,#8);
#11=CARTESIAN_POINT('',(0.E0,0.E0,0.E0));
#12=DIRECTION('',(1.E0,0.E0,0.E0));
#13=DIRECTION('',(0.E0,1.E0,0.E0));
#14=AXIS2_PLACEMENT_3D('',#11,#12,#13);
#16=DIRECTION('',(-8.677654533689E-1,4.969739610276E-1,0.E0));
#17=VECTOR('',#16,4.609540497920E0);
#18=CARTESIAN_POINT('',(0.E0,6.250089200116E0,0.E0));
#19=LINE('',#18,#17);
#20=DIRECTION('',(-8.677654533689E-1,-4.969739610276E-1,0.E0));
#21=VECTOR('',#20,4.609540497920E0);
#22=CARTESIAN_POINT('',(0.E0,-6.250089200116E0,0.E0));
#23=LINE('',#22,#21);
#24=CARTESIAN_POINT('',(0.E0,0.E0,0.E0));
#25=DIRECTION('',(-1.E0,0.E0,0.E0));
#26=DIRECTION('',(0.E0,1.E0,0.E0));
#27=AXIS2_PLACEMENT_3D('',#24,#25,#26);
#29=CARTESIAN_POINT('',(-4.E0,0.E0,0.E0));
#30=DIRECTION('',(-1.E0,0.E0,0.E0));
#31=DIRECTION('',(0.E0,1.E0,0.E0));
#32=AXIS2_PLACEMENT_3D('',#29,#30,#31);
#34=CARTESIAN_POINT('',(-4.E0,0.E0,0.E0));
#35=DIRECTION('',(1.E0,0.E0,0.E0));
#36=DIRECTION('',(0.E0,1.E0,0.E0));
#37=AXIS2_PLACEMENT_3D('',#34,#35,#36);
#39=CARTESIAN_POINT('',(-4.E0,0.E0,0.E0));
#40=DIRECTION('',(1.E0,0.E0,0.E0));
#41=DIRECTION('',(0.E0,1.E0,0.E0));
#42=AXIS2_PLACEMENT_3D('',#39,#40,#41);
#44=DIRECTION('',(-1.E0,0.E0,0.E0));
#45=VECTOR('',#44,2.7E0);
#46=CARTESIAN_POINT('',(-4.E0,6.9E0,0.E0));
#47=LINE('',#46,#45);
#48=DIRECTION('',(-1.E0,0.E0,0.E0));
#49=VECTOR('',#48,2.7E0);
#50=CARTESIAN_POINT('',(-4.E0,-6.9E0,0.E0));
#51=LINE('',#50,#49);
#52=CARTESIAN_POINT('',(-4.E0,0.E0,0.E0));
#53=DIRECTION('',(-1.E0,0.E0,0.E0));
#54=DIRECTION('',(0.E0,1.E0,0.E0));
#55=AXIS2_PLACEMENT_3D('',#52,#53,#54);
#57=CARTESIAN_POINT('',(-6.7E0,0.E0,0.E0));
#58=DIRECTION('',(-1.E0,0.E0,0.E0));
#59=DIRECTION('',(0.E0,1.E0,0.E0));
#60=AXIS2_PLACEMENT_3D('',#57,#58,#59);
#62=CARTESIAN_POINT('',(-6.7E0,0.E0,0.E0));
#63=DIRECTION('',(1.E0,0.E0,0.E0));
#64=DIRECTION('',(0.E0,1.E0,0.E0));
#65=AXIS2_PLACEMENT_3D('',#62,#63,#64);
#67=CARTESIAN_POINT('',(-2.71E1,0.E0,0.E0));
#68=DIRECTION('',(1.E0,0.E0,0.E0));
#69=DIRECTION('',(0.E0,1.E0,0.E0));
#70=AXIS2_PLACEMENT_3D('',#67,#68,#69);
#72=CARTESIAN_POINT('',(-6.7E0,0.E0,0.E0));
#73=DIRECTION('',(1.E0,0.E0,0.E0));
#74=DIRECTION('',(0.E0,1.E0,0.E0));
#75=AXIS2_PLACEMENT_3D('',#72,#73,#74);
#77=CARTESIAN_POINT('',(-2.75E1,0.E0,0.E0));
#78=DIRECTION('',(1.E0,0.E0,0.E0));
#79=DIRECTION('',(0.E0,1.E0,0.E0));
#80=AXIS2_PLACEMENT_3D('',#77,#78,#79);
#82=CARTESIAN_POINT('',(-2.75E1,0.E0,0.E0));
#83=DIRECTION('',(1.E0,0.E0,0.E0));
#84=DIRECTION('',(0.E0,-1.E0,0.E0));
#85=AXIS2_PLACEMENT_3D('',#82,#83,#84);
#87=DIRECTION('',(8.829393110765E-1,-4.694871382218E-1,0.E0));
#88=VECTOR('',#87,4.530322695818E-1);
#89=CARTESIAN_POINT('',(-2.75E1,-4.919863970350E0,0.E0));
#90=LINE('',#89,#88);
#91=DIRECTION('',(-8.829393110765E-1,-4.694871382218E-1,0.E0));
#92=VECTOR('',#91,4.530322695818E-1);
#93=CARTESIAN_POINT('',(-2.71E1,5.132556794118E0,0.E0));
#94=LINE('',#93,#92);
#95=CARTESIAN_POINT('',(-2.71E1,0.E0,0.E0));
#96=DIRECTION('',(1.E0,0.E0,0.E0));
#97=DIRECTION('',(0.E0,-1.E0,0.E0));
#98=AXIS2_PLACEMENT_3D('',#95,#96,#97);
#100=DIRECTION('',(-9.902656135246E-1,1.391905696186E-1,0.E0));
#101=VECTOR('',#100,2.060053355523E1);
#102=CARTESIAN_POINT('',(-6.7E0,-7.999956794118E0,0.E0));
#103=LINE('',#102,#101);
#104=CARTESIAN_POINT('',(-6.7E0,0.E0,0.E0));
#105=DIRECTION('',(-1.E0,0.E0,0.E0));
#106=DIRECTION('',(0.E0,1.E0,0.E0));
#107=AXIS2_PLACEMENT_3D('',#104,#105,#106);
#109=DIRECTION('',(-9.902656135246E-1,-1.391905696186E-1,0.E0));
#110=VECTOR('',#109,2.060053355523E1);
#111=CARTESIAN_POINT('',(-6.7E0,7.999956794118E0,0.E0));
#112=LINE('',#111,#110);
#113=CARTESIAN_POINT('',(-2.75E1,0.E0,0.E0));
#114=DIRECTION('',(1.E0,0.E0,0.E0));
#115=DIRECTION('',(0.E0,1.E0,0.E0));
#116=AXIS2_PLACEMENT_3D('',#113,#114,#115);
#118=CARTESIAN_POINT('',(-2.74E1,0.E0,0.E0));
#119=DIRECTION('',(-1.E0,0.E0,0.E0));
#120=DIRECTION('',(0.E0,-1.E0,0.E0));
#121=AXIS2_PLACEMENT_3D('',#118,#119,#120);
#123=CARTESIAN_POINT('',(-2.75E1,0.E0,0.E0));
#124=DIRECTION('',(1.E0,0.E0,0.E0));
#125=DIRECTION('',(0.E0,-1.E0,0.E0));
#126=AXIS2_PLACEMENT_3D('',#123,#124,#125);
#128=DIRECTION('',(8.660254037844E-1,-5.E-1,0.E0));
#129=VECTOR('',#128,1.154700538379E-1);
#130=CARTESIAN_POINT('',(-2.75E1,4.107735026919E0,0.E0));
#131=LINE('',#130,#129);
#132=CARTESIAN_POINT('',(-2.74E1,0.E0,0.E0));
#133=DIRECTION('',(1.E0,0.E0,0.E0));
#134=DIRECTION('',(0.E0,-1.E0,0.E0));
#135=AXIS2_PLACEMENT_3D('',#132,#133,#134);
#137=DIRECTION('',(-8.660254037844E-1,-5.E-1,0.E0));
#138=VECTOR('',#137,1.154700538379E-1);
#139=CARTESIAN_POINT('',(-2.74E1,-4.05E0,0.E0));
#140=LINE('',#139,#138);
#141=DIRECTION('',(1.E0,0.E0,0.E0));
#142=VECTOR('',#141,1.9E0);
#143=CARTESIAN_POINT('',(-2.74E1,4.05E0,0.E0));
#144=LINE('',#143,#142);
#145=CARTESIAN_POINT('',(-2.55E1,0.E0,0.E0));
#146=DIRECTION('',(1.E0,0.E0,0.E0));
#147=DIRECTION('',(0.E0,-1.E0,0.E0));
#148=AXIS2_PLACEMENT_3D('',#145,#146,#147);
#150=DIRECTION('',(1.E0,0.E0,0.E0));
#151=VECTOR('',#150,1.9E0);
#152=CARTESIAN_POINT('',(-2.74E1,-4.05E0,0.E0));
#153=LINE('',#152,#151);
#154=CARTESIAN_POINT('',(-2.55E1,0.E0,0.E0));
#155=DIRECTION('',(-1.E0,0.E0,0.E0));
#156=DIRECTION('',(0.E0,-1.E0,0.E0));
#157=AXIS2_PLACEMENT_3D('',#154,#155,#156);
#159=CARTESIAN_POINT('',(-2.547113248654E1,0.E0,0.E0));
#160=DIRECTION('',(-1.E0,0.E0,0.E0));
#161=DIRECTION('',(0.E0,-1.E0,0.E0));
#162=AXIS2_PLACEMENT_3D('',#159,#160,#161);
#164=DIRECTION('',(-1.E0,0.E0,0.E0));
#165=VECTOR('',#164,2.547113248654E1);
#166=CARTESIAN_POINT('',(0.E0,-4.E0,0.E0));
#167=LINE('',#166,#165);
#168=DIRECTION('',(-1.E0,0.E0,0.E0));
#169=VECTOR('',#168,2.547113248654E1);
#170=CARTESIAN_POINT('',(0.E0,4.E0,0.E0));
#171=LINE('',#170,#169);
#172=CARTESIAN_POINT('',(-2.547113248654E1,0.E0,0.E0));
#173=DIRECTION('',(-1.E0,0.E0,0.E0));
#174=DIRECTION('',(0.E0,1.E0,0.E0));
#175=AXIS2_PLACEMENT_3D('',#172,#173,#174);
#177=DIRECTION('',(5.E-1,8.660254037845E-1,0.E0));
#178=VECTOR('',#177,5.773502691896E-2);
#179=CARTESIAN_POINT('',(-2.55E1,-4.05E0,0.E0));
#180=LINE('',#179,#178);
#181=DIRECTION('',(5.E-1,-8.660254037845E-1,0.E0));
#182=VECTOR('',#181,5.773502691896E-2);
#183=CARTESIAN_POINT('',(-2.55E1,4.05E0,0.E0));
#184=LINE('',#183,#182);
#185=CARTESIAN_POINT('',(0.E0,6.250089200116E0,0.E0));
#186=CARTESIAN_POINT('',(-4.E0,8.540910799884E0,0.E0));
#187=VERTEX_POINT('',#185);
#188=VERTEX_POINT('',#186);
#189=CARTESIAN_POINT('',(-4.E0,6.9E0,0.E0));
#190=CARTESIAN_POINT('',(-6.7E0,6.9E0,0.E0));
#191=VERTEX_POINT('',#189);
#192=VERTEX_POINT('',#190);
#193=CARTESIAN_POINT('',(0.E0,-6.250089200116E0,0.E0));
#194=CARTESIAN_POINT('',(-4.E0,-8.540910799884E0,0.E0));
#195=VERTEX_POINT('',#193);
#196=VERTEX_POINT('',#194);
#197=CARTESIAN_POINT('',(-4.E0,-6.9E0,0.E0));
#198=CARTESIAN_POINT('',(-6.7E0,-6.9E0,0.E0));
#199=VERTEX_POINT('',#197);
#200=VERTEX_POINT('',#198);
#201=CARTESIAN_POINT('',(-2.74E1,4.05E0,0.E0));
#202=CARTESIAN_POINT('',(-2.55E1,4.05E0,0.E0));
#203=VERTEX_POINT('',#201);
#204=VERTEX_POINT('',#202);
#205=CARTESIAN_POINT('',(-2.74E1,-4.05E0,0.E0));
#206=CARTESIAN_POINT('',(-2.55E1,-4.05E0,0.E0));
#207=VERTEX_POINT('',#205);
#208=VERTEX_POINT('',#206);
#209=CARTESIAN_POINT('',(-2.71E1,5.132556794118E0,0.E0));
#210=CARTESIAN_POINT('',(-2.71E1,-5.132556794118E0,0.E0));
#211=VERTEX_POINT('',#209);
#212=VERTEX_POINT('',#210);
#213=CARTESIAN_POINT('',(-2.75E1,4.919863970350E0,0.E0));
#214=CARTESIAN_POINT('',(-2.75E1,-4.919863970350E0,0.E0));
#215=VERTEX_POINT('',#213);
#216=VERTEX_POINT('',#214);
#217=CARTESIAN_POINT('',(-2.75E1,4.107735026919E0,0.E0));
#218=CARTESIAN_POINT('',(-2.75E1,-4.107735026919E0,0.E0));
#219=VERTEX_POINT('',#217);
#220=VERTEX_POINT('',#218);
#221=CARTESIAN_POINT('',(-6.7E0,7.999956794118E0,0.E0));
#222=CARTESIAN_POINT('',(-6.7E0,-7.999956794118E0,0.E0));
#223=VERTEX_POINT('',#221);
#224=VERTEX_POINT('',#222);
#225=CARTESIAN_POINT('',(0.E0,-4.E0,0.E0));
#226=CARTESIAN_POINT('',(0.E0,4.E0,0.E0));
#227=VERTEX_POINT('',#225);
#228=VERTEX_POINT('',#226);
#229=CARTESIAN_POINT('',(-2.547113248654E1,-4.E0,0.E0));
#230=CARTESIAN_POINT('',(-2.547113248654E1,4.E0,0.E0));
#231=VERTEX_POINT('',#229);
#232=VERTEX_POINT('',#230);
#233=CARTESIAN_POINT('',(0.E0,0.E0,0.E0));
#234=DIRECTION('',(1.E0,0.E0,0.E0));
#235=DIRECTION('',(0.E0,-1.E0,0.E0));
#236=AXIS2_PLACEMENT_3D('',#233,#234,#235);
#237=PLANE('',#236);
#239=ORIENTED_EDGE('',*,*,#238,.F.);
#241=ORIENTED_EDGE('',*,*,#240,.T.);
#242=EDGE_LOOP('',(#239,#241));
#243=FACE_OUTER_BOUND('',#242,.F.);
#245=ORIENTED_EDGE('',*,*,#244,.F.);
#247=ORIENTED_EDGE('',*,*,#246,.F.);
#248=EDGE_LOOP('',(#245,#247));
#249=FACE_BOUND('',#248,.F.);
#250=ADVANCED_FACE('',(#243,#249),#237,.T.);
#251=CARTESIAN_POINT('',(-2.E0,0.E0,0.E0));
#252=DIRECTION('',(-1.E0,0.E0,0.E0));
#253=DIRECTION('',(0.E0,1.E0,0.E0));
#254=AXIS2_PLACEMENT_3D('',#251,#252,#253);
#255=CONICAL_SURFACE('',#254,7.3955E0,2.98E1);
#257=ORIENTED_EDGE('',*,*,#256,.F.);
#258=ORIENTED_EDGE('',*,*,#238,.T.);
#260=ORIENTED_EDGE('',*,*,#259,.T.);
#262=ORIENTED_EDGE('',*,*,#261,.F.);
#263=EDGE_LOOP('',(#257,#258,#260,#262));
#264=FACE_OUTER_BOUND('',#263,.F.);
#265=ADVANCED_FACE('',(#264),#255,.T.);
#266=CARTESIAN_POINT('',(-2.E0,0.E0,0.E0));
#267=DIRECTION('',(-1.E0,0.E0,0.E0));
#268=DIRECTION('',(0.E0,1.E0,0.E0));
#269=AXIS2_PLACEMENT_3D('',#266,#267,#268);
#270=CONICAL_SURFACE('',#269,7.3955E0,2.98E1);
#271=ORIENTED_EDGE('',*,*,#256,.T.);
#273=ORIENTED_EDGE('',*,*,#272,.T.);
#274=ORIENTED_EDGE('',*,*,#259,.F.);
#275=ORIENTED_EDGE('',*,*,#240,.F.);
#276=EDGE_LOOP('',(#271,#273,#274,#275));
#277=FACE_OUTER_BOUND('',#276,.F.);
#278=ADVANCED_FACE('',(#277),#270,.T.);
#279=CARTESIAN_POINT('',(-4.E0,0.E0,0.E0));
#280=DIRECTION('',(1.E0,0.E0,0.E0));
#281=DIRECTION('',(0.E0,-1.E0,0.E0));
#282=AXIS2_PLACEMENT_3D('',#279,#280,#281);
#283=PLANE('',#282);
#284=ORIENTED_EDGE('',*,*,#272,.F.);
#285=ORIENTED_EDGE('',*,*,#261,.T.);
#286=EDGE_LOOP('',(#284,#285));
#287=FACE_OUTER_BOUND('',#286,.F.);
#289=ORIENTED_EDGE('',*,*,#288,.F.);
#291=ORIENTED_EDGE('',*,*,#290,.T.);
#292=EDGE_LOOP('',(#289,#291));
#293=FACE_BOUND('',#292,.F.);
#294=ADVANCED_FACE('',(#287,#293),#283,.F.);
#295=CARTESIAN_POINT('',(0.E0,0.E0,0.E0));
#296=DIRECTION('',(1.E0,0.E0,0.E0));
#297=DIRECTION('',(0.E0,-1.E0,0.E0));
#298=AXIS2_PLACEMENT_3D('',#295,#296,#297);
#299=CYLINDRICAL_SURFACE('',#298,6.9E0);
#301=ORIENTED_EDGE('',*,*,#300,.F.);
#302=ORIENTED_EDGE('',*,*,#288,.T.);
#304=ORIENTED_EDGE('',*,*,#303,.T.);
#306=ORIENTED_EDGE('',*,*,#305,.F.);
#307=EDGE_LOOP('',(#301,#302,#304,#306));
#308=FACE_OUTER_BOUND('',#307,.F.);
#309=ADVANCED_FACE('',(#308),#299,.T.);
#310=CARTESIAN_POINT('',(0.E0,0.E0,0.E0));
#311=DIRECTION('',(1.E0,0.E0,0.E0));
#312=DIRECTION('',(0.E0,-1.E0,0.E0));
#313=AXIS2_PLACEMENT_3D('',#310,#311,#312);
#314=CYLINDRICAL_SURFACE('',#313,6.9E0);
#315=ORIENTED_EDGE('',*,*,#300,.T.);
#317=ORIENTED_EDGE('',*,*,#316,.T.);
#318=ORIENTED_EDGE('',*,*,#303,.F.);
#319=ORIENTED_EDGE('',*,*,#290,.F.);
#320=EDGE_LOOP('',(#315,#317,#318,#319));
#321=FACE_OUTER_BOUND('',#320,.F.);
#322=ADVANCED_FACE('',(#321),#314,.T.);
#323=CARTESIAN_POINT('',(-6.7E0,0.E0,0.E0));
#324=DIRECTION('',(1.E0,0.E0,0.E0));
#325=DIRECTION('',(0.E0,-1.E0,0.E0));
#326=AXIS2_PLACEMENT_3D('',#323,#324,#325);
#327=PLANE('',#326);
#329=ORIENTED_EDGE('',*,*,#328,.F.);
#331=ORIENTED_EDGE('',*,*,#330,.T.);
#332=EDGE_LOOP('',(#329,#331));
#333=FACE_OUTER_BOUND('',#332,.F.);
#334=ORIENTED_EDGE('',*,*,#316,.F.);
#335=ORIENTED_EDGE('',*,*,#305,.T.);
#336=EDGE_LOOP('',(#334,#335));
#337=FACE_BOUND('',#336,.F.);
#338=ADVANCED_FACE('',(#333,#337),#327,.T.);
#339=CARTESIAN_POINT('',(-1.69E1,0.E0,0.E0));
#340=DIRECTION('',(1.E0,0.E0,0.E0));
#341=DIRECTION('',(0.E0,-1.E0,0.E0));
#342=AXIS2_PLACEMENT_3D('',#339,#340,#341);
#343=CONICAL_SURFACE('',#342,6.566256794118E0,8.001010717888E0);
#345=ORIENTED_EDGE('',*,*,#344,.F.);
#347=ORIENTED_EDGE('',*,*,#346,.F.);
#348=ORIENTED_EDGE('',*,*,#328,.T.);
#350=ORIENTED_EDGE('',*,*,#349,.T.);
#351=EDGE_LOOP('',(#345,#347,#348,#350));
#352=FACE_OUTER_BOUND('',#351,.F.);
#353=ADVANCED_FACE('',(#352),#343,.T.);
#354=CARTESIAN_POINT('',(-2.73E1,0.E0,0.E0));
#355=DIRECTION('',(1.E0,0.E0,0.E0));
#356=DIRECTION('',(0.E0,-1.E0,0.E0));
#357=AXIS2_PLACEMENT_3D('',#354,#355,#356);
#358=CONICAL_SURFACE('',#357,5.026210382234E0,2.800101071789E1);
#360=ORIENTED_EDGE('',*,*,#359,.F.);
#362=ORIENTED_EDGE('',*,*,#361,.F.);
#363=ORIENTED_EDGE('',*,*,#344,.T.);
#365=ORIENTED_EDGE('',*,*,#364,.F.);
#366=EDGE_LOOP('',(#360,#362,#363,#365));
#367=FACE_OUTER_BOUND('',#366,.F.);
#368=ADVANCED_FACE('',(#367),#358,.T.);
#369=CARTESIAN_POINT('',(-2.75E1,0.E0,0.E0));
#370=DIRECTION('',(1.E0,0.E0,0.E0));
#371=DIRECTION('',(0.E0,-1.E0,0.E0));
#372=AXIS2_PLACEMENT_3D('',#369,#370,#371);
#373=PLANE('',#372);
#374=ORIENTED_EDGE('',*,*,#359,.T.);
#376=ORIENTED_EDGE('',*,*,#375,.T.);
#377=EDGE_LOOP('',(#374,#376));
#378=FACE_OUTER_BOUND('',#377,.F.);
#380=ORIENTED_EDGE('',*,*,#379,.F.);
#382=ORIENTED_EDGE('',*,*,#381,.F.);
#383=EDGE_LOOP('',(#380,#382));
#384=FACE_BOUND('',#383,.F.);
#385=ADVANCED_FACE('',(#378,#384),#373,.F.);
#386=CARTESIAN_POINT('',(-2.73E1,0.E0,0.E0));
#387=DIRECTION('',(1.E0,0.E0,0.E0));
#388=DIRECTION('',(0.E0,-1.E0,0.E0));
#389=AXIS2_PLACEMENT_3D('',#386,#387,#388);
#390=CONICAL_SURFACE('',#389,5.026210382234E0,2.800101071789E1);
#391=ORIENTED_EDGE('',*,*,#375,.F.);
#392=ORIENTED_EDGE('',*,*,#364,.T.);
#394=ORIENTED_EDGE('',*,*,#393,.T.);
#395=ORIENTED_EDGE('',*,*,#361,.T.);
#396=EDGE_LOOP('',(#391,#392,#394,#395));
#397=FACE_OUTER_BOUND('',#396,.F.);
#398=ADVANCED_FACE('',(#397),#390,.T.);
#399=CARTESIAN_POINT('',(-1.69E1,0.E0,0.E0));
#400=DIRECTION('',(1.E0,0.E0,0.E0));
#401=DIRECTION('',(0.E0,-1.E0,0.E0));
#402=AXIS2_PLACEMENT_3D('',#399,#400,#401);
#403=CONICAL_SURFACE('',#402,6.566256794118E0,8.001010717888E0);
#404=ORIENTED_EDGE('',*,*,#393,.F.);
#405=ORIENTED_EDGE('',*,*,#349,.F.);
#406=ORIENTED_EDGE('',*,*,#330,.F.);
#407=ORIENTED_EDGE('',*,*,#346,.T.);
#408=EDGE_LOOP('',(#404,#405,#406,#407));
#409=FACE_OUTER_BOUND('',#408,.F.);
#410=ADVANCED_FACE('',(#409),#403,.T.);
#411=CARTESIAN_POINT('',(-2.745E1,0.E0,0.E0));
#412=DIRECTION('',(-1.E0,0.E0,0.E0));
#413=DIRECTION('',(0.E0,1.E0,0.E0));
#414=AXIS2_PLACEMENT_3D('',#411,#412,#413);
#415=CONICAL_SURFACE('',#414,4.078867513459E0,3.E1);
#416=ORIENTED_EDGE('',*,*,#379,.T.);
#418=ORIENTED_EDGE('',*,*,#417,.F.);
#420=ORIENTED_EDGE('',*,*,#419,.T.);
#422=ORIENTED_EDGE('',*,*,#421,.F.);
#423=EDGE_LOOP('',(#416,#418,#420,#422));
#424=FACE_OUTER_BOUND('',#423,.F.);
#425=ADVANCED_FACE('',(#424),#415,.F.);
#426=CARTESIAN_POINT('',(-2.745E1,0.E0,0.E0));
#427=DIRECTION('',(-1.E0,0.E0,0.E0));
#428=DIRECTION('',(0.E0,1.E0,0.E0));
#429=AXIS2_PLACEMENT_3D('',#426,#427,#428);
#430=CONICAL_SURFACE('',#429,4.078867513459E0,3.E1);
#431=ORIENTED_EDGE('',*,*,#381,.T.);
#432=ORIENTED_EDGE('',*,*,#421,.T.);
#434=ORIENTED_EDGE('',*,*,#433,.F.);
#435=ORIENTED_EDGE('',*,*,#417,.T.);
#436=EDGE_LOOP('',(#431,#432,#434,#435));
#437=FACE_OUTER_BOUND('',#436,.F.);
#438=ADVANCED_FACE('',(#437),#430,.F.);
#439=CARTESIAN_POINT('',(-2.771691342951E1,0.E0,0.E0));
#440=DIRECTION('',(1.E0,0.E0,0.E0));
#441=DIRECTION('',(0.E0,-1.E0,0.E0));
#442=AXIS2_PLACEMENT_3D('',#439,#440,#441);
#443=CYLINDRICAL_SURFACE('',#442,4.05E0);
#445=ORIENTED_EDGE('',*,*,#444,.T.);
#447=ORIENTED_EDGE('',*,*,#446,.F.);
#449=ORIENTED_EDGE('',*,*,#448,.F.);
#450=ORIENTED_EDGE('',*,*,#433,.T.);
#451=EDGE_LOOP('',(#445,#447,#449,#450));
#452=FACE_OUTER_BOUND('',#451,.F.);
#453=ADVANCED_FACE('',(#452),#443,.F.);
#454=CARTESIAN_POINT('',(-2.771691342951E1,0.E0,0.E0));
#455=DIRECTION('',(1.E0,0.E0,0.E0));
#456=DIRECTION('',(0.E0,-1.E0,0.E0));
#457=AXIS2_PLACEMENT_3D('',#454,#455,#456);
#458=CYLINDRICAL_SURFACE('',#457,4.05E0);
#459=ORIENTED_EDGE('',*,*,#444,.F.);
#460=ORIENTED_EDGE('',*,*,#419,.F.);
#461=ORIENTED_EDGE('',*,*,#448,.T.);
#463=ORIENTED_EDGE('',*,*,#462,.T.);
#464=EDGE_LOOP('',(#459,#460,#461,#463));
#465=FACE_OUTER_BOUND('',#464,.F.);
#466=ADVANCED_FACE('',(#465),#458,.F.);
#467=CARTESIAN_POINT('',(-2.548556624327E1,0.E0,0.E0));
#468=DIRECTION('',(-1.E0,0.E0,0.E0));
#469=DIRECTION('',(0.E0,1.E0,0.E0));
#470=AXIS2_PLACEMENT_3D('',#467,#468,#469);
#471=CONICAL_SURFACE('',#470,4.025E0,6.E1);
#473=ORIENTED_EDGE('',*,*,#472,.T.);
#475=ORIENTED_EDGE('',*,*,#474,.F.);
#476=ORIENTED_EDGE('',*,*,#462,.F.);
#478=ORIENTED_EDGE('',*,*,#477,.T.);
#479=EDGE_LOOP('',(#473,#475,#476,#478));
#480=FACE_OUTER_BOUND('',#479,.F.);
#481=ADVANCED_FACE('',(#480),#471,.F.);
#482=CARTESIAN_POINT('',(0.E0,0.E0,0.E0));
#483=DIRECTION('',(-1.E0,0.E0,0.E0));
#484=DIRECTION('',(0.E0,-1.E0,0.E0));
#485=AXIS2_PLACEMENT_3D('',#482,#483,#484);
#486=CYLINDRICAL_SURFACE('',#485,4.E0);
#487=ORIENTED_EDGE('',*,*,#244,.T.);
#489=ORIENTED_EDGE('',*,*,#488,.T.);
#490=ORIENTED_EDGE('',*,*,#472,.F.);
#492=ORIENTED_EDGE('',*,*,#491,.F.);
#493=EDGE_LOOP('',(#487,#489,#490,#492));
#494=FACE_OUTER_BOUND('',#493,.F.);
#495=ADVANCED_FACE('',(#494),#486,.F.);
#496=CARTESIAN_POINT('',(0.E0,0.E0,0.E0));
#497=DIRECTION('',(-1.E0,0.E0,0.E0));
#498=DIRECTION('',(0.E0,-1.E0,0.E0));
#499=AXIS2_PLACEMENT_3D('',#496,#497,#498);
#500=CYLINDRICAL_SURFACE('',#499,4.E0);
#501=ORIENTED_EDGE('',*,*,#246,.T.);
#502=ORIENTED_EDGE('',*,*,#491,.T.);
#504=ORIENTED_EDGE('',*,*,#503,.F.);
#505=ORIENTED_EDGE('',*,*,#488,.F.);
#506=EDGE_LOOP('',(#501,#502,#504,#505));
#507=FACE_OUTER_BOUND('',#506,.F.);
#508=ADVANCED_FACE('',(#507),#500,.F.);
#509=CARTESIAN_POINT('',(-2.548556624327E1,0.E0,0.E0));
#510=DIRECTION('',(-1.E0,0.E0,0.E0));
#511=DIRECTION('',(0.E0,1.E0,0.E0));
#512=AXIS2_PLACEMENT_3D('',#509,#510,#511);
#513=CONICAL_SURFACE('',#512,4.025E0,6.E1);
#514=ORIENTED_EDGE('',*,*,#503,.T.);
#515=ORIENTED_EDGE('',*,*,#477,.F.);
#516=ORIENTED_EDGE('',*,*,#446,.T.);
#517=ORIENTED_EDGE('',*,*,#474,.T.);
#518=EDGE_LOOP('',(#514,#515,#516,#517));
#519=FACE_OUTER_BOUND('',#518,.F.);
#520=ADVANCED_FACE('',(#519),#513,.F.);
#521=CLOSED_SHELL('',(#250,#265,#278,#294,#309,#322,#338,#353,#368,#385,#398,
#410,#425,#438,#453,#466,#481,#495,#508,#520));
#522=MANIFOLD_SOLID_BREP('',#521);
#524=DIMENSIONAL_EXPONENTS(0.E0,0.E0,0.E0,0.E0,0.E0,0.E0,0.E0);
#526=PLANE_ANGLE_MEASURE_WITH_UNIT(PLANE_ANGLE_MEASURE(1.745329251994E-2),#525);
#527=(CONVERSION_BASED_UNIT('DEGREE',#526)NAMED_UNIT(*)PLANE_ANGLE_UNIT());
#529=UNCERTAINTY_MEASURE_WITH_UNIT(LENGTH_MEASURE(1.E-2),#523,'closure',
'Maximum model space distance between geometric entities at asserted connectivities');
#530=(GEOMETRIC_REPRESENTATION_CONTEXT(3)GLOBAL_UNCERTAINTY_ASSIGNED_CONTEXT((
#529))GLOBAL_UNIT_ASSIGNED_CONTEXT((#523,#527,#528))REPRESENTATION_CONTEXT
('ID1','3'));
#532=APPLICATION_CONTEXT(
'CONFIGURATION CONTROLLED 3D DESIGNS OF MECHANICAL PARTS AND ASSEMBLIES');
#533=APPLICATION_PROTOCOL_DEFINITION('international standard',
'config_control_design',1994,#532);
#534=DESIGN_CONTEXT('',#532,'design');
#535=MECHANICAL_CONTEXT('',#532,'mechanical');
#536=PRODUCT('LAN_ER16_PROTOTYP_A0_D8','LAN_ER16_PROTOTYP_A0_D8',
'NOT SPECIFIED',(#535));
#537=PRODUCT_DEFINITION_FORMATION_WITH_SPECIFIED_SOURCE('1','LAST_VERSION',#536,
.MADE.);
#541=PRODUCT_CATEGORY('part','');
#542=PRODUCT_RELATED_PRODUCT_CATEGORY('detail','',(#536));
#543=PRODUCT_CATEGORY_RELATIONSHIP('','',#541,#542);
#544=SECURITY_CLASSIFICATION_LEVEL('unclassified');
#545=SECURITY_CLASSIFICATION('','',#544);
#546=CC_DESIGN_SECURITY_CLASSIFICATION(#545,(#537));
#547=APPROVAL_STATUS('approved');
#548=APPROVAL(#547,'');
#549=CC_DESIGN_APPROVAL(#548,(#545,#537,#538));
#550=CALENDAR_DATE(117,30,11);
#551=COORDINATED_UNIVERSAL_TIME_OFFSET(1,0,.AHEAD.);
#552=LOCAL_TIME(8,24,4.8E1,#551);
#553=DATE_AND_TIME(#550,#552);
#554=APPROVAL_DATE_TIME(#553,#548);
#555=DATE_TIME_ROLE('creation_date');
#556=CC_DESIGN_DATE_AND_TIME_ASSIGNMENT(#553,#555,(#538));
#557=DATE_TIME_ROLE('classification_date');
#558=CC_DESIGN_DATE_AND_TIME_ASSIGNMENT(#553,#557,(#545));
#559=PERSON('UNSPECIFIED','UNSPECIFIED',$,$,$,$);
#560=ORGANIZATION('UNSPECIFIED','UNSPECIFIED','UNSPECIFIED');
#561=PERSON_AND_ORGANIZATION(#559,#560);
#562=APPROVAL_ROLE('approver');
#563=APPROVAL_PERSON_ORGANIZATION(#561,#548,#562);
#564=PERSON_AND_ORGANIZATION_ROLE('creator');
#565=CC_DESIGN_PERSON_AND_ORGANIZATION_ASSIGNMENT(#561,#564,(#537,#538));
#566=PERSON_AND_ORGANIZATION_ROLE('design_supplier');
#567=CC_DESIGN_PERSON_AND_ORGANIZATION_ASSIGNMENT(#561,#566,(#537));
#568=PERSON_AND_ORGANIZATION_ROLE('classification_officer');
#569=CC_DESIGN_PERSON_AND_ORGANIZATION_ASSIGNMENT(#561,#568,(#545));
#570=PERSON_AND_ORGANIZATION_ROLE('design_owner');
#571=CC_DESIGN_PERSON_AND_ORGANIZATION_ASSIGNMENT(#561,#570,(#536));
#5=CIRCLE('',#4,4.E0);
#10=CIRCLE('',#9,4.E0);
#15=CIRCLE('',#14,6.250089200116E0);
#28=CIRCLE('',#27,6.250089200116E0);
#33=CIRCLE('',#32,8.540910799884E0);
#38=CIRCLE('',#37,8.540910799884E0);
#43=CIRCLE('',#42,6.9E0);
#56=CIRCLE('',#55,6.9E0);
#61=CIRCLE('',#60,6.9E0);
#66=CIRCLE('',#65,6.9E0);
#71=CIRCLE('',#70,5.132556794118E0);
#76=CIRCLE('',#75,7.999956794118E0);
#81=CIRCLE('',#80,4.919863970350E0);
#86=CIRCLE('',#85,4.919863970350E0);
#99=CIRCLE('',#98,5.132556794118E0);
#108=CIRCLE('',#107,7.999956794118E0);
#117=CIRCLE('',#116,4.107735026919E0);
#122=CIRCLE('',#121,4.05E0);
#127=CIRCLE('',#126,4.107735026919E0);
#136=CIRCLE('',#135,4.05E0);
#149=CIRCLE('',#148,4.05E0);
#158=CIRCLE('',#157,4.05E0);
#163=CIRCLE('',#162,4.E0);
#176=CIRCLE('',#175,4.E0);
#238=EDGE_CURVE('',#187,#195,#15,.T.);
#240=EDGE_CURVE('',#187,#195,#28,.T.);
#244=EDGE_CURVE('',#227,#228,#5,.T.);
#246=EDGE_CURVE('',#228,#227,#10,.T.);
#256=EDGE_CURVE('',#187,#188,#19,.T.);
#259=EDGE_CURVE('',#195,#196,#23,.T.);
#261=EDGE_CURVE('',#188,#196,#38,.T.);
#272=EDGE_CURVE('',#188,#196,#33,.T.);
#288=EDGE_CURVE('',#191,#199,#43,.T.);
#290=EDGE_CURVE('',#191,#199,#56,.T.);
#300=EDGE_CURVE('',#191,#192,#47,.T.);
#303=EDGE_CURVE('',#199,#200,#51,.T.);
#305=EDGE_CURVE('',#192,#200,#66,.T.);
#316=EDGE_CURVE('',#192,#200,#61,.T.);
#328=EDGE_CURVE('',#223,#224,#76,.T.);
#330=EDGE_CURVE('',#223,#224,#108,.T.);
#344=EDGE_CURVE('',#211,#212,#71,.T.);
#346=EDGE_CURVE('',#223,#211,#112,.T.);
#349=EDGE_CURVE('',#224,#212,#103,.T.);
#359=EDGE_CURVE('',#215,#216,#81,.T.);
#361=EDGE_CURVE('',#211,#215,#94,.T.);
#364=EDGE_CURVE('',#216,#212,#90,.T.);
#375=EDGE_CURVE('',#216,#215,#86,.T.);
#379=EDGE_CURVE('',#219,#220,#117,.T.);
#381=EDGE_CURVE('',#220,#219,#127,.T.);
#393=EDGE_CURVE('',#212,#211,#99,.T.);
#417=EDGE_CURVE('',#207,#220,#140,.T.);
#419=EDGE_CURVE('',#207,#203,#122,.T.);
#421=EDGE_CURVE('',#219,#203,#131,.T.);
#433=EDGE_CURVE('',#207,#203,#136,.T.);
#444=EDGE_CURVE('',#203,#204,#144,.T.);
#446=EDGE_CURVE('',#208,#204,#149,.T.);
#448=EDGE_CURVE('',#207,#208,#153,.T.);
#462=EDGE_CURVE('',#208,#204,#158,.T.);
#472=EDGE_CURVE('',#231,#232,#163,.T.);
#474=EDGE_CURVE('',#204,#232,#184,.T.);
#477=EDGE_CURVE('',#208,#231,#180,.T.);
#488=EDGE_CURVE('',#228,#232,#171,.T.);
#491=EDGE_CURVE('',#227,#231,#167,.T.);
#503=EDGE_CURVE('',#232,#231,#176,.T.);
#523=(LENGTH_UNIT()NAMED_UNIT(*)SI_UNIT(.MILLI.,.METRE.));
#525=(NAMED_UNIT(*)PLANE_ANGLE_UNIT()SI_UNIT($,.RADIAN.));
#528=(NAMED_UNIT(*)SI_UNIT($,.STERADIAN.)SOLID_ANGLE_UNIT());
#531=ADVANCED_BREP_SHAPE_REPRESENTATION('',(#522),#530);
#538=PRODUCT_DEFINITION('design','',#537,#534);
#539=PRODUCT_DEFINITION_SHAPE('','SHAPE FOR LAN_ER16_PROTOTYP_A0_D8.',#538);
#540=SHAPE_DEFINITION_REPRESENTATION(#539,#531);
ENDSEC;
END-ISO-10303-21;
