  0
SECTION
  2
HEADER
  9
$ACADVER
  1
AC1012
  9
$DWGCODEPAGE
  3
ANSI_1252
  9
$INSBASE
 10
0.0
 20
0.0
 30
0.0
  9
$EXTMIN
 10
-46.91021553765767
 20
-45.02075080645818
 30
-0.0015258207003583
  9
$EXTMAX
 10
125.0348979961534
 20
81.8743904422438
 30
0.00152591383263
  9
$LIMMIN
 10
-170.0
 20
-170.0
  9
$LIMMAX
 10
519.0
 20
260.0
  9
$ORTHOMODE
 70
     0
  9
$REGENMODE
 70
     1
  9
$FILLMODE
 70
     1
  9
$QTEXTMODE
 70
     0
  9
$MIRRTEXT
 70
     0
  9
$DRAGMODE
 70
     2
  9
$LTSCALE
 40
15.0
  9
$OSMODE
 70
     0
  9
$ATTMODE
 70
     1
  9
$TEXTSIZE
 40
4.57
  9
$TRACEWID
 40
0.05
  9
$TEXTSTYLE
  7
SIMPLEX
  9
$CLAYER
  8
SK2
  9
$CELTYPE
  6
BYLAYER
  9
$CECOLOR
 62
   256
  9
$CELTSCALE
 40
1.0
  9
$DELOBJ
 70
     1
  9
$DISPSILH
 70
     0
  9
$DIMSCALE
 40
0.0
  9
$DIMASZ
 40
4.57
  9
$DIMEXO
 40
0.0
  9
$DIMDLI
 40
0.38
  9
$DIMRND
 40
0.0
  9
$DIMDLE
 40
0.0
  9
$DIMEXE
 40
5.0
  9
$DIMTP
 40
0.0
  9
$DIMTM
 40
0.0
  9
$DIMTXT
 40
4.57
  9
$DIMCEN
 40
0.09
  9
$DIMTSZ
 40
0.0
  9
$DIMTOL
 70
     0
  9
$DIMLIM
 70
     0
  9
$DIMTIH
 70
     0
  9
$DIMTOH
 70
     0
  9
$DIMSE1
 70
     0
  9
$DIMSE2
 70
     0
  9
$DIMTAD
 70
     1
  9
$DIMZIN
 70
     8
  9
$DIMBLK
  1

  9
$DIMASO
 70
     1
  9
$DIMSHO
 70
     1
  9
$DIMPOST
  1

  9
$DIMAPOST
  1

  9
$DIMALT
 70
     0
  9
$DIMALTD
 70
     2
  9
$DIMALTF
 40
25.4
  9
$DIMLFAC
 40
1.0
  9
$DIMTOFL
 70
     0
  9
$DIMTVP
 40
0.0
  9
$DIMTIX
 70
     0
  9
$DIMSOXD
 70
     0
  9
$DIMSAH
 70
     0
  9
$DIMBLK1
  1

  9
$DIMBLK2
  1

  9
$DIMSTYLE
  2
STANDARD
  9
$DIMCLRD
 70
     0
  9
$DIMCLRE
 70
     0
  9
$DIMCLRT
 70
     0
  9
$DIMTFAC
 40
1.0
  9
$DIMGAP
 40
2.299999999999999
  9
$DIMJUST
 70
     0
  9
$DIMSD1
 70
     0
  9
$DIMSD2
 70
     0
  9
$DIMTOLJ
 70
     1
  9
$DIMTZIN
 70
     0
  9
$DIMALTZ
 70
     0
  9
$DIMALTTZ
 70
     0
  9
$DIMFIT
 70
     3
  9
$DIMUPT
 70
     0
  9
$DIMUNIT
 70
     2
  9
$DIMDEC
 70
     2
  9
$DIMTDEC
 70
     4
  9
$DIMALTU
 70
     2
  9
$DIMALTTD
 70
     2
  9
$DIMTXSTY
  7
SIMPLEX
  9
$DIMAUNIT
 70
     0
  9
$LUNITS
 70
     2
  9
$LUPREC
 70
     2
  9
$SKETCHINC
 40
0.1
  9
$FILLETRAD
 40
0.0
  9
$AUNITS
 70
     0
  9
$AUPREC
 70
     0
  9
$MENU
  1
c:\tdm21\cad\caduti13\tdm13
  9
$ELEVATION
 40
0.0
  9
$PELEVATION
 40
0.0
  9
$THICKNESS
 40
0.0
  9
$LIMCHECK
 70
     0
  9
$BLIPMODE
 70
     0
  9
$CHAMFERA
 40
0.0
  9
$CHAMFERB
 40
0.0
  9
$CHAMFERC
 40
0.0
  9
$CHAMFERD
 40
0.0
  9
$SKPOLY
 70
     0
  9
$TDCREATE
 40
2452553.518254976
  9
$TDUPDATE
 40
2452553.518254976
  9
$TDINDWG
 40
0.0002626157
  9
$TDUSRTIMER
 40
0.0002626157
  9
$USRTIMER
 70
     1
  9
$ANGBASE
 50
0.0
  9
$ANGDIR
 70
     0
  9
$PDMODE
 70
     1
  9
$PDSIZE
 40
0.0
  9
$PLINEWID
 40
0.0
  9
$COORDS
 70
     1
  9
$SPLFRAME
 70
     0
  9
$SPLINETYPE
 70
     6
  9
$SPLINESEGS
 70
     8
  9
$ATTDIA
 70
     0
  9
$ATTREQ
 70
     1
  9
$HANDLING
 70
  4097
  9
$HANDSEED
  5
5F9
  9
$SURFTAB1
 70
     6
  9
$SURFTAB2
 70
     6
  9
$SURFTYPE
 70
     6
  9
$SURFU
 70
     6
  9
$SURFV
 70
     6
  9
$UCSNAME
  2

  9
$UCSORG
 10
0.0
 20
0.0
 30
0.0
  9
$UCSXDIR
 10
1.0
 20
0.0
 30
0.0
  9
$UCSYDIR
 10
0.0
 20
1.0
 30
0.0
  9
$PUCSNAME
  2

  9
$PUCSORG
 10
0.0
 20
0.0
 30
0.0
  9
$PUCSXDIR
 10
1.0
 20
0.0
 30
0.0
  9
$PUCSYDIR
 10
0.0
 20
1.0
 30
0.0
  9
$USERI1
 70
     0
  9
$USERI2
 70
     0
  9
$USERI3
 70
     0
  9
$USERI4
 70
     0
  9
$USERI5
 70
     0
  9
$USERR1
 40
0.0
  9
$USERR2
 40
0.0
  9
$USERR3
 40
0.0
  9
$USERR4
 40
0.0
  9
$USERR5
 40
0.0
  9
$WORLDVIEW
 70
     1
  9
$SHADEDGE
 70
     3
  9
$SHADEDIF
 70
    70
  9
$TILEMODE
 70
     1
  9
$MAXACTVP
 70
    16
  9
$PINSBASE
 10
0.0
 20
0.0
 30
0.0
  9
$PLIMCHECK
 70
     0
  9
$PEXTMIN
 10
0.0
 20
0.0
 30
0.0
  9
$PEXTMAX
 10
0.0
 20
0.0
 30
0.0
  9
$PLIMMIN
 10
0.0
 20
0.0
  9
$PLIMMAX
 10
12.0
 20
9.0
  9
$UNITMODE
 70
     0
  9
$VISRETAIN
 70
     0
  9
$PLINEGEN
 70
     0
  9
$PSLTSCALE
 70
     1
  9
$TREEDEPTH
 70
  3020
  9
$PICKSTYLE
 70
     1
  9
$CMLSTYLE
  2
STANDARD
  9
$CMLJUST
 70
     0
  9
$CMLSCALE
 40
1.0
  9
$SAVEIMAGES
 70
     1
  0
ENDSEC
  0
SECTION
  2
CLASSES
  0
CLASS
  1
ACDBDICTIONARYWDFLT
  2
AcDbDictionaryWithDefault
  3
AutoCAD 2000
 90
    32768
280
     0
281
     0
  0
CLASS
  1
ACDBPLACEHOLDER
  2
AcDbPlaceHolder
  3
AutoCAD 2000
 90
    32768
280
     0
281
     0
  0
CLASS
  1
LAYOUT
  2
AcDbLayout
  3
AutoCAD 2000
 90
    32768
280
     0
281
     0
  0
CLASS
  1
LONG_TRANSACTION
  2
AcDbLongTransaction
  3
AutoCAD 2000
 90
    32768
280
     0
281
     0
  0
CLASS
  1
LWPOLYLINE
  2
AcDbPolyline
  3
AutoCAD 2000
 90
    32768
280
     0
281
     1
  0
CLASS
  1
HATCH
  2
AcDbHatch
  3
AutoCAD 2000
 90
    32768
280
     0
281
     1
  0
CLASS
  1
XRECORD
  2
AcDbXrecord
  3
AutoCAD 2000
 90
    32768
280
     0
281
     0
  0
ENDSEC
  0
SECTION
  2
TABLES
  0
TABLE
  2
VPORT
  5
8
330
0
100
AcDbSymbolTable
 70
     3
  0
VPORT
  5
5DA
330
8
100
AcDbSymbolTableRecord
100
AcDbViewportTableRecord
  2
*ACTIVE
 70
     0
 10
0.0
 20
0.0
 11
1.0
 21
1.0
 12
39.06234122924783
 22
18.4268198178928
 13
0.0
 23
0.0
 14
5.0
 24
5.0
 15
5.0
 25
5.0
 16
0.0
 26
0.0
 36
1.0
 17
0.0
 27
0.0
 37
0.0
 40
136.8951412487019
 41
2.220064724919093
 42
50.0
 43
0.0
 44
0.0
 50
0.0
 51
0.0
 71
     0
 72
   100
 73
     1
 74
     1
 75
     0
 76
     0
 77
     0
 78
     0
  0
ENDTAB
  0
TABLE
  2
LTYPE
  5
5
330
0
100
AcDbSymbolTable
 70
     3
  0
LTYPE
  5
12
330
5
100
AcDbSymbolTableRecord
100
AcDbLinetypeTableRecord
  2
BYBLOCK
 70
     0
  3

 72
    65
 73
     0
 40
0.0
  0
LTYPE
  5
13
330
5
100
AcDbSymbolTableRecord
100
AcDbLinetypeTableRecord
  2
BYLAYER
 70
     0
  3

 72
    65
 73
     0
 40
0.0
  0
LTYPE
  5
14
330
5
100
AcDbSymbolTableRecord
100
AcDbLinetypeTableRecord
  2
CONTINUOUS
 70
     0
  3
Solid line
 72
    65
 73
     0
 40
0.0
  0
LTYPE
  5
1F
330
5
100
AcDbSymbolTableRecord
100
AcDbLinetypeTableRecord
  2
CENTER
 70
     0
  3
____ . ____ . ____
 72
    65
 73
     4
 40
1.5
 49
1.0
 74
     0
 49
-0.25
 74
     0
 49
0.0
 74
     0
 49
-0.25
 74
     0
  0
LTYPE
  5
20
330
5
100
AcDbSymbolTableRecord
100
AcDbLinetypeTableRecord
  2
HIDDEN
 70
     0
  3
_ _ _ _ _ _ _ _ _ _ _ _ _ _ _ _ _ _ _ _ _ _ _
 72
    65
 73
     2
 40
0.375
 49
0.25
 74
     0
 49
-0.125
 74
     0
  0
ENDTAB
  0
TABLE
  2
LAYER
  5
2
330
0
100
AcDbSymbolTable
 70
    14
  0
LAYER
  5
F
330
2
100
AcDbSymbolTableRecord
100
AcDbLayerTableRecord
  2
0
 70
     0
 62
     7
  6
CONTINUOUS
  0
LAYER
  5
23
330
2
100
AcDbSymbolTableRecord
100
AcDbLayerTableRecord
  2
1
 70
     0
 62
     4
  6
CONTINUOUS
  0
LAYER
  5
24
330
2
100
AcDbSymbolTableRecord
100
AcDbLayerTableRecord
  2
SK1
 70
     0
 62
     4
  6
CONTINUOUS
  0
LAYER
  5
25
330
2
100
AcDbSymbolTableRecord
100
AcDbLayerTableRecord
  2
2
 70
     0
 62
     7
  6
CONTINUOUS
  0
LAYER
  5
26
330
2
100
AcDbSymbolTableRecord
100
AcDbLayerTableRecord
  2
2L
 70
     0
 62
     7
  6
CONTINUOUS
  0
LAYER
  5
27
330
2
100
AcDbSymbolTableRecord
100
AcDbLayerTableRecord
  2
SK2
 70
     0
 62
     7
  6
CONTINUOUS
  0
LAYER
  5
28
330
2
100
AcDbSymbolTableRecord
100
AcDbLayerTableRecord
  2
3
 70
     0
 62
     1
  6
HIDDEN
  0
LAYER
  5
29
330
2
100
AcDbSymbolTableRecord
100
AcDbLayerTableRecord
  2
SK3
 70
     0
 62
     1
  6
HIDDEN
  0
LAYER
  5
2A
330
2
100
AcDbSymbolTableRecord
100
AcDbLayerTableRecord
  2
4
 70
     0
 62
     2
  6
CENTER
  0
LAYER
  5
2B
330
2
100
AcDbSymbolTableRecord
100
AcDbLayerTableRecord
  2
SK4
 70
     0
 62
     2
  6
CENTER
  0
LAYER
  5
2C
330
2
100
AcDbSymbolTableRecord
100
AcDbLayerTableRecord
  2
5
 70
     0
 62
     7
  6
CONTINUOUS
  0
LAYER
  5
2D
330
2
100
AcDbSymbolTableRecord
100
AcDbLayerTableRecord
  2
6
 70
     0
 62
     5
  6
CONTINUOUS
  0
LAYER
  5
2E
330
2
100
AcDbSymbolTableRecord
100
AcDbLayerTableRecord
  2
SK6
 70
     0
 62
     5
  6
CONTINUOUS
  0
LAYER
  5
2F
330
2
100
AcDbSymbolTableRecord
100
AcDbLayerTableRecord
  2
DEFPOINTS
 70
     0
 62
     7
  6
CONTINUOUS
  0
ENDTAB
  0
TABLE
  2
STYLE
  5
3
330
0
100
AcDbSymbolTable
 70
     3
  0
STYLE
  5
10
330
3
100
AcDbSymbolTableRecord
100
AcDbTextStyleTableRecord
  2
STANDARD
 70
     0
 40
0.0
 41
1.0
 50
0.0
 71
     0
 42
5.0
  3
txt
  4

  0
STYLE
  5
1D
330
3
100
AcDbSymbolTableRecord
100
AcDbTextStyleTableRecord
  2
TXT
 70
     0
 40
8.0
 41
1.0
 50
0.0
 71
     0
 42
8.0
  3
txt
  4

  0
STYLE
  5
1E
330
3
100
AcDbSymbolTableRecord
100
AcDbTextStyleTableRecord
  2
SIMPLEX
 70
     0
 40
0.0
 41
1.0
 50
0.0
 71
     0
 42
4.57
  3
simplex
  4

  0
ENDTAB
  0
TABLE
  2
VIEW
  5
6
330
0
100
AcDbSymbolTable
 70
     0
  0
ENDTAB
  0
TABLE
  2
UCS
  5
7
330
0
100
AcDbSymbolTable
 70
     0
  0
ENDTAB
  0
TABLE
  2
APPID
  5
9
330
0
100
AcDbSymbolTable
 70
     1
  0
APPID
  5
11
330
9
100
AcDbSymbolTableRecord
100
AcDbRegAppTableRecord
  2
ACAD
 70
     0
  0
ENDTAB
  0
TABLE
  2
DIMSTYLE
  5
A
330
0
100
AcDbSymbolTable
 70
     1
  0
DIMSTYLE
105
3F
102
{ACAD_REACTORS
330
3EC
330
3EB
330
3FB
330
524
330
516
330
515
330
3BA
330
3B9
330
3B2
330
3AB
102
}
330
A
100
AcDbSymbolTableRecord
100
AcDbDimStyleTableRecord
  2
STANDARD
 70
     0
  3

  4

  5

  6

  7

 40
0.0
 41
4.57
 42
0.0
 43
0.38
 44
5.0
 45
0.0
 46
0.0
 47
0.0
 48
0.0
140
4.57
141
0.09
142
0.0
143
25.4
144
1.0
145
0.0
146
1.0
147
2.299999999999999
 71
     0
 72
     0
 73
     0
 74
     0
 75
     0
 76
     0
 77
     1
 78
     8
170
     0
171
     2
172
     0
173
     0
174
     0
175
     0
176
     0
177
     0
178
     0
270
     2
271
     2
272
     4
273
     2
274
     2
340
1E
275
     0
280
     0
281
     0
282
     0
283
     1
284
     0
285
     0
286
     0
287
     3
288
     0
  0
ENDTAB
  0
TABLE
  2
BLOCK_RECORD
  5
1
330
0
100
AcDbSymbolTable
 70
    14
  0
BLOCK_RECORD
  5
18
102
{ACAD_XDICTIONARY
360
5DB
102
}
330
1
100
AcDbSymbolTableRecord
100
AcDbBlockTableRecord
  2
*MODEL_SPACE
  0
BLOCK_RECORD
  5
338
102
{ACAD_XDICTIONARY
360
5DD
102
}
330
1
100
AcDbSymbolTableRecord
100
AcDbBlockTableRecord
  2
*PAPER_SPACE
  0
BLOCK_RECORD
  5
345
330
1
100
AcDbSymbolTableRecord
100
AcDbBlockTableRecord
  2
*D0
  0
BLOCK_RECORD
  5
351
330
1
100
AcDbSymbolTableRecord
100
AcDbBlockTableRecord
  2
*D1
  0
BLOCK_RECORD
  5
361
330
1
100
AcDbSymbolTableRecord
100
AcDbBlockTableRecord
  2
*D2
  0
BLOCK_RECORD
  5
36D
330
1
100
AcDbSymbolTableRecord
100
AcDbBlockTableRecord
  2
*D3
  0
BLOCK_RECORD
  5
37A
330
1
100
AcDbSymbolTableRecord
100
AcDbBlockTableRecord
  2
*D4
  0
BLOCK_RECORD
  5
386
330
1
100
AcDbSymbolTableRecord
100
AcDbBlockTableRecord
  2
*D5
  0
BLOCK_RECORD
  5
392
330
1
100
AcDbSymbolTableRecord
100
AcDbBlockTableRecord
  2
*D6
  0
BLOCK_RECORD
  5
4A3
330
1
100
AcDbSymbolTableRecord
100
AcDbBlockTableRecord
  2
*D7
  0
BLOCK_RECORD
  5
4AF
330
1
100
AcDbSymbolTableRecord
100
AcDbBlockTableRecord
  2
*D8
  0
BLOCK_RECORD
  5
4BB
330
1
100
AcDbSymbolTableRecord
100
AcDbBlockTableRecord
  2
*D9
  0
BLOCK_RECORD
  5
55F
330
1
100
AcDbSymbolTableRecord
100
AcDbBlockTableRecord
  2
*D11
  0
BLOCK_RECORD
  5
56B
330
1
100
AcDbSymbolTableRecord
100
AcDbBlockTableRecord
  2
*D12
  0
BLOCK_RECORD
  5
577
330
1
100
AcDbSymbolTableRecord
100
AcDbBlockTableRecord
  2
*D13
  0
ENDTAB
  0
ENDSEC
  0
SECTION
  2
BLOCKS
  0
BLOCK
  5
32
330
18
100
AcDbEntity
  8
0
100
AcDbBlockBegin
  2
*MODEL_SPACE
 70
     0
 10
0.0
 20
0.0
 30
0.0
  3
*MODEL_SPACE
  1

  0
ENDBLK
  5
33
330
18
100
AcDbEntity
  8
0
100
AcDbBlockEnd
  0
BLOCK
  5
339
330
338
100
AcDbEntity
 67
     1
  8
0
100
AcDbBlockBegin
  2
*PAPER_SPACE
 70
     0
 10
0.0
 20
0.0
 30
0.0
  3
*PAPER_SPACE
  1

  0
ENDBLK
  5
33A
330
338
100
AcDbEntity
 67
     1
  8
0
100
AcDbBlockEnd
  0
BLOCK
  5
34F
330
345
100
AcDbEntity
  8
0
100
AcDbBlockBegin
  2
*D0
 70
     1
 10
0.0
 20
0.0
 30
0.0
  3
*D0
  1

  0
LINE
  5
45F
330
345
100
AcDbEntity
  8
2
 62
     0
100
AcDbLine
 10
0.0000052588630614
 20
22.22500892674834
 30
0.0
 11
0.0000052588630649
 21
80.0
 31
0.0
  0
LINE
  5
460
330
345
100
AcDbEntity
  8
2
 62
     0
100
AcDbLine
 10
79.99999999999999
 20
9.560000000000002
 30
0.0
 11
79.99999999999999
 21
80.0
 31
0.0
  0
LINE
  5
461
330
345
100
AcDbEntity
  8
2
 62
     0
100
AcDbLine
 10
4.570005258863065
 20
75.0
 30
0.0
 11
75.42999999999998
 21
75.0
 31
0.0
  0
SOLID
  5
462
330
345
100
AcDbEntity
  8
2
 62
     0
100
AcDbTrace
 10
4.570005258863065
 20
75.76166666666667
 30
0.0
 11
4.570005258863065
 21
74.23833333333333
 31
0.0
 12
0.0000052588630646
 22
75.0
 32
0.0
 13
0.0000052588630646
 23
75.0
 33
0.0
  0
SOLID
  5
463
330
345
100
AcDbEntity
  8
2
 62
     0
100
AcDbTrace
 10
75.42999999999998
 20
75.76166666666667
 30
0.0
 11
75.42999999999998
 21
74.23833333333333
 31
0.0
 12
79.99999999999999
 22
75.0
 32
0.0
 13
79.99999999999999
 23
75.0
 33
0.0
  0
MTEXT
  5
464
330
345
100
AcDbEntity
  8
2
 62
     0
100
AcDbMText
 10
40.00000262943152
 20
79.58499999999999
 30
0.0
 40
4.57
 41
0.0
 71
     5
 72
     1
  1
\A1;80
  7
SIMPLEX
1001
ACAD
1000
MTEXTBEGIN
1070
    73
1070
     1
1070
    44
1040
1.0
1070
    74
1070
     0
1000
MTEXTEND
  0
POINT
  5
465
330
345
100
AcDbEntity
  8
DEFPOINTS
 62
     0
100
AcDbPoint
 10
0.0000052588630614
 20
22.22500892674834
 30
0.0
  0
POINT
  5
466
330
345
100
AcDbEntity
  8
DEFPOINTS
 62
     0
100
AcDbPoint
 10
79.99999999999999
 20
9.560000000000002
 30
0.0
  0
POINT
  5
467
330
345
100
AcDbEntity
  8
DEFPOINTS
 62
     0
100
AcDbPoint
 10
79.99999999999999
 20
75.0
 30
0.0
  0
ENDBLK
  5
350
330
345
100
AcDbEntity
  8
0
100
AcDbBlockEnd
  0
BLOCK
  5
35F
330
351
100
AcDbEntity
  8
0
100
AcDbBlockBegin
  2
*D1
 70
     1
 10
0.0
 20
0.0
 30
0.0
  3
*D1
  1

  0
LINE
  5
468
330
351
100
AcDbEntity
  8
SK2
 62
     0
100
AcDbLine
 10
41.44999999999998
 20
13.5
 30
0.0
 11
20.36778528573984
 21
15.14153306172687
 31
0.0
  0
ARC
  5
469
330
351
100
AcDbEntity
  8
SK2
 62
     0
100
AcDbCircle
 10
41.44999999999998
 20
13.5
 30
0.0
 40
16.14602582167413
100
AcDbArc
 50
142.6640739772572
 51
175.5477384983327
  0
LINE
  5
46A
330
351
100
AcDbEntity
  8
SK2
 62
     0
100
AcDbLine
 10
28.61240218886681
 20
23.29235580816775
 30
0.0
 11
38.52933210782729
 21
36.29326798035617
 31
0.0
  0
ARC
  5
46B
330
351
100
AcDbEntity
  8
SK2
 62
     0
100
AcDbCircle
 10
41.44999999999998
 20
13.5
 30
0.0
 40
16.14602582167413
100
AcDbArc
 50
143.0042850643129
 51
159.2760117813228
  0
ARC
  5
46C
330
351
100
AcDbEntity
  8
SK2
 62
     0
100
AcDbCircle
 10
41.44999999999998
 20
13.5
 30
0.0
 40
16.14602582167413
100
AcDbArc
 50
196.2717267170098
 51
212.5434534340198
  0
SOLID
  5
46D
330
351
100
AcDbEntity
  8
SK2
 62
     0
100
AcDbTrace
 10
27.09204499366832
 20
19.04753860286937
 30
0.0
 11
25.60532961797594
 21
19.37953534400445
 31
0.0
 12
25.35269708241688
 22
14.75339084635978
 32
0.0
 13
25.35269708241688
 23
14.75339084635978
 33
0.0
  0
SOLID
  5
46E
330
351
100
AcDbEntity
  8
SK2
 62
     0
100
AcDbTrace
 10
25.19672396488759
 20
8.868204073706555
 30
0.0
 11
26.70472535792537
 21
9.083787568066764
 31
0.0
 12
25.30397417832585
 22
13.5
 32
0.0
 13
25.30397417832585
 23
13.5
 33
0.0
  0
MTEXT
  5
46F
330
351
100
AcDbEntity
  8
SK2
 62
     0
100
AcDbMText
 10
29.92536412400329
 20
32.57355508619834
 30
0.0
 40
4.57
 41
0.0
 71
     5
 72
     1
  1
\A1;4.5°
  7
SIMPLEX
 11
0.606487064762567
 21
0.7950933531829367
 31
0.0
1001
ACAD
1000
MTEXTBEGIN
1070
    73
1070
     1
1070
    44
1040
1.0
1070
    74
1070
     0
1000
MTEXTEND
  0
POINT
  5
470
330
351
100
AcDbEntity
  8
DEFPOINTS
 62
     0
100
AcDbPoint
 10
25.3093902564488
 20
13.91817094656188
 30
0.0
  0
POINT
  5
471
330
351
100
AcDbEntity
  8
DEFPOINTS
 62
     0
100
AcDbPoint
 10
41.44999999999998
 20
13.5
 30
0.0
  0
POINT
  5
472
330
351
100
AcDbEntity
  8
DEFPOINTS
 62
     0
100
AcDbPoint
 10
79.08
 20
10.57
 30
0.0
  0
POINT
  5
473
330
351
100
AcDbEntity
  8
DEFPOINTS
 62
     0
100
AcDbPoint
 10
41.44999999999998
 20
13.5
 30
0.0
  0
POINT
  5
474
330
351
100
AcDbEntity
  8
DEFPOINTS
 62
     0
100
AcDbPoint
 10
21.09999999999999
 20
13.5
 30
0.0
  0
ENDBLK
  5
360
330
351
100
AcDbEntity
  8
0
100
AcDbBlockEnd
  0
BLOCK
  5
36B
330
361
100
AcDbEntity
  8
0
100
AcDbBlockBegin
  2
*D2
 70
     1
 10
0.0
 20
0.0
 30
0.0
  3
*D2
  1

  0
LINE
  5
475
330
361
100
AcDbEntity
  8
SK2
 62
     0
100
AcDbLine
 10
43.99999999999998
 20
-9.579999999999998
 30
0.0
 11
43.99999999999998
 21
-45.0
 31
0.0
  0
LINE
  5
476
330
361
100
AcDbEntity
  8
SK2
 62
     0
100
AcDbLine
 10
79.99995955868756
 20
-9.571006614134134
 30
0.0
 11
79.99995955868756
 21
-45.0
 31
0.0
  0
LINE
  5
477
330
361
100
AcDbEntity
  8
SK2
 62
     0
100
AcDbLine
 10
48.56999999999999
 20
-40.0
 30
0.0
 11
75.42995955868756
 21
-40.0
 31
0.0
  0
SOLID
  5
478
330
361
100
AcDbEntity
  8
SK2
 62
     0
100
AcDbTrace
 10
48.56999999999999
 20
-39.23833333333332
 30
0.0
 11
48.56999999999999
 21
-40.76166666666667
 31
0.0
 12
43.99999999999998
 22
-40.0
 32
0.0
 13
43.99999999999998
 23
-40.0
 33
0.0
  0
SOLID
  5
479
330
361
100
AcDbEntity
  8
SK2
 62
     0
100
AcDbTrace
 10
75.42995955868756
 20
-39.23833333333332
 30
0.0
 11
75.42995955868756
 21
-40.76166666666667
 31
0.0
 12
79.99995955868756
 22
-40.0
 32
0.0
 13
79.99995955868756
 23
-40.0
 33
0.0
  0
MTEXT
  5
47A
330
361
100
AcDbEntity
  8
SK2
 62
     0
100
AcDbMText
 10
61.99997977934377
 20
-35.415
 30
0.0
 40
4.57
 41
0.0
 71
     5
 72
     1
  1
\A1;36
  7
SIMPLEX
1001
ACAD
1000
MTEXTBEGIN
1070
    73
1070
     1
1070
    44
1040
1.0
1070
    74
1070
     0
1000
MTEXTEND
  0
POINT
  5
47B
330
361
100
AcDbEntity
  8
DEFPOINTS
 62
     0
100
AcDbPoint
 10
43.99999999999998
 20
-9.579999999999998
 30
0.0
  0
POINT
  5
47C
330
361
100
AcDbEntity
  8
DEFPOINTS
 62
     0
100
AcDbPoint
 10
79.99995955868756
 20
-9.571006614134134
 30
0.0
  0
POINT
  5
47D
330
361
100
AcDbEntity
  8
DEFPOINTS
 62
     0
100
AcDbPoint
 10
79.99995955868756
 20
-40.0
 30
0.0
  0
ENDBLK
  5
36C
330
361
100
AcDbEntity
  8
0
100
AcDbBlockEnd
  0
BLOCK
  5
378
330
36D
100
AcDbEntity
  8
0
100
AcDbBlockBegin
  2
*D3
 70
     1
 10
0.0
 20
0.0
 30
0.0
  3
*D3
  1

  0
LINE
  5
47E
330
36D
100
AcDbEntity
  8
SK2
 62
     0
100
AcDbLine
 10
43.99999999999998
 20
-9.579999999999998
 30
0.0
 11
43.99999999999998
 21
-30.0
 31
0.0
  0
LINE
  5
47F
330
36D
100
AcDbEntity
  8
SK2
 62
     0
100
AcDbLine
 10
53.99999999999998
 20
-9.579999999999998
 30
0.0
 11
53.99999999999998
 21
-30.0
 31
0.0
  0
LINE
  5
480
330
36D
100
AcDbEntity
  8
SK2
 62
     0
100
AcDbLine
 10
39.42999999999998
 20
-25.0
 30
0.0
 11
34.85999999999998
 21
-25.0
 31
0.0
  0
LINE
  5
481
330
36D
100
AcDbEntity
  8
SK2
 62
     0
100
AcDbLine
 10
58.56999999999999
 20
-25.0
 30
0.0
 11
74.26857142857142
 21
-25.0
 31
0.0
  0
SOLID
  5
482
330
36D
100
AcDbEntity
  8
SK2
 62
     0
100
AcDbTrace
 10
39.42999999999998
 20
-24.23833333333333
 30
0.0
 11
39.42999999999998
 21
-25.76166666666666
 31
0.0
 12
43.99999999999998
 22
-25.0
 32
0.0
 13
43.99999999999998
 23
-25.0
 33
0.0
  0
SOLID
  5
483
330
36D
100
AcDbEntity
  8
SK2
 62
     0
100
AcDbTrace
 10
58.56999999999999
 20
-24.23833333333333
 30
0.0
 11
58.56999999999999
 21
-25.76166666666666
 31
0.0
 12
53.99999999999998
 22
-25.0
 32
0.0
 13
53.99999999999998
 23
-25.0
 33
0.0
  0
MTEXT
  5
484
330
36D
100
AcDbEntity
  8
SK2
 62
     0
100
AcDbMText
 10
68.7042857142857
 20
-20.415
 30
0.0
 40
4.57
 41
0.0
 71
     5
 72
     1
  1
\A1;10
  7
SIMPLEX
1001
ACAD
1000
MTEXTBEGIN
1070
    73
1070
     1
1070
    44
1040
1.0
1070
    74
1070
     0
1000
MTEXTEND
  0
POINT
  5
485
330
36D
100
AcDbEntity
  8
DEFPOINTS
 62
     0
100
AcDbPoint
 10
43.99999999999998
 20
-9.579999999999998
 30
0.0
  0
POINT
  5
486
330
36D
100
AcDbEntity
  8
DEFPOINTS
 62
     0
100
AcDbPoint
 10
53.99999999999998
 20
-9.579999999999998
 30
0.0
  0
POINT
  5
487
330
36D
100
AcDbEntity
  8
DEFPOINTS
 62
     0
100
AcDbPoint
 10
53.99999999999998
 20
-25.0
 30
0.0
  0
ENDBLK
  5
379
330
36D
100
AcDbEntity
  8
0
100
AcDbBlockEnd
  0
BLOCK
  5
384
330
37A
100
AcDbEntity
  8
0
100
AcDbBlockBegin
  2
*D4
 70
     1
 10
0.0
 20
0.0
 30
0.0
  3
*D4
  1

  0
LINE
  5
488
330
37A
100
AcDbEntity
  8
SK2
 62
     0
100
AcDbLine
 10
0.0000000000000036
 20
25.00007
 30
0.0
 11
0.0000000000000069
 21
80.0
 31
0.0
  0
LINE
  5
489
330
37A
100
AcDbEntity
  8
SK2
 62
     0
100
AcDbLine
 10
-25.0
 20
17.832662515636
 30
0.0
 11
-24.99999999999999
 21
80.0
 31
0.0
  0
LINE
  5
48A
330
37A
100
AcDbEntity
  8
SK2
 62
     0
100
AcDbLine
 10
-4.569999999999994
 20
75.0
 30
0.0
 11
-20.42999999999999
 21
75.0
 31
0.0
  0
SOLID
  5
48B
330
37A
100
AcDbEntity
  8
SK2
 62
     0
100
AcDbTrace
 10
-4.569999999999994
 20
75.76166666666667
 30
0.0
 11
-4.569999999999994
 21
74.23833333333333
 31
0.0
 12
0.0000000000000066
 22
75.0
 32
0.0
 13
0.0000000000000066
 23
75.0
 33
0.0
  0
SOLID
  5
48C
330
37A
100
AcDbEntity
  8
SK2
 62
     0
100
AcDbTrace
 10
-20.42999999999999
 20
75.76166666666667
 30
0.0
 11
-20.42999999999999
 21
74.23833333333333
 31
0.0
 12
-24.99999999999999
 22
75.0
 32
0.0
 13
-24.99999999999999
 23
75.0
 33
0.0
  0
MTEXT
  5
48D
330
37A
100
AcDbEntity
  8
SK2
 62
     0
100
AcDbMText
 10
-12.49999999999999
 20
79.58499999999999
 30
0.0
 40
4.57
 41
0.0
 71
     5
 72
     1
  1
\A1;25
  7
SIMPLEX
1001
ACAD
1000
MTEXTBEGIN
1070
    73
1070
     1
1070
    44
1040
1.0
1070
    74
1070
     0
1000
MTEXTEND
  0
POINT
  5
48E
330
37A
100
AcDbEntity
  8
DEFPOINTS
 62
     0
100
AcDbPoint
 10
0.0000000000000036
 20
25.00007
 30
0.0
  0
POINT
  5
48F
330
37A
100
AcDbEntity
  8
DEFPOINTS
 62
     0
100
AcDbPoint
 10
-25.0
 20
17.832662515636
 30
0.0
  0
POINT
  5
490
330
37A
100
AcDbEntity
  8
DEFPOINTS
 62
     0
100
AcDbPoint
 10
-24.99999999999999
 20
75.0
 30
0.0
  0
ENDBLK
  5
385
330
37A
100
AcDbEntity
  8
0
100
AcDbBlockEnd
  0
BLOCK
  5
390
330
386
100
AcDbEntity
  8
0
100
AcDbBlockBegin
  2
*D5
 70
     1
 10
0.0
 20
0.0
 30
0.0
  3
*D5
  1

  0
LINE
  5
491
330
386
100
AcDbEntity
  8
2
 62
     0
100
AcDbLine
 10
0.0000000000000036
 20
25.00007
 30
0.0
 11
0.000000000000006
 21
65.0
 31
0.0
  0
LINE
  5
492
330
386
100
AcDbEntity
  8
2
 62
     0
100
AcDbLine
 10
26.0
 20
25.0
 30
0.0
 11
26.0
 21
65.0
 31
0.0
  0
LINE
  5
493
330
386
100
AcDbEntity
  8
2
 62
     0
100
AcDbLine
 10
4.570000000000005
 20
60.0
 30
0.0
 11
21.43
 21
60.0
 31
0.0
  0
SOLID
  5
494
330
386
100
AcDbEntity
  8
2
 62
     0
100
AcDbTrace
 10
4.570000000000005
 20
60.76166666666667
 30
0.0
 11
4.570000000000005
 21
59.23833333333333
 31
0.0
 12
0.0000000000000057
 22
60.0
 32
0.0
 13
0.0000000000000057
 23
60.0
 33
0.0
  0
SOLID
  5
495
330
386
100
AcDbEntity
  8
2
 62
     0
100
AcDbTrace
 10
21.43
 20
60.76166666666667
 30
0.0
 11
21.43
 21
59.23833333333333
 31
0.0
 12
26.0
 22
60.0
 32
0.0
 13
26.0
 23
60.0
 33
0.0
  0
MTEXT
  5
496
330
386
100
AcDbEntity
  8
2
 62
     0
100
AcDbMText
 10
13.0
 20
64.585
 30
0.0
 40
4.57
 41
0.0
 71
     5
 72
     1
  1
\A1;26
  7
SIMPLEX
1001
ACAD
1000
MTEXTBEGIN
1070
    73
1070
     1
1070
    44
1040
1.0
1070
    74
1070
     0
1000
MTEXTEND
  0
POINT
  5
497
330
386
100
AcDbEntity
  8
DEFPOINTS
 62
     0
100
AcDbPoint
 10
0.0000000000000036
 20
25.00007
 30
0.0
  0
POINT
  5
498
330
386
100
AcDbEntity
  8
DEFPOINTS
 62
     0
100
AcDbPoint
 10
26.0
 20
25.0
 30
0.0
  0
POINT
  5
499
330
386
100
AcDbEntity
  8
DEFPOINTS
 62
     0
100
AcDbPoint
 10
26.0
 20
60.0
 30
0.0
  0
ENDBLK
  5
391
330
386
100
AcDbEntity
  8
0
100
AcDbBlockEnd
  0
BLOCK
  5
39C
330
392
100
AcDbEntity
  8
0
100
AcDbBlockBegin
  2
*D6
 70
     1
 10
0.0
 20
0.0
 30
0.0
  3
*D6
  1

  0
LINE
  5
49A
330
392
100
AcDbEntity
  8
SK2
 62
     0
100
AcDbLine
 10
0.0000000000000036
 20
-25.0
 30
0.0
 11
-45.00000000000001
 21
-24.99999999999998
 31
0.0
  0
LINE
  5
49B
330
392
100
AcDbEntity
  8
SK2
 62
     0
100
AcDbLine
 10
0.0000000000000036
 20
25.00007
 30
0.0
 11
-45.0
 21
25.00007000000001
 31
0.0
  0
LINE
  5
49C
330
392
100
AcDbEntity
  8
SK2
 62
     0
100
AcDbLine
 10
-40.00000000000001
 20
-20.42999999999998
 30
0.0
 11
-40.0
 21
20.43007000000001
 31
0.0
  0
SOLID
  5
49D
330
392
100
AcDbEntity
  8
SK2
 62
     0
100
AcDbTrace
 10
-40.76166666666668
 20
-20.42999999999998
 30
0.0
 11
-39.23833333333335
 21
-20.42999999999998
 31
0.0
 12
-40.00000000000001
 22
-24.99999999999998
 32
0.0
 13
-40.00000000000001
 23
-24.99999999999998
 33
0.0
  0
SOLID
  5
49E
330
392
100
AcDbEntity
  8
SK2
 62
     0
100
AcDbTrace
 10
-40.76166666666666
 20
20.43007000000001
 30
0.0
 11
-39.23833333333334
 21
20.43007000000001
 31
0.0
 12
-40.0
 22
25.00007000000001
 32
0.0
 13
-40.0
 23
25.00007000000001
 33
0.0
  0
MTEXT
  5
49F
330
392
100
AcDbEntity
  8
SK2
 62
     0
100
AcDbMText
 10
-44.585
 20
0.000035000000007
 30
0.0
 40
4.57
 41
0.0
 71
     5
 72
     1
  1
\A1;%%C50
  7
SIMPLEX
 11
0.0000000000000001
 21
1.0
 31
0.0
1001
ACAD
1000
MTEXTBEGIN
1070
    73
1070
     1
1070
    44
1040
1.0
1070
    74
1070
     0
1000
MTEXTEND
  0
POINT
  5
4A0
330
392
100
AcDbEntity
  8
DEFPOINTS
 62
     0
100
AcDbPoint
 10
0.0000000000000036
 20
-25.0
 30
0.0
  0
POINT
  5
4A1
330
392
100
AcDbEntity
  8
DEFPOINTS
 62
     0
100
AcDbPoint
 10
0.0000000000000036
 20
25.00007
 30
0.0
  0
POINT
  5
4A2
330
392
100
AcDbEntity
  8
DEFPOINTS
 62
     0
100
AcDbPoint
 10
-40.0
 20
25.00007000000001
 30
0.0
  0
ENDBLK
  5
39D
330
392
100
AcDbEntity
  8
0
100
AcDbBlockEnd
  0
BLOCK
  5
4AD
330
4A3
100
AcDbEntity
  8
0
100
AcDbBlockBegin
  2
*D7
 70
     1
 10
0.0
 20
0.0
 30
0.0
  3
*D7
  1

  0
LINE
  5
4A4
330
4A3
100
AcDbEntity
  8
2
 62
     0
100
AcDbLine
 10
0.0000000000000036
 20
25.00007
 30
0.0
 11
0.000000000000006
 21
65.0
 31
0.0
  0
LINE
  5
4A5
330
4A3
100
AcDbEntity
  8
2
 62
     0
100
AcDbLine
 10
26.0
 20
25.0
 30
0.0
 11
26.0
 21
65.0
 31
0.0
  0
LINE
  5
4A6
330
4A3
100
AcDbEntity
  8
2
 62
     0
100
AcDbLine
 10
4.570000000000005
 20
60.0
 30
0.0
 11
21.43
 21
60.0
 31
0.0
  0
SOLID
  5
4A7
330
4A3
100
AcDbEntity
  8
2
 62
     0
100
AcDbTrace
 10
4.570000000000005
 20
60.76166666666667
 30
0.0
 11
4.570000000000005
 21
59.23833333333333
 31
0.0
 12
0.0000000000000057
 22
60.0
 32
0.0
 13
0.0000000000000057
 23
60.0
 33
0.0
  0
SOLID
  5
4A8
330
4A3
100
AcDbEntity
  8
2
 62
     0
100
AcDbTrace
 10
21.43
 20
60.76166666666667
 30
0.0
 11
21.43
 21
59.23833333333333
 31
0.0
 12
26.0
 22
60.0
 32
0.0
 13
26.0
 23
60.0
 33
0.0
  0
MTEXT
  5
4A9
330
4A3
100
AcDbEntity
  8
2
 62
     0
100
AcDbMText
 10
13.0
 20
64.585
 30
0.0
 40
4.57
 41
0.0
 71
     5
 72
     1
  1
\A1;26
  7
SIMPLEX
1001
ACAD
1000
MTEXTBEGIN
1070
    73
1070
     1
1070
    44
1040
1.0
1070
    74
1070
     0
1000
MTEXTEND
  0
POINT
  5
4AA
330
4A3
100
AcDbEntity
  8
DEFPOINTS
 62
     0
100
AcDbPoint
 10
0.0000000000000036
 20
25.00007
 30
0.0
  0
POINT
  5
4AB
330
4A3
100
AcDbEntity
  8
DEFPOINTS
 62
     0
100
AcDbPoint
 10
26.0
 20
25.0
 30
0.0
  0
POINT
  5
4AC
330
4A3
100
AcDbEntity
  8
DEFPOINTS
 62
     0
100
AcDbPoint
 10
26.0
 20
60.0
 30
0.0
  0
ENDBLK
  5
4AE
330
4A3
100
AcDbEntity
  8
0
100
AcDbBlockEnd
  0
BLOCK
  5
4B9
330
4AF
100
AcDbEntity
  8
0
100
AcDbBlockBegin
  2
*D8
 70
     1
 10
0.0
 20
0.0
 30
0.0
  3
*D8
  1

  0
LINE
  5
4B0
330
4AF
100
AcDbEntity
  8
SK2
 62
     0
100
AcDbLine
 10
0.0000000000000036
 20
-25.0
 30
0.0
 11
-45.00000000000001
 21
-24.99999999999998
 31
0.0
  0
LINE
  5
4B1
330
4AF
100
AcDbEntity
  8
SK2
 62
     0
100
AcDbLine
 10
0.0000000000000036
 20
25.00007
 30
0.0
 11
-45.0
 21
25.00007000000001
 31
0.0
  0
LINE
  5
4B2
330
4AF
100
AcDbEntity
  8
SK2
 62
     0
100
AcDbLine
 10
-40.00000000000001
 20
-20.42999999999998
 30
0.0
 11
-40.0
 21
20.43007000000001
 31
0.0
  0
SOLID
  5
4B3
330
4AF
100
AcDbEntity
  8
SK2
 62
     0
100
AcDbTrace
 10
-40.76166666666668
 20
-20.42999999999998
 30
0.0
 11
-39.23833333333335
 21
-20.42999999999998
 31
0.0
 12
-40.00000000000001
 22
-24.99999999999998
 32
0.0
 13
-40.00000000000001
 23
-24.99999999999998
 33
0.0
  0
SOLID
  5
4B4
330
4AF
100
AcDbEntity
  8
SK2
 62
     0
100
AcDbTrace
 10
-40.76166666666666
 20
20.43007000000001
 30
0.0
 11
-39.23833333333334
 21
20.43007000000001
 31
0.0
 12
-40.0
 22
25.00007000000001
 32
0.0
 13
-40.0
 23
25.00007000000001
 33
0.0
  0
MTEXT
  5
4B5
330
4AF
100
AcDbEntity
  8
SK2
 62
     0
100
AcDbMText
 10
-44.585
 20
0.000035000000007
 30
0.0
 40
4.57
 41
0.0
 71
     5
 72
     1
  1
\A1;%%C50
  7
SIMPLEX
 11
0.0000000000000001
 21
1.0
 31
0.0
1001
ACAD
1000
MTEXTBEGIN
1070
    73
1070
     1
1070
    44
1040
1.0
1070
    74
1070
     0
1000
MTEXTEND
  0
POINT
  5
4B6
330
4AF
100
AcDbEntity
  8
DEFPOINTS
 62
     0
100
AcDbPoint
 10
0.0000000000000036
 20
-25.0
 30
0.0
  0
POINT
  5
4B7
330
4AF
100
AcDbEntity
  8
DEFPOINTS
 62
     0
100
AcDbPoint
 10
0.0000000000000036
 20
25.00007
 30
0.0
  0
POINT
  5
4B8
330
4AF
100
AcDbEntity
  8
DEFPOINTS
 62
     0
100
AcDbPoint
 10
-40.0
 20
25.00007000000001
 30
0.0
  0
ENDBLK
  5
4BA
330
4AF
100
AcDbEntity
  8
0
100
AcDbBlockEnd
  0
BLOCK
  5
4C5
330
4BB
100
AcDbEntity
  8
0
100
AcDbBlockBegin
  2
*D9
 70
     1
 10
0.0
 20
0.0
 30
0.0
  3
*D9
  1

  0
LINE
  5
4BC
330
4BB
100
AcDbEntity
  8
SK2
 62
     0
100
AcDbLine
 10
0.0000000000000036
 20
25.00007
 30
0.0
 11
0.0000000000000069
 21
80.0
 31
0.0
  0
LINE
  5
4BD
330
4BB
100
AcDbEntity
  8
SK2
 62
     0
100
AcDbLine
 10
-25.0
 20
17.832662515636
 30
0.0
 11
-24.99999999999999
 21
80.0
 31
0.0
  0
LINE
  5
4BE
330
4BB
100
AcDbEntity
  8
SK2
 62
     0
100
AcDbLine
 10
-4.569999999999994
 20
75.0
 30
0.0
 11
-20.42999999999999
 21
75.0
 31
0.0
  0
SOLID
  5
4BF
330
4BB
100
AcDbEntity
  8
SK2
 62
     0
100
AcDbTrace
 10
-4.569999999999994
 20
75.76166666666667
 30
0.0
 11
-4.569999999999994
 21
74.23833333333333
 31
0.0
 12
0.0000000000000066
 22
75.0
 32
0.0
 13
0.0000000000000066
 23
75.0
 33
0.0
  0
SOLID
  5
4C0
330
4BB
100
AcDbEntity
  8
SK2
 62
     0
100
AcDbTrace
 10
-20.42999999999999
 20
75.76166666666667
 30
0.0
 11
-20.42999999999999
 21
74.23833333333333
 31
0.0
 12
-24.99999999999999
 22
75.0
 32
0.0
 13
-24.99999999999999
 23
75.0
 33
0.0
  0
MTEXT
  5
4C1
330
4BB
100
AcDbEntity
  8
SK2
 62
     0
100
AcDbMText
 10
-12.49999999999999
 20
79.58499999999999
 30
0.0
 40
4.57
 41
0.0
 71
     5
 72
     1
  1
\A1;25
  7
SIMPLEX
1001
ACAD
1000
MTEXTBEGIN
1070
    73
1070
     1
1070
    44
1040
1.0
1070
    74
1070
     0
1000
MTEXTEND
  0
POINT
  5
4C2
330
4BB
100
AcDbEntity
  8
DEFPOINTS
 62
     0
100
AcDbPoint
 10
0.0000000000000036
 20
25.00007
 30
0.0
  0
POINT
  5
4C3
330
4BB
100
AcDbEntity
  8
DEFPOINTS
 62
     0
100
AcDbPoint
 10
-25.0
 20
17.832662515636
 30
0.0
  0
POINT
  5
4C4
330
4BB
100
AcDbEntity
  8
DEFPOINTS
 62
     0
100
AcDbPoint
 10
-24.99999999999999
 20
75.0
 30
0.0
  0
ENDBLK
  5
4C6
330
4BB
100
AcDbEntity
  8
0
100
AcDbBlockEnd
  0
BLOCK
  5
569
330
55F
100
AcDbEntity
  8
0
100
AcDbBlockBegin
  2
*D11
 70
     1
 10
0.0
 20
0.0
 30
0.0
  3
*D11
  1

  0
LINE
  5
583
330
55F
100
AcDbEntity
  8
SK2
 62
     0
100
AcDbLine
 10
0.0000000000000036
 20
25.00007
 30
0.0
 11
0.0000000000000069
 21
80.0
 31
0.0
  0
LINE
  5
584
330
55F
100
AcDbEntity
  8
SK2
 62
     0
100
AcDbLine
 10
-25.0
 20
17.832662515636
 30
0.0
 11
-24.99999999999999
 21
80.0
 31
0.0
  0
LINE
  5
585
330
55F
100
AcDbEntity
  8
SK2
 62
     0
100
AcDbLine
 10
-4.569999999999994
 20
75.0
 30
0.0
 11
-20.42999999999999
 21
75.0
 31
0.0
  0
SOLID
  5
586
330
55F
100
AcDbEntity
  8
SK2
 62
     0
100
AcDbTrace
 10
-4.569999999999994
 20
75.76166666666667
 30
0.0
 11
-4.569999999999994
 21
74.23833333333333
 31
0.0
 12
0.0000000000000066
 22
75.0
 32
0.0
 13
0.0000000000000066
 23
75.0
 33
0.0
  0
SOLID
  5
587
330
55F
100
AcDbEntity
  8
SK2
 62
     0
100
AcDbTrace
 10
-20.42999999999999
 20
75.76166666666667
 30
0.0
 11
-20.42999999999999
 21
74.23833333333333
 31
0.0
 12
-24.99999999999999
 22
75.0
 32
0.0
 13
-24.99999999999999
 23
75.0
 33
0.0
  0
MTEXT
  5
588
330
55F
100
AcDbEntity
  8
SK2
 62
     0
100
AcDbMText
 10
-12.49999999999999
 20
79.58499999999999
 30
0.0
 40
4.57
 41
0.0
 71
     5
 72
     1
  1
\A1;25
  7
SIMPLEX
1001
ACAD
1000
MTEXTBEGIN
1070
    73
1070
     1
1070
    44
1040
1.0
1070
    74
1070
     0
1000
MTEXTEND
  0
POINT
  5
589
330
55F
100
AcDbEntity
  8
DEFPOINTS
 62
     0
100
AcDbPoint
 10
0.0000000000000036
 20
25.00007
 30
0.0
  0
POINT
  5
58A
330
55F
100
AcDbEntity
  8
DEFPOINTS
 62
     0
100
AcDbPoint
 10
-25.0
 20
17.832662515636
 30
0.0
  0
POINT
  5
58B
330
55F
100
AcDbEntity
  8
DEFPOINTS
 62
     0
100
AcDbPoint
 10
-24.99999999999999
 20
75.0
 30
0.0
  0
ENDBLK
  5
56A
330
55F
100
AcDbEntity
  8
0
100
AcDbBlockEnd
  0
BLOCK
  5
575
330
56B
100
AcDbEntity
  8
0
100
AcDbBlockBegin
  2
*D12
 70
     1
 10
0.0
 20
0.0
 30
0.0
  3
*D12
  1

  0
LINE
  5
58C
330
56B
100
AcDbEntity
  8
2
 62
     0
100
AcDbLine
 10
0.0000000000000036
 20
25.00007
 30
0.0
 11
0.000000000000006
 21
65.0
 31
0.0
  0
LINE
  5
58D
330
56B
100
AcDbEntity
  8
2
 62
     0
100
AcDbLine
 10
26.0
 20
25.0
 30
0.0
 11
26.0
 21
65.0
 31
0.0
  0
LINE
  5
58E
330
56B
100
AcDbEntity
  8
2
 62
     0
100
AcDbLine
 10
4.570000000000005
 20
60.0
 30
0.0
 11
21.43
 21
60.0
 31
0.0
  0
SOLID
  5
58F
330
56B
100
AcDbEntity
  8
2
 62
     0
100
AcDbTrace
 10
4.570000000000005
 20
60.76166666666667
 30
0.0
 11
4.570000000000005
 21
59.23833333333333
 31
0.0
 12
0.0000000000000057
 22
60.0
 32
0.0
 13
0.0000000000000057
 23
60.0
 33
0.0
  0
SOLID
  5
590
330
56B
100
AcDbEntity
  8
2
 62
     0
100
AcDbTrace
 10
21.43
 20
60.76166666666667
 30
0.0
 11
21.43
 21
59.23833333333333
 31
0.0
 12
26.0
 22
60.0
 32
0.0
 13
26.0
 23
60.0
 33
0.0
  0
MTEXT
  5
591
330
56B
100
AcDbEntity
  8
2
 62
     0
100
AcDbMText
 10
13.0
 20
64.585
 30
0.0
 40
4.57
 41
0.0
 71
     5
 72
     1
  1
\A1;26
  7
SIMPLEX
1001
ACAD
1000
MTEXTBEGIN
1070
    73
1070
     1
1070
    44
1040
1.0
1070
    74
1070
     0
1000
MTEXTEND
  0
POINT
  5
592
330
56B
100
AcDbEntity
  8
DEFPOINTS
 62
     0
100
AcDbPoint
 10
0.0000000000000036
 20
25.00007
 30
0.0
  0
POINT
  5
593
330
56B
100
AcDbEntity
  8
DEFPOINTS
 62
     0
100
AcDbPoint
 10
26.0
 20
25.0
 30
0.0
  0
POINT
  5
594
330
56B
100
AcDbEntity
  8
DEFPOINTS
 62
     0
100
AcDbPoint
 10
26.0
 20
60.0
 30
0.0
  0
ENDBLK
  5
576
330
56B
100
AcDbEntity
  8
0
100
AcDbBlockEnd
  0
BLOCK
  5
581
330
577
100
AcDbEntity
  8
0
100
AcDbBlockBegin
  2
*D13
 70
     1
 10
0.0
 20
0.0
 30
0.0
  3
*D13
  1

  0
LINE
  5
595
330
577
100
AcDbEntity
  8
SK2
 62
     0
100
AcDbLine
 10
0.0000000000000036
 20
-25.0
 30
0.0
 11
-45.00000000000001
 21
-24.99999999999998
 31
0.0
  0
LINE
  5
596
330
577
100
AcDbEntity
  8
SK2
 62
     0
100
AcDbLine
 10
0.0000000000000036
 20
25.00007
 30
0.0
 11
-45.0
 21
25.00007000000001
 31
0.0
  0
LINE
  5
597
330
577
100
AcDbEntity
  8
SK2
 62
     0
100
AcDbLine
 10
-40.00000000000001
 20
-20.42999999999998
 30
0.0
 11
-40.0
 21
20.43007000000001
 31
0.0
  0
SOLID
  5
598
330
577
100
AcDbEntity
  8
SK2
 62
     0
100
AcDbTrace
 10
-40.76166666666668
 20
-20.42999999999998
 30
0.0
 11
-39.23833333333335
 21
-20.42999999999998
 31
0.0
 12
-40.00000000000001
 22
-24.99999999999998
 32
0.0
 13
-40.00000000000001
 23
-24.99999999999998
 33
0.0
  0
SOLID
  5
599
330
577
100
AcDbEntity
  8
SK2
 62
     0
100
AcDbTrace
 10
-40.76166666666666
 20
20.43007000000001
 30
0.0
 11
-39.23833333333334
 21
20.43007000000001
 31
0.0
 12
-40.0
 22
25.00007000000001
 32
0.0
 13
-40.0
 23
25.00007000000001
 33
0.0
  0
MTEXT
  5
59A
330
577
100
AcDbEntity
  8
SK2
 62
     0
100
AcDbMText
 10
-44.585
 20
0.000035000000007
 30
0.0
 40
4.57
 41
0.0
 71
     5
 72
     1
  1
\A1;%%C50
  7
SIMPLEX
 11
0.0000000000000001
 21
1.0
 31
0.0
1001
ACAD
1000
MTEXTBEGIN
1070
    73
1070
     1
1070
    44
1040
1.0
1070
    74
1070
     0
1000
MTEXTEND
  0
POINT
  5
59B
330
577
100
AcDbEntity
  8
DEFPOINTS
 62
     0
100
AcDbPoint
 10
0.0000000000000036
 20
-25.0
 30
0.0
  0
POINT
  5
59C
330
577
100
AcDbEntity
  8
DEFPOINTS
 62
     0
100
AcDbPoint
 10
0.0000000000000036
 20
25.00007
 30
0.0
  0
POINT
  5
59D
330
577
100
AcDbEntity
  8
DEFPOINTS
 62
     0
100
AcDbPoint
 10
-40.0
 20
25.00007000000001
 30
0.0
  0
ENDBLK
  5
582
330
577
100
AcDbEntity
  8
0
100
AcDbBlockEnd
  0
ENDSEC
  0
SECTION
  2
ENTITIES
  0
LINE
  5
39E
330
18
100
AcDbEntity
  8
SK4
100
AcDbLine
 10
-28.5609593356512
 20
0.0
 30
0.0
 11
82.48346404995846
 21
0.0
 31
0.0
  0
LINE
  5
39F
330
18
100
AcDbEntity
  8
4
100
AcDbLine
 10
-25.0
 20
0.0
 30
0.0
 11
79.99999999999999
 21
0.0
 31
0.0
  0
ARC
  5
3A0
330
18
100
AcDbEntity
  8
1
  6
CONTINUOUS
 62
     4
100
AcDbCircle
 10
27.99999999999993
 20
15.5
 30
0.000056699999267
 40
2.0
100
AcDbArc
 50
180.0000149999998
 51
270.0
  0
POLYLINE
  5
3A1
330
18
100
AcDbEntity
  8
1
  6
CONTINUOUS
 62
     4
100
AcDb2dPolyline
 66
     1
 10
0.0
 20
0.0
 30
0.0
  0
VERTEX
  5
5DF
330
3A1
100
AcDbEntity
  8
1
  6
CONTINUOUS
 62
     4
100
AcDbVertex
100
AcDb2dVertex
 10
79.08
 20
10.57
 30
0.0
  0
VERTEX
  5
5E0
330
3A1
100
AcDbEntity
  8
1
  6
CONTINUOUS
 62
     4
100
AcDbVertex
100
AcDb2dVertex
 10
41.44999999999998
 20
13.5
 30
0.0
  0
SEQEND
  5
5E1
330
3A1
100
AcDbEntity
  8
1
  6
CONTINUOUS
 62
     4
  0
POLYLINE
  5
3A2
330
18
100
AcDbEntity
  8
1
  6
CONTINUOUS
 62
     4
100
AcDb2dPolyline
 66
     1
 10
0.0
 20
0.0
 30
0.0
  0
VERTEX
  5
5E2
330
3A2
100
AcDbEntity
  8
1
  6
CONTINUOUS
 62
     4
100
AcDbVertex
100
AcDb2dVertex
 10
79.08
 20
-10.57999999999999
 30
0.0
  0
VERTEX
  5
5E3
330
3A2
100
AcDbEntity
  8
1
  6
CONTINUOUS
 62
     4
100
AcDbVertex
100
AcDb2dVertex
 10
41.44999999999998
 20
-13.5
 30
0.0
  0
SEQEND
  5
5E4
330
3A2
100
AcDbEntity
  8
1
  6
CONTINUOUS
 62
     4
  0
LINE
  5
3A3
330
18
100
AcDbEntity
  8
1
  6
CONTINUOUS
 62
     4
100
AcDbLine
 10
41.44999999999998
 20
13.5
 30
0.0
 11
41.44999999999998
 21
-13.5
 31
0.0
  0
POLYLINE
  5
3A4
330
18
100
AcDbEntity
  8
1
  6
CONTINUOUS
 62
     4
100
AcDb2dPolyline
 66
     1
 10
0.0
 20
0.0
 30
0.0
  0
VERTEX
  5
5E5
330
3A4
100
AcDbEntity
  8
1
  6
CONTINUOUS
 62
     4
100
AcDbVertex
100
AcDb2dVertex
 10
41.44999999999998
 20
13.5
 30
0.0
  0
VERTEX
  5
5E6
330
3A4
100
AcDbEntity
  8
1
  6
CONTINUOUS
 62
     4
100
AcDbVertex
100
AcDb2dVertex
 10
27.99999999999993
 20
13.5
 30
0.0
  0
SEQEND
  5
5E7
330
3A4
100
AcDbEntity
  8
1
  6
CONTINUOUS
 62
     4
  0
POLYLINE
  5
3A5
330
18
100
AcDbEntity
  8
1
  6
CONTINUOUS
 62
     4
100
AcDb2dPolyline
 66
     1
 10
0.0
 20
0.0
 30
0.0
  0
VERTEX
  5
5E8
330
3A5
100
AcDbEntity
  8
1
  6
CONTINUOUS
 62
     4
100
AcDbVertex
100
AcDb2dVertex
 10
79.99999999999999
 20
-9.579999999999998
 30
0.0
  0
VERTEX
  5
5E9
330
3A5
100
AcDbEntity
  8
1
  6
CONTINUOUS
 62
     4
100
AcDbVertex
100
AcDb2dVertex
 10
79.99999999999999
 20
9.560000000000002
 30
0.0
  0
SEQEND
  5
5EA
330
3A5
100
AcDbEntity
  8
1
  6
CONTINUOUS
 62
     4
  0
ARC
  5
3A6
330
18
100
AcDbEntity
  8
1
  6
CONTINUOUS
 62
     4
100
AcDbCircle
 10
78.99999999999998
 20
-9.579999999999998
 30
0.0
 40
1.0
100
AcDbArc
 50
274.4733889999995
 51
0.5152899999999681
  0
POLYLINE
  5
3A7
330
18
100
AcDbEntity
  8
1
  6
CONTINUOUS
 62
     4
100
AcDb2dPolyline
 66
     1
 10
0.0
 20
0.0
 30
0.0
  0
VERTEX
  5
5EB
330
3A7
100
AcDbEntity
  8
1
  6
CONTINUOUS
 62
     4
100
AcDbVertex
100
AcDb2dVertex
 10
79.99999999999999
 20
-9.579999999999998
 30
0.0
  0
VERTEX
  5
5EC
330
3A7
100
AcDbEntity
  8
1
  6
CONTINUOUS
 62
     4
100
AcDbVertex
100
AcDb2dVertex
 10
79.99999999999999
 20
-9.589999999999999
 30
0.0
  0
SEQEND
  5
5ED
330
3A7
100
AcDbEntity
  8
1
  6
CONTINUOUS
 62
     4
  0
ARC
  5
3A8
330
18
100
AcDbEntity
  8
1
  6
CONTINUOUS
 62
     4
100
AcDbCircle
 10
78.99999999999998
 20
9.579999999999998
 30
0.0
 40
1.0
100
AcDbArc
 50
359.0830079999999
 51
85.52656600000009
  0
LINE
  5
3A9
330
18
100
AcDbEntity
  8
SK3
100
AcDbLine
 10
20.0
 20
3.650999999999999
 30
0.0
 11
28.33729723993928
 21
3.650999999999999
 31
0.0
  0
LINE
  5
3AA
330
18
100
AcDbEntity
  8
SK3
100
AcDbLine
 10
28.33672003993928
 20
-3.647999999999999
 30
0.0
 11
20.0
 21
-3.648
 31
0.0
  0
LINE
  5
3AC
330
18
100
AcDbEntity
  8
SK2
100
AcDbLine
 10
82.48346404995846
 20
10.5
 30
0.0
 11
110.0
 21
10.49999999999999
 31
0.0
  0
LINE
  5
3AD
330
18
100
AcDbEntity
  8
SK2
100
AcDbLine
 10
82.48346404995846
 20
-10.5
 30
0.0
 11
110.0
 21
-10.5
 31
0.0
  0
LINE
  5
3AE
330
18
100
AcDbEntity
  8
SK2
100
AcDbLine
 10
105.0
 20
5.929999999999992
 30
0.0
 11
105.0
 21
-5.930000000000006
 31
0.0
  0
SOLID
  5
3AF
330
18
100
AcDbEntity
  8
SK2
100
AcDbTrace
 10
104.2383333333333
 20
5.929999999999992
 30
0.0
 11
105.7616666666666
 21
5.929999999999992
 31
0.0
 12
105.0
 22
10.49999999999999
 32
0.0
 13
105.0
 23
10.49999999999999
 33
0.0
  0
SOLID
  5
3B0
330
18
100
AcDbEntity
  8
SK2
100
AcDbTrace
 10
104.2383333333333
 20
-5.930000000000006
 30
0.0
 11
105.7616666666666
 21
-5.930000000000006
 31
0.0
 12
105.0
 22
-10.5
 32
0.0
 13
105.0
 23
-10.5
 33
0.0
  0
LINE
  5
3B3
330
18
100
AcDbEntity
  8
SK2
100
AcDbLine
 10
41.44999999999998
 20
13.5
 30
0.0
 11
125.0
 21
13.49999999999997
 31
0.0
  0
LINE
  5
3B4
330
18
100
AcDbEntity
  8
SK2
100
AcDbLine
 10
41.44999999999998
 20
-13.5
 30
0.0
 11
125.0
 21
-13.50000000000002
 31
0.0
  0
LINE
  5
3B5
330
18
100
AcDbEntity
  8
SK2
100
AcDbLine
 10
120.0
 20
8.929999999999976
 30
0.0
 11
120.0
 21
-8.930000000000022
 31
0.0
  0
SOLID
  5
3B6
330
18
100
AcDbEntity
  8
SK2
100
AcDbTrace
 10
119.2383333333333
 20
8.929999999999976
 30
0.0
 11
120.7616666666666
 21
8.929999999999976
 31
0.0
 12
120.0
 22
13.49999999999997
 32
0.0
 13
120.0
 23
13.49999999999997
 33
0.0
  0
SOLID
  5
3B7
330
18
100
AcDbEntity
  8
SK2
100
AcDbTrace
 10
119.2383333333333
 20
-8.930000000000022
 30
0.0
 11
120.7616666666666
 21
-8.930000000000022
 31
0.0
 12
120.0
 22
-13.50000000000002
 32
0.0
 13
120.0
 23
-13.50000000000002
 33
0.0
  0
LINE
  5
3BB
330
18
100
AcDbEntity
  8
SK3
100
AcDbLine
 10
43.42150003993928
 20
3.002000000000002
 30
0.0
 11
28.71190003993929
 21
3.002000000000002
 31
0.0
  0
LINE
  5
3BC
330
18
100
AcDbEntity
  8
SK3
100
AcDbLine
 10
43.42150003993928
 20
-2.998999999999998
 30
0.0
 11
28.71132283993928
 21
-2.998999999999999
 31
0.0
  0
LINE
  5
3BD
330
18
100
AcDbEntity
  8
SK3
100
AcDbLine
 10
28.71090003993928
 20
2.502000000000002
 30
0.0
 11
43.13250003993928
 21
2.502000000000002
 31
0.0
  0
LINE
  5
3BE
330
18
100
AcDbEntity
  8
SK3
100
AcDbLine
 10
28.71090003993927
 20
-2.497999999999997
 30
0.0
 11
43.13250003993928
 21
-2.497999999999997
 31
0.0
  0
LINE
  5
3BF
330
18
100
AcDbEntity
  8
SK3
100
AcDbLine
 10
28.33729723993927
 20
3.650999999999998
 30
0.0
 11
28.71190003993928
 21
3.002000000000002
 31
0.0
  0
LINE
  5
3C0
330
18
100
AcDbEntity
  8
SK3
100
AcDbLine
 10
28.33672003993928
 20
-3.647999999999999
 30
0.0
 11
28.71132283993928
 21
-2.998999999999998
 31
0.0
  0
LINE
  5
3C1
330
18
100
AcDbEntity
  8
SK3
100
AcDbLine
 10
28.71090003993928
 20
3.002000000000002
 30
0.0
 11
28.71090003993928
 21
-2.999732501732497
 31
0.0
  0
POLYLINE
  5
3C2
330
18
100
AcDbEntity
  8
SK3
100
AcDb2dPolyline
 66
     1
 10
0.0
 20
0.0
 30
0.0
  0
VERTEX
  5
5EE
330
3C2
100
AcDbEntity
  8
SK3
100
AcDbVertex
100
AcDb2dVertex
 10
79.31450003993929
 20
-4.200999999999996
 30
0.0
  0
VERTEX
  5
5EF
330
3C2
100
AcDbEntity
  8
SK3
100
AcDbVertex
100
AcDb2dVertex
 10
76.99950003993929
 20
-3.998999999999998
 30
0.0
  0
VERTEX
  5
5F0
330
3C2
100
AcDbEntity
  8
SK3
100
AcDbVertex
100
AcDb2dVertex
 10
49.00050003993929
 20
-3.998999999999998
 30
0.0
  0
SEQEND
  5
5F1
330
3C2
100
AcDbEntity
  8
SK3
  0
POLYLINE
  5
3C3
330
18
100
AcDbEntity
  8
SK3
100
AcDb2dPolyline
 66
     1
 10
0.0
 20
0.0
 30
0.0
  0
VERTEX
  5
5F2
330
3C3
100
AcDbEntity
  8
SK3
100
AcDbVertex
100
AcDb2dVertex
 10
79.31450003993929
 20
4.204
 30
0.0
  0
VERTEX
  5
5F3
330
3C3
100
AcDbEntity
  8
SK3
100
AcDbVertex
100
AcDb2dVertex
 10
76.99950003993929
 20
4.003
 30
0.0
  0
VERTEX
  5
5F4
330
3C3
100
AcDbEntity
  8
SK3
100
AcDbVertex
100
AcDb2dVertex
 10
49.00050003993929
 20
4.003
 30
0.0
  0
SEQEND
  5
5F5
330
3C3
100
AcDbEntity
  8
SK3
  0
LINE
  5
3C4
330
18
100
AcDbEntity
  8
SK3
100
AcDbLine
 10
47.87850003993928
 20
3.887
 30
0.0
 11
47.87850003993928
 21
-3.835
 31
0.0
  0
LINE
  5
3C5
330
18
100
AcDbEntity
  8
SK3
100
AcDbLine
 10
48.99950003993929
 20
-3.998999999999998
 30
0.0
 11
48.99950003993929
 21
4.000999999999997
 31
0.0
  0
LINE
  5
3C6
330
18
100
AcDbEntity
  8
SK3
100
AcDbLine
 10
43.99850003993928
 20
4.002000000000002
 30
0.0
 11
43.13350003993927
 21
2.502000000000002
 31
0.0
  0
LINE
  5
3C7
330
18
100
AcDbEntity
  8
SK3
100
AcDbLine
 10
44.17150003993929
 20
3.892000000000003
 30
0.0
 11
44.17150003993929
 21
-3.925
 31
0.0
  0
LINE
  5
3C8
330
18
100
AcDbEntity
  8
SK3
100
AcDbLine
 10
43.13250003993928
 20
2.502000000000002
 30
0.0
 11
43.9985000399393
 21
4.002000000000002
 31
0.0
  0
LINE
  5
3C9
330
18
100
AcDbEntity
  8
SK3
100
AcDbLine
 10
43.99850003993928
 20
-3.998999999999998
 30
0.0
 11
43.13350003993927
 21
-2.498999999999998
 31
0.0
  0
LINE
  5
3CA
330
18
100
AcDbEntity
  8
SK3
100
AcDbLine
 10
43.13250003993928
 20
-2.497999999999997
 30
0.0
 11
43.9985000399393
 21
-3.997999999999997
 31
0.0
  0
LINE
  5
3CB
330
18
100
AcDbEntity
  8
SK3
100
AcDbLine
 10
43.13250003993928
 20
2.502000000000002
 30
0.0
 11
43.13250003993928
 21
-2.497999999999997
 31
0.0
  0
LINE
  5
3CC
330
18
100
AcDbEntity
  8
SK3
100
AcDbLine
 10
43.42150003993928
 20
3.002000000000002
 30
0.0
 11
43.42150003993928
 21
-2.997999999999997
 31
0.0
  0
LINE
  5
3CD
330
18
100
AcDbEntity
  8
SK3
100
AcDbLine
 10
48.99950003993929
 20
-3.998999999999998
 30
0.0
 11
47.95450003993929
 21
-4.276999999999997
 31
0.0
  0
ARC
  5
3CE
330
18
100
AcDbEntity
  8
SK3
100
AcDbCircle
 10
47.79950003993929
 20
-3.697999999999996
 30
0.0
 40
0.6
100
AcDbArc
 50
270.0
 51
284.9616089999997
  0
ARC
  5
3CF
330
18
100
AcDbEntity
  8
SK3
100
AcDbCircle
 10
47.7985000399393
 20
-3.696999999999995
 30
0.0
 40
0.6
100
AcDbArc
 50
270.0
 51
284.9616089999997
  0
LINE
  5
3D0
330
18
100
AcDbEntity
  8
SK3
100
AcDbLine
 10
47.9535000399393
 20
-4.276999999999997
 30
0.0
 11
48.9985000399393
 21
-3.997999999999997
 31
0.0
  0
ARC
  5
3D1
330
18
100
AcDbEntity
  8
SK3
100
AcDbCircle
 10
44.51850003993928
 20
-3.697999999999996
 30
0.0
 40
0.6
100
AcDbArc
 50
209.9812930000003
 51
269.9987180000001
  0
ARC
  5
3D2
330
18
100
AcDbEntity
  8
SK3
100
AcDbCircle
 10
44.51850003993929
 20
-3.696999999999995
 30
0.0
 40
0.6
100
AcDbArc
 50
209.9986419999995
 51
270.0347289999999
  0
LINE
  5
3D3
330
18
100
AcDbEntity
  8
SK3
100
AcDbLine
 10
47.79950003993929
 20
-4.297999999999994
 30
0.0
 11
44.51950003993928
 21
-4.297999999999994
 31
0.0
  0
LINE
  5
3D4
330
18
100
AcDbEntity
  8
SK3
100
AcDbLine
 10
44.51850003993929
 20
-4.297999999999998
 30
0.0
 11
47.79750003993929
 21
-4.297999999999998
 31
0.0
  0
LINE
  5
3D5
330
18
100
AcDbEntity
  8
SK3
100
AcDbLine
 10
47.95350003993928
 20
4.282000000000003
 30
0.0
 11
48.99950003993929
 21
4.003
 31
0.0
  0
ARC
  5
3D6
330
18
100
AcDbEntity
  8
SK3
100
AcDbCircle
 10
47.79950003993929
 20
3.701
 30
0.0
 40
0.6
100
AcDbArc
 50
75.03839900000015
 51
90.0
  0
ARC
  5
3D7
330
18
100
AcDbEntity
  8
SK3
100
AcDbCircle
 10
47.7985000399393
 20
3.703000000000002
 30
0.0
 40
0.6
100
AcDbArc
 50
75.03839900000015
 51
90.0
  0
LINE
  5
3D8
330
18
100
AcDbEntity
  8
SK3
100
AcDbLine
 10
47.9535000399393
 20
4.282000000000003
 30
0.0
 11
48.9985000399393
 21
4.003
 31
0.0
  0
ARC
  5
3D9
330
18
100
AcDbEntity
  8
SK3
100
AcDbCircle
 10
44.51850003993928
 20
3.701
 30
0.0
 40
0.6
100
AcDbArc
 50
90.0
 51
150.0174259999998
  0
ARC
  5
3DA
330
18
100
AcDbEntity
  8
SK3
100
AcDbCircle
 10
44.51850003993929
 20
3.703000000000002
 30
0.0
 40
0.6
100
AcDbArc
 50
89.96502700000007
 51
150.0010990000005
  0
LINE
  5
3DB
330
18
100
AcDbEntity
  8
SK3
100
AcDbLine
 10
44.51850003993928
 20
4.302000000000006
 30
0.0
 11
47.79950003993929
 21
4.302000000000006
 31
0.0
  0
LINE
  5
3DC
330
18
100
AcDbEntity
  8
SK3
100
AcDbLine
 10
44.51850003993929
 20
4.303000000000004
 30
0.0
 11
47.79750003993929
 21
4.303000000000004
 31
0.0
  0
LINE
  5
3DD
330
18
100
AcDbEntity
  8
SK3
100
AcDbLine
 10
76.99850003993929
 20
4.002000000000002
 30
0.0
 11
76.99850003993929
 21
-3.997999999999997
 31
0.0
  0
ARC
  5
3DE
330
18
100
AcDbEntity
  8
SK3
100
AcDbCircle
 10
79.24950003993929
 20
-4.946999999999995
 30
0.0
 40
0.75
100
AcDbArc
 50
0.0
 51
85.02784000000032
  0
ARC
  5
3DF
330
18
100
AcDbEntity
  8
SK3
100
AcDbCircle
 10
79.24950003993931
 20
-4.946999999999995
 30
0.0
 40
0.75
100
AcDbArc
 50
0.0139879999999688
 51
85.02788499999962
  0
ARC
  5
3E0
330
18
100
AcDbEntity
  8
SK3
100
AcDbCircle
 10
79.24950003993929
 20
4.950000000000002
 30
0.0
 40
0.75
100
AcDbArc
 50
274.9759519999999
 51
359.926544
  0
ARC
  5
3E1
330
18
100
AcDbEntity
  8
SK3
100
AcDbCircle
 10
79.24950003993931
 20
4.952000000000005
 30
0.0
 40
0.75
100
AcDbArc
 50
274.9724729999998
 51
359.9125980000001
  0
LINE
  5
3E2
330
18
100
AcDbEntity
  8
SK2
100
AcDbLine
 10
76.99850003993929
 20
-3.997999999999997
 30
0.0
 11
95.0005000399393
 21
-3.998000000000002
 31
0.0
  0
LINE
  5
3E3
330
18
100
AcDbEntity
  8
SK2
100
AcDbLine
 10
76.99950003993929
 20
4.003
 30
0.0
 11
95.0005000399393
 21
4.002999999999995
 31
0.0
  0
SOLID
  5
3E5
330
18
100
AcDbEntity
  8
SK2
100
AcDbTrace
 10
89.23883337327263
 20
-8.568000000000001
 30
0.0
 11
90.76216670660597
 21
-8.568000000000001
 31
0.0
 12
90.0005000399393
 22
-3.998000000000001
 32
0.0
 13
90.0005000399393
 23
-3.998000000000001
 33
0.0
  0
SOLID
  5
3E6
330
18
100
AcDbEntity
  8
SK2
100
AcDbTrace
 10
89.23883337327263
 20
8.572999999999996
 30
0.0
 11
90.76216670660597
 21
8.572999999999996
 31
0.0
 12
90.0005000399393
 22
4.002999999999996
 32
0.0
 13
90.0005000399393
 23
4.002999999999996
 33
0.0
  0
LINE
  5
3E7
330
18
100
AcDbEntity
  8
SK2
100
AcDbLine
 10
90.0005000399393
 20
8.572999999999996
 30
0.0
 11
90.0005000399393
 21
13.14299999999999
 31
0.0
  0
LINE
  5
3E8
330
18
100
AcDbEntity
  8
SK2
100
AcDbLine
 10
90.0005000399393
 20
-8.568000000000001
 30
0.0
 11
90.0005000399393
 21
-13.138
 31
0.0
  0
LINE
  5
3E9
330
18
100
AcDbEntity
  8
SK3
100
AcDbLine
 10
28.33729723993927
 20
3.650999999999998
 30
0.0
 11
28.33672003993928
 21
-3.647999999999999
 31
0.0
  0
POLYLINE
  5
3EA
330
18
100
AcDbEntity
  8
1
  6
CONTINUOUS
 62
     4
100
AcDb2dPolyline
 66
     1
 10
0.0
 20
0.0
 30
0.0
  0
VERTEX
  5
5F6
330
3EA
100
AcDbEntity
  8
1
  6
CONTINUOUS
 62
     4
100
AcDbVertex
100
AcDb2dVertex
 10
41.44999999999998
 20
-13.5
 30
0.0
  0
VERTEX
  5
5F7
330
3EA
100
AcDbEntity
  8
1
  6
CONTINUOUS
 62
     4
100
AcDbVertex
100
AcDb2dVertex
 10
27.99999999999993
 20
-13.5
 30
0.0
  0
SEQEND
  5
5F8
330
3EA
100
AcDbEntity
  8
1
  6
CONTINUOUS
 62
     4
  0
ARC
  5
45D
330
18
100
AcDbEntity
  8
1
  6
CONTINUOUS
 62
     4
100
AcDbCircle
 10
27.99999999999993
 20
-15.5
 30
0.000056699999267
 40
2.0
100
AcDbArc
 50
90.00000000000003
 51
179.9999850000001
  0
LINE
  5
517
330
18
100
AcDbEntity
  8
1
100
AcDbLine
 10
-1.999929999999999
 20
-19.14867
 30
-0.00007
 11
-23.99999999999999
 21
-18.08616577472409
 31
0.0000132431931339
210
0.0000037749645333
220
-0.0000001823137729
230
0.9999999999928583
  0
LINE
  5
518
330
18
100
AcDbEntity
  8
1
100
AcDbLine
 10
-24.99999999999999
 20
17.08616577472409
 30
0.0000132431931339
 11
-25.0
 21
-17.08616577472408
 31
-0.0000285970297297
  0
ARC
  5
519
330
18
100
AcDbEntity
  8
SK3
  6
HIDDEN
 62
     1
100
AcDbCircle
 10
-0.4934727797988149
 20
19.51861339666371
 30
-0.0017620000100328
 40
0.599991107669535
210
-0.0000629999996141
220
-0.0000909999994426
230
0.9999999938750001
100
AcDbArc
 50
325.3328054971338
 51
8.007217503851636
  0
LINE
  5
51A
330
18
100
AcDbEntity
  8
SK3
  6
HIDDEN
 62
     1
100
AcDbLine
 10
-5.196129999999996
 20
-16.0
 30
0.0
 11
-13.26392999999999
 21
-16.0
 31
0.00007
210
0.0000086764669423
220
0.0
230
0.9999999999623593
  0
LINE
  5
51B
330
18
100
AcDbEntity
  8
SK3
  6
HIDDEN
 62
     1
100
AcDbLine
 10
19.99999999999999
 20
8.249999999999996
 30
0.0
 11
18.0
 21
8.249999999999996
 31
0.00007
210
0.0000349999999786
220
0.0
230
0.9999999993874999
  0
LINE
  5
51C
330
18
100
AcDbEntity
  8
SK3
  6
HIDDEN
 62
     1
100
AcDbLine
 10
-14.99599999999999
 20
-13.0
 30
0.0
 11
-23.99999999999999
 21
-13.0
 31
0.0000711859046759
210
0.0000079060311721
220
0.0
230
0.9999999999687473
  0
LINE
  5
51D
330
18
100
AcDbEntity
  8
SK3
  6
HIDDEN
 62
     1
100
AcDbLine
 10
-14.99599999999999
 20
-12.99999999999999
 30
0.0
 11
-13.26392999999999
 21
-15.99999999999999
 31
0.00007
210
-0.0000101036856861
220
0.0000174999030398
230
0.9999999997958344
  0
LINE
  5
51E
330
18
100
AcDbEntity
  8
SK3
  6
HIDDEN
 62
     1
100
AcDbLine
 10
18.0
 20
8.249999999999998
 30
0.00007
 11
18.0
 21
-8.25
 31
0.0
210
0.0
220
-0.0000042424242424
230
0.9999999999910011
  0
LINE
  5
51F
330
18
100
AcDbEntity
  8
SK3
  6
HIDDEN
 62
     1
100
AcDbLine
 10
-13.26392999999999
 20
16.0
 30
0.0
 11
-13.26392999999999
 21
-16.0
 31
0.00007
210
0.0
220
0.0000021875
230
0.9999999999976074
  0
LINE
  5
520
330
18
100
AcDbEntity
  8
1
  6
CONTINUOUS
 62
     4
100
AcDbLine
 10
26.0
 20
25.0
 30
0.00007
 11
26.0
 21
-25.0
 31
0.0
210
0.0
220
-0.0000014
230
0.9999999999990199
  0
LINE
  5
521
330
18
100
AcDbEntity
  8
1
  6
CONTINUOUS
 62
     4
100
AcDbLine
 10
25.99999999999999
 20
25.0
 30
0.00007
 11
21.37746999999999
 21
25.0
 31
0.0
210
-0.0000151432224327
220
0.0
230
0.9999999998853414
  0
LINE
  5
522
330
18
100
AcDbEntity
  8
1
100
AcDbLine
 10
-0.4934700000000057
 20
-18.91867
 30
0.0
 11
-1.062530000000002
 21
-18.91867
 31
0.00007
210
0.0001230098750051
220
0.0
230
0.9999999924342853
  0
LINE
  5
523
330
18
100
AcDbEntity
  8
1
100
AcDbLine
 10
-1.999929999999999
 20
19.14867
 30
-0.00007
 11
-23.99999999999999
 21
18.08616577472409
 31
0.0000132431931339
210
0.0000037749645333
220
0.0000001823137729
230
0.9999999999928581
  0
LINE
  5
525
330
18
100
AcDbEntity
  8
1
  6
CONTINUOUS
 62
     4
100
AcDbLine
 10
21.37747
 20
-25.0
 30
0.0
 11
21.37747
 21
25.0
 31
0.0
  0
LINE
  5
526
330
18
100
AcDbEntity
  8
1
  6
CONTINUOUS
 62
     4
100
AcDbLine
 10
19.875
 20
-22.25
 30
0.0
 11
19.875
 21
22.39767
 31
0.0
  0
LINE
  5
527
330
18
100
AcDbEntity
  8
1
  6
CONTINUOUS
 62
     4
100
AcDbLine
 10
16.12519052475414
 20
-22.23309583390036
 30
0.0
 11
16.125
 21
22.39759999999999
 31
0.0
  0
LINE
  5
528
330
18
100
AcDbEntity
  8
1
  6
CONTINUOUS
 62
     4
100
AcDbLine
 10
14.62253
 20
-25.0
 30
0.0
 11
14.62253
 21
25.0
 31
0.0
  0
LINE
  5
529
330
18
100
AcDbEntity
  8
SK4
100
AcDbLine
 10
18.0
 20
25.0
 30
0.0
 11
18.0
 21
-25.0
 31
0.0
  0
ARC
  5
52A
330
18
100
AcDbEntity
  8
1
  6
CONTINUOUS
 62
     4
100
AcDbCircle
 10
16.875
 20
-22.25
 30
0.0
 40
0.75
100
AcDbArc
 50
90.00000000000003
 51
180.0
  0
ARC
  5
52B
330
18
100
AcDbEntity
  8
1
  6
CONTINUOUS
 62
     4
100
AcDbCircle
 10
19.125
 20
-22.25
 30
0.0
 40
0.75
100
AcDbArc
 50
359.9999999764968
 51
89.99999997649688
  0
LINE
  5
52C
330
18
100
AcDbEntity
  8
1
  6
CONTINUOUS
 62
     4
100
AcDbLine
 10
0.0000000000000036
 20
-25.0
 30
0.0
 11
0.0000000000000036
 21
25.00007
 31
0.0
  0
TEXT
  5
52D
330
18
100
AcDbEntity
  8
6
100
AcDbText
 10
-24.0
 20
-23.75
 30
0.0
 40
3.5
  1
HSK 50-E
 41
0.7
  7
SIMPLEX
100
AcDbText
  0
LINE
  5
52E
330
18
100
AcDbEntity
  8
SK3
100
AcDbLine
 10
7.000100529798884
 20
-21.0
 30
0.0
 11
7.000119678506684
 21
-25.00003648949412
 31
0.0
  0
LINE
  5
52F
330
18
100
AcDbEntity
  8
1
  6
CONTINUOUS
 62
     4
100
AcDbLine
 10
14.62253
 20
-25.0
 30
0.0
 11
0.0000000000000036
 21
-25.0
 31
0.0
  0
LINE
  5
530
330
18
100
AcDbEntity
  8
1
  6
CONTINUOUS
 62
     4
100
AcDbLine
 10
16.125
 20
-22.39759999999999
 30
0.0
 11
14.62253
 21
-25.0
 31
0.0
  0
LINE
  5
531
330
18
100
AcDbEntity
  8
1
  6
CONTINUOUS
 62
     4
100
AcDbLine
 10
26.0
 20
-25.0
 30
0.0
 11
21.37747
 21
-25.0
 31
0.0
  0
LINE
  5
532
330
18
100
AcDbEntity
  8
1
  6
CONTINUOUS
 62
     4
100
AcDbLine
 10
19.875
 20
-22.39767
 30
0.0
 11
21.37747
 21
-25.0
 31
0.0
  0
LINE
  5
533
330
18
100
AcDbEntity
  8
SK3
  6
HIDDEN
 62
     1
100
AcDbLine
 10
18.0
 20
-8.0
 30
0.0
 11
10.0
 21
-8.0
 31
0.0
  0
LINE
  5
534
330
18
100
AcDbEntity
  8
SK3
  6
HIDDEN
 62
     1
100
AcDbLine
 10
18.0
 20
8.0
 30
0.0
 11
10.0
 21
8.0
 31
0.0
  0
LINE
  5
535
330
18
100
AcDbEntity
  8
SK3
  6
HIDDEN
 62
     1
100
AcDbLine
 10
18.0
 20
-6.95
 30
0.0
 11
10.0
 21
-6.95
 31
0.0
  0
LINE
  5
536
330
18
100
AcDbEntity
  8
SK3
  6
HIDDEN
 62
     1
100
AcDbLine
 10
18.0
 20
6.95
 30
0.0
 11
10.00007
 21
6.95
 31
0.0
  0
LINE
  5
537
330
18
100
AcDbEntity
  8
1
  6
CONTINUOUS
 62
     4
100
AcDbLine
 10
14.62253
 20
25.0
 30
0.0
 11
0.0000000000000036
 21
25.00007
 31
0.0
  0
LINE
  5
538
330
18
100
AcDbEntity
  8
SK3
100
AcDbLine
 10
26.0
 20
-21.0
 30
0.0
 11
7.000100529798884
 21
-21.0
 31
0.0
  0
LINE
  5
539
330
18
100
AcDbEntity
  8
SK3
100
AcDbLine
 10
26.0
 20
21.0
 30
0.0
 11
6.999899470201123
 21
21.0
 31
0.0
  0
LINE
  5
53A
330
18
100
AcDbEntity
  8
SK3
  6
HIDDEN
 62
     1
100
AcDbLine
 10
10.0
 20
-13.0
 30
0.0
 11
10.0
 21
13.0
 31
0.0
  0
LINE
  5
53B
330
18
100
AcDbEntity
  8
SK3
  6
HIDDEN
 62
     1
100
AcDbLine
 10
-14.99599999999999
 20
13.0
 30
0.0
 11
-14.99599999999999
 21
-13.0
 31
0.0
  0
LINE
  5
53C
330
18
100
AcDbEntity
  8
1
100
AcDbLine
 10
-1.999929999999995
 20
19.14867
 30
-0.00007
 11
-1.999999999999996
 21
-19.14867
 31
0.0
210
0.0000000000033409
220
0.0000018278031842
230
0.9999999999983295
  0
LINE
  5
53D
330
18
100
AcDbEntity
  8
SK3
  6
HIDDEN
 62
     1
100
AcDbLine
 10
-20.49999999999999
 20
-12.99999999999999
 30
-0.0000613662192522
 11
-20.49999999999999
 21
-17.25693
 31
-0.00007
210
0.0
220
-0.0000020281707117
230
0.9999999999979433
  0
LINE
  5
53E
330
18
100
AcDbEntity
  8
SK3
  6
HIDDEN
 62
     1
100
AcDbLine
 10
-23.99999999999999
 20
-13.0
 30
0.0
 11
-25.00000576897779
 21
-13.57733376538907
 31
0.0
  0
ARC
  5
53F
330
18
100
AcDbEntity
  8
SK3
  6
HIDDEN
 62
     1
100
AcDbCircle
 10
-5.196270922272955
 20
-10.00019774732127
 30
0.0
 40
6.000005111352547
100
AcDbArc
 50
270.0001875478394
 51
329.9997113082697
  0
ARC
  5
540
330
18
100
AcDbEntity
  8
1
100
AcDbCircle
 10
-0.4934496232285568
 20
-19.51868068168483
 30
0.0
 40
0.6000106820308404
100
AcDbArc
 50
34.67408966131685
 51
90.0019458272011
  0
LINE
  5
541
330
18
100
AcDbEntity
  8
1
100
AcDbLine
 10
-1.217869999999997
 20
-18.93912999999999
 30
0.0
 11
-1.999999999999996
 21
-19.14867
 31
0.0
  0
ARC
  5
542
330
18
100
AcDbEntity
  8
1
100
AcDbCircle
 10
-1.062581080444541
 20
-19.51866750853132
 30
0.0
 40
0.5999975088296128
100
AcDbArc
 50
90.0018066919646
 51
105.0057476428854
  0
LINE
  5
543
330
18
100
AcDbEntity
  8
SK3
  6
HIDDEN
 62
     1
100
AcDbLine
 10
0.1006700000000045
 20
-19.60219999999999
 30
0.0
 11
0.0000000000000036
 21
-20.31867
 31
0.0
  0
ARC
  5
544
330
18
100
AcDbEntity
  8
SK3
  6
HIDDEN
 62
     1
100
AcDbCircle
 10
-0.4929501584317784
 20
-19.51939881801079
 30
0.0
 40
0.6000080531302047
100
AcDbArc
 50
351.9934144552637
 51
34.66656226199427
  0
LINE
  5
545
330
18
100
AcDbEntity
  8
SK3
  6
HIDDEN
 62
     1
100
AcDbLine
 10
10.0
 20
-13.0
 30
0.0
 11
0.0000000000000036
 21
-13.0
 31
0.0
  0
LINE
  5
546
330
18
100
AcDbEntity
  8
SK3
  6
HIDDEN
 62
     1
100
AcDbLine
 10
-14.99599999999999
 20
13.0
 30
0.0
 11
-13.26392999999999
 21
16.0
 31
0.0
  0
LINE
  5
547
330
18
100
AcDbEntity
  8
SK3
  6
HIDDEN
 62
     1
100
AcDbLine
 10
-14.99599999999999
 20
13.0
 30
0.0
 11
-23.99999999999999
 21
13.0
 31
0.0
  0
LINE
  5
548
330
18
100
AcDbEntity
  8
SK3
  6
HIDDEN
 62
     1
100
AcDbLine
 10
-23.99999999999999
 20
13.0
 30
0.0
 11
-25.00000576897779
 21
13.57733376538907
 31
0.0
  0
LINE
  5
549
330
18
100
AcDbEntity
  8
SK3
  6
HIDDEN
 62
     1
100
AcDbLine
 10
-20.49999999999999
 20
17.25692999999999
 30
0.0
 11
-20.49999999999999
 21
12.99999999999999
 31
-0.0000086337807478
210
0.0
220
-0.0000020281707117
230
0.9999999999979433
  0
ARC
  5
54A
330
18
100
AcDbEntity
  8
SK3
  6
HIDDEN
 62
     1
100
AcDbCircle
 10
-5.196140921997528
 20
9.999989901490369
 30
0.0
 40
5.999996450951716
100
AcDbArc
 50
29.99995448918713
 51
89.99986022232636
  0
ARC
  5
54B
330
18
100
AcDbEntity
  8
1
100
AcDbCircle
 10
-0.4934496232285568
 20
19.51868068168483
 30
0.0
 40
0.6000106820308404
100
AcDbArc
 50
269.998054196302
 51
325.3259103621863
  0
LINE
  5
54C
330
18
100
AcDbEntity
  8
1
100
AcDbLine
 10
-1.217869999999994
 20
18.93912999999999
 30
0.0
 11
-1.999929999999991
 21
19.14867
 31
-0.00007
210
-0.0000835120123381
220
0.0000223756579614
230
0.9999999962625368
  0
LINE
  5
54D
330
18
100
AcDbEntity
  8
SK3
  6
HIDDEN
 62
     1
100
AcDbLine
 10
-5.196129999999996
 20
16.0
 30
0.0
 11
-13.26392999999999
 21
16.0
 31
0.0
  0
LINE
  5
54E
330
18
100
AcDbEntity
  8
1
100
AcDbLine
 10
-0.4934699999999986
 20
18.91867
 30
0.0
 11
-1.062529999999995
 21
18.91867
 31
0.0
  0
ARC
  5
54F
330
18
100
AcDbEntity
  8
1
100
AcDbCircle
 10
-1.062581080444541
 20
19.51866750853132
 30
0.0
 40
0.5999975088296128
100
AcDbArc
 50
254.9942523806176
 51
269.9981933315384
  0
ARC
  5
550
330
18
100
AcDbEntity
  8
1
100
AcDbCircle
 10
-1.062520910845051
 20
19.51866880299761
 30
0.0
 40
0.599998803066455
100
AcDbArc
 50
254.99426874259
 51
269.9991320714089
  0
LINE
  5
551
330
18
100
AcDbEntity
  8
SK3
  6
HIDDEN
 62
     1
100
AcDbLine
 10
0.1006700000000045
 20
19.60219999999999
 30
0.0
 11
0.0000000000000036
 21
20.31867
 31
0.0
  0
LINE
  5
552
330
18
100
AcDbEntity
  8
SK3
  6
HIDDEN
 62
     1
100
AcDbLine
 10
10.0
 20
13.0
 30
0.0
 11
0.0000000000000036
 21
13.0
 31
0.0
  0
LINE
  5
553
330
18
100
AcDbEntity
  8
SK3
100
AcDbLine
 10
6.999880321668003
 20
25.0
 30
0.0
 11
6.999899470201123
 21
21.0
 31
0.0
  0
LINE
  5
554
330
18
100
AcDbEntity
  8
SK3
  6
HIDDEN
 62
     1
100
AcDbLine
 10
20.0
 20
-8.25
 30
0.0
 11
20.0
 21
8.25
 31
0.0
  0
LINE
  5
555
330
18
100
AcDbEntity
  8
1
  6
CONTINUOUS
 62
     4
100
AcDbLine
 10
19.125
 20
-21.49999999999999
 30
0.0
 11
16.875
 21
-21.49999999999999
 31
0.0
  0
LINE
  5
556
330
18
100
AcDbEntity
  8
SK3
  6
HIDDEN
 62
     1
100
AcDbLine
 10
20.0
 20
-8.25
 30
0.0
 11
18.0
 21
-8.25
 31
0.0
  0
ARC
  5
557
330
18
100
AcDbEntity
  8
1
  6
CONTINUOUS
 62
     4
100
AcDbCircle
 10
19.125000102973
 20
22.249999794054
 30
-0.0002139999816708
 40
0.75
210
0.000088999999295
220
-0.000088999999295
230
0.9999999920790001
100
AcDbArc
 50
270.0
 51
0.0
  0
LINE
  5
558
330
18
100
AcDbEntity
  8
1
  6
CONTINUOUS
 62
     4
100
AcDbLine
 10
19.125
 20
21.49999999999999
 30
0.0
 11
16.875
 21
21.49999999999999
 31
0.0
  0
ARC
  5
559
330
18
100
AcDbEntity
  8
1
  6
CONTINUOUS
 62
     4
100
AcDbCircle
 10
16.875
 20
22.25
 30
0.0
 40
0.75
100
AcDbArc
 50
179.9999999764968
 51
269.9999999764969
  0
LINE
  5
55A
330
18
100
AcDbEntity
  8
1
  6
CONTINUOUS
 62
     4
100
AcDbLine
 10
16.125
 20
22.39759999999999
 30
0.0
 11
14.62253
 21
25.0
 31
0.0
  0
LINE
  5
55B
330
18
100
AcDbEntity
  8
1
  6
CONTINUOUS
 62
     4
100
AcDbLine
 10
19.875
 20
22.39767
 30
0.0
 11
21.37747
 21
25.0
 31
0.0
  0
LINE
  5
55C
330
18
100
AcDbEntity
  8
SK3
  6
HIDDEN
 62
     1
100
AcDbLine
 10
-23.99999999999999
 20
-13.0
 30
0.0000578423090523
 11
-24.0
 21
13.0
 31
0.0000011935698696
210
0.0
220
0.0000026923076923
230
0.9999999999963758
  0
ARC
  5
55D
330
18
100
AcDbEntity
  8
1
100
AcDbCircle
 10
-23.99999999999998
 20
-17.08616577472408
 30
0.0000132431931339
 40
1.000000000000007
100
AcDbArc
 50
180.0000000000004
 51
269.9999999999996
  0
ARC
  5
55E
330
18
100
AcDbEntity
  8
1
100
AcDbCircle
 10
-23.99999999999998
 20
17.08616577472408
 30
0.0000132431931339
 40
1.000000000000007
100
AcDbArc
 50
90.00000000000039
 51
179.9999999999996
  0
LINE
  5
59F
330
18
100
AcDbEntity
  8
SK2
100
AcDbLine
 10
0.0000000000000036
 20
-25.0
 30
0.0
 11
-45.00000000000001
 21
-24.99999999999998
 31
0.0
  0
LINE
  5
5A0
330
18
100
AcDbEntity
  8
SK2
100
AcDbLine
 10
0.0000000000000036
 20
25.00007
 30
0.0
 11
-45.0
 21
25.00007000000001
 31
0.0
  0
LINE
  5
5A1
330
18
100
AcDbEntity
  8
SK2
100
AcDbLine
 10
-40.00000000000001
 20
-20.42999999999998
 30
0.0
 11
-40.0
 21
20.43007000000001
 31
0.0
  0
SOLID
  5
5A2
330
18
100
AcDbEntity
  8
SK2
100
AcDbTrace
 10
-40.76166666666668
 20
-20.42999999999998
 30
0.0
 11
-39.23833333333335
 21
-20.42999999999998
 31
0.0
 12
-40.00000000000001
 22
-24.99999999999998
 32
0.0
 13
-40.00000000000001
 23
-24.99999999999998
 33
0.0
  0
SOLID
  5
5A3
330
18
100
AcDbEntity
  8
SK2
100
AcDbTrace
 10
-40.76166666666666
 20
20.43007000000001
 30
0.0
 11
-39.23833333333334
 21
20.43007000000001
 31
0.0
 12
-40.0
 22
25.00007000000001
 32
0.0
 13
-40.0
 23
25.00007000000001
 33
0.0
  0
LINE
  5
5A5
330
18
100
AcDbEntity
  8
2
100
AcDbLine
 10
0.0000000000000036
 20
25.00007
 30
0.0
 11
0.000000000000006
 21
65.0
 31
0.0
  0
LINE
  5
5A6
330
18
100
AcDbEntity
  8
2
100
AcDbLine
 10
26.0
 20
25.0
 30
0.0
 11
26.0
 21
65.0
 31
0.0
  0
LINE
  5
5A7
330
18
100
AcDbEntity
  8
2
100
AcDbLine
 10
4.570000000000005
 20
60.0
 30
0.0
 11
21.43
 21
60.0
 31
0.0
  0
SOLID
  5
5A8
330
18
100
AcDbEntity
  8
2
100
AcDbTrace
 10
4.570000000000005
 20
60.76166666666667
 30
0.0
 11
4.570000000000005
 21
59.23833333333333
 31
0.0
 12
0.0000000000000057
 22
60.0
 32
0.0
 13
0.0000000000000057
 23
60.0
 33
0.0
  0
SOLID
  5
5A9
330
18
100
AcDbEntity
  8
2
100
AcDbTrace
 10
21.43
 20
60.76166666666667
 30
0.0
 11
21.43
 21
59.23833333333333
 31
0.0
 12
26.0
 22
60.0
 32
0.0
 13
26.0
 23
60.0
 33
0.0
  0
LINE
  5
5AB
330
18
100
AcDbEntity
  8
SK2
100
AcDbLine
 10
0.0000000000000036
 20
25.00007
 30
0.0
 11
0.0000000000000069
 21
80.0
 31
0.0
  0
LINE
  5
5AC
330
18
100
AcDbEntity
  8
SK2
100
AcDbLine
 10
-25.0
 20
17.832662515636
 30
0.0
 11
-24.99999999999999
 21
80.0
 31
0.0
  0
LINE
  5
5AD
330
18
100
AcDbEntity
  8
SK2
100
AcDbLine
 10
-4.569999999999994
 20
75.0
 30
0.0
 11
-20.42999999999999
 21
75.0
 31
0.0
  0
SOLID
  5
5AE
330
18
100
AcDbEntity
  8
SK2
100
AcDbTrace
 10
-4.569999999999994
 20
75.76166666666667
 30
0.0
 11
-4.569999999999994
 21
74.23833333333333
 31
0.0
 12
0.0000000000000066
 22
75.0
 32
0.0
 13
0.0000000000000066
 23
75.0
 33
0.0
  0
SOLID
  5
5AF
330
18
100
AcDbEntity
  8
SK2
100
AcDbTrace
 10
-20.42999999999999
 20
75.76166666666667
 30
0.0
 11
-20.42999999999999
 21
74.23833333333333
 31
0.0
 12
-24.99999999999999
 22
75.0
 32
0.0
 13
-24.99999999999999
 23
75.0
 33
0.0
  0
LINE
  5
5B1
330
18
100
AcDbEntity
  8
SK2
100
AcDbLine
 10
43.99999999999998
 20
-9.579999999999998
 30
0.0
 11
43.99999999999998
 21
-30.0
 31
0.0
  0
LINE
  5
5B2
330
18
100
AcDbEntity
  8
SK2
100
AcDbLine
 10
53.99999999999998
 20
-9.579999999999998
 30
0.0
 11
53.99999999999998
 21
-30.0
 31
0.0
  0
LINE
  5
5B3
330
18
100
AcDbEntity
  8
SK2
100
AcDbLine
 10
39.42999999999998
 20
-25.0
 30
0.0
 11
34.85999999999998
 21
-25.0
 31
0.0
  0
LINE
  5
5B4
330
18
100
AcDbEntity
  8
SK2
100
AcDbLine
 10
58.56999999999999
 20
-25.0
 30
0.0
 11
74.26857142857142
 21
-25.0
 31
0.0
  0
SOLID
  5
5B5
330
18
100
AcDbEntity
  8
SK2
100
AcDbTrace
 10
39.42999999999998
 20
-24.23833333333333
 30
0.0
 11
39.42999999999998
 21
-25.76166666666666
 31
0.0
 12
43.99999999999998
 22
-25.0
 32
0.0
 13
43.99999999999998
 23
-25.0
 33
0.0
  0
SOLID
  5
5B6
330
18
100
AcDbEntity
  8
SK2
100
AcDbTrace
 10
58.56999999999999
 20
-24.23833333333333
 30
0.0
 11
58.56999999999999
 21
-25.76166666666666
 31
0.0
 12
53.99999999999998
 22
-25.0
 32
0.0
 13
53.99999999999998
 23
-25.0
 33
0.0
  0
LINE
  5
5B8
330
18
100
AcDbEntity
  8
SK2
100
AcDbLine
 10
43.99999999999998
 20
-9.579999999999998
 30
0.0
 11
43.99999999999998
 21
-45.0
 31
0.0
  0
LINE
  5
5B9
330
18
100
AcDbEntity
  8
SK2
100
AcDbLine
 10
79.99995955868756
 20
-9.571006614134134
 30
0.0
 11
79.99995955868756
 21
-45.0
 31
0.0
  0
LINE
  5
5BA
330
18
100
AcDbEntity
  8
SK2
100
AcDbLine
 10
48.56999999999999
 20
-40.0
 30
0.0
 11
75.42995955868756
 21
-40.0
 31
0.0
  0
SOLID
  5
5BB
330
18
100
AcDbEntity
  8
SK2
100
AcDbTrace
 10
48.56999999999999
 20
-39.23833333333332
 30
0.0
 11
48.56999999999999
 21
-40.76166666666667
 31
0.0
 12
43.99999999999998
 22
-40.0
 32
0.0
 13
43.99999999999998
 23
-40.0
 33
0.0
  0
SOLID
  5
5BC
330
18
100
AcDbEntity
  8
SK2
100
AcDbTrace
 10
75.42995955868756
 20
-39.23833333333332
 30
0.0
 11
75.42995955868756
 21
-40.76166666666667
 31
0.0
 12
79.99995955868756
 22
-40.0
 32
0.0
 13
79.99995955868756
 23
-40.0
 33
0.0
  0
LINE
  5
5BE
330
18
100
AcDbEntity
  8
SK2
100
AcDbLine
 10
41.44999999999998
 20
13.5
 30
0.0
 11
20.36778528573984
 21
15.14153306172687
 31
0.0
  0
ARC
  5
5BF
330
18
100
AcDbEntity
  8
SK2
100
AcDbCircle
 10
41.44999999999998
 20
13.5
 30
0.0
 40
16.14602582167413
100
AcDbArc
 50
142.6640739772572
 51
175.5477384983327
  0
LINE
  5
5C0
330
18
100
AcDbEntity
  8
SK2
100
AcDbLine
 10
28.61240218886681
 20
23.29235580816775
 30
0.0
 11
38.52933210782729
 21
36.29326798035617
 31
0.0
  0
ARC
  5
5C1
330
18
100
AcDbEntity
  8
SK2
100
AcDbCircle
 10
41.44999999999998
 20
13.5
 30
0.0
 40
16.14602582167413
100
AcDbArc
 50
143.0042850643129
 51
159.2760117813228
  0
ARC
  5
5C2
330
18
100
AcDbEntity
  8
SK2
100
AcDbCircle
 10
41.44999999999998
 20
13.5
 30
0.0
 40
16.14602582167413
100
AcDbArc
 50
196.2717267170098
 51
212.5434534340198
  0
SOLID
  5
5C3
330
18
100
AcDbEntity
  8
SK2
100
AcDbTrace
 10
27.09204499366832
 20
19.04753860286937
 30
0.0
 11
25.60532961797594
 21
19.37953534400445
 31
0.0
 12
25.35269708241688
 22
14.75339084635978
 32
0.0
 13
25.35269708241688
 23
14.75339084635978
 33
0.0
  0
SOLID
  5
5C4
330
18
100
AcDbEntity
  8
SK2
100
AcDbTrace
 10
25.19672396488759
 20
8.868204073706555
 30
0.0
 11
26.70472535792537
 21
9.083787568066764
 31
0.0
 12
25.30397417832585
 22
13.5
 32
0.0
 13
25.30397417832585
 23
13.5
 33
0.0
  0
LINE
  5
5C6
330
18
100
AcDbEntity
  8
2
100
AcDbLine
 10
0.0000052588630614
 20
22.22500892674834
 30
0.0
 11
0.0000052588630649
 21
80.0
 31
0.0
  0
LINE
  5
5C7
330
18
100
AcDbEntity
  8
2
100
AcDbLine
 10
79.99999999999999
 20
9.560000000000002
 30
0.0
 11
79.99999999999999
 21
80.0
 31
0.0
  0
LINE
  5
5C8
330
18
100
AcDbEntity
  8
2
100
AcDbLine
 10
4.570005258863065
 20
75.0
 30
0.0
 11
75.42999999999998
 21
75.0
 31
0.0
  0
SOLID
  5
5C9
330
18
100
AcDbEntity
  8
2
100
AcDbTrace
 10
4.570005258863065
 20
75.76166666666667
 30
0.0
 11
4.570005258863065
 21
74.23833333333333
 31
0.0
 12
0.0000052588630646
 22
75.0
 32
0.0
 13
0.0000052588630646
 23
75.0
 33
0.0
  0
SOLID
  5
5CA
330
18
100
AcDbEntity
  8
2
100
AcDbTrace
 10
75.42999999999998
 20
75.76166666666667
 30
0.0
 11
75.42999999999998
 21
74.23833333333333
 31
0.0
 12
79.99999999999999
 22
75.0
 32
0.0
 13
79.99999999999999
 23
75.0
 33
0.0
  0
TEXT
  5
5CC
330
18
100
AcDbEntity
  8
2
100
AcDbText
 10
36.30047881990771
 20
77.3
 30
0.0
 40
4.57
  1
80
  7
SIMPLEX
100
AcDbText
  0
TEXT
  5
5CD
330
18
100
AcDbEntity
  8
SK2
100
AcDbText
 10
28.17860772549996
 20
26.51599076944242
 30
0.0
 40
4.57
  1
4.5°
 50
52.66407397725725
  7
SIMPLEX
100
AcDbText
  0
TEXT
  5
5CE
330
18
100
AcDbEntity
  8
SK2
100
AcDbText
 10
58.40926549362949
 20
-37.69999999999999
 30
0.0
 40
4.57
  1
36
  7
SIMPLEX
100
AcDbText
  0
TEXT
  5
5CF
330
18
100
AcDbEntity
  8
SK2
100
AcDbText
 10
65.43999999999998
 20
-22.7
 30
0.0
 40
4.57
  1
10
  7
SIMPLEX
100
AcDbText
  0
TEXT
  5
5D0
330
18
100
AcDbEntity
  8
SK2
100
AcDbText
 10
-16.1995238095238
 20
77.3
 30
0.0
 40
4.57
  1
25
  7
SIMPLEX
100
AcDbText
  0
TEXT
  5
5D1
330
18
100
AcDbEntity
  8
2
100
AcDbText
 10
9.40928571428572
 20
62.30000000000001
 30
0.0
 40
4.57
  1
26
  7
SIMPLEX
100
AcDbText
  0
TEXT
  5
5D2
330
18
100
AcDbEntity
  8
SK2
100
AcDbText
 10
-42.30000000000001
 20
-5.766869761904754
 30
0.0
 40
4.57
  1
%%c
 50
90.0
  7
SIMPLEX
100
AcDbText
  0
TEXT
  5
5D3
330
18
100
AcDbEntity
  8
SK2
100
AcDbText
 10
-42.30000000000001
 20
-1.632107857142849
 30
0.0
 40
4.57
  1
50
 50
90.0
  7
SIMPLEX
100
AcDbText
  0
TEXT
  5
5D4
330
18
100
AcDbEntity
  8
SK2
100
AcDbText
 10
92.33587359960052
 20
-3.588214285714268
 30
0.0
 40
4.57
  1
%%c
 50
90.0
  7
SIMPLEX
100
AcDbText
  0
TEXT
  5
5D5
330
18
100
AcDbEntity
  8
SK2
100
AcDbText
 10
92.33587359960052
 20
0.5465476190476362
 30
0.0
 40
4.57
  1
8
 50
90.0
  7
SIMPLEX
100
AcDbText
  0
TEXT
  5
5D6
330
18
100
AcDbEntity
  8
SK2
100
AcDbText
 10
117.7
 20
-5.766904761904765
 30
0.0
 40
4.57
  1
%%c
 50
90.0
  7
SIMPLEX
100
AcDbText
  0
TEXT
  5
5D7
330
18
100
AcDbEntity
  8
SK2
100
AcDbText
 10
117.7
 20
-1.63214285714286
 30
0.0
 40
4.57
  1
27
 50
90.0
  7
SIMPLEX
100
AcDbText
  0
TEXT
  5
5D8
330
18
100
AcDbEntity
  8
SK2
100
AcDbText
 10
102.7
 20
-4.787619047619037
 30
0.0
 40
4.57
  1
%%c
 50
90.0
  7
SIMPLEX
100
AcDbText
  0
TEXT
  5
5D9
330
18
100
AcDbEntity
  8
SK2
100
AcDbText
 10
102.7
 20
-0.6528571428571333
 30
0.0
 40
4.57
  1
21
 50
90.0
  7
SIMPLEX
100
AcDbText
  0
ENDSEC
  0
SECTION
  2
OBJECTS
  0
DICTIONARY
  5
C
330
0
100
AcDbDictionary
  3
ACAD_GROUP
350
D
  3
ACAD_LAYOUT
350
301
  3
ACAD_MLINESTYLE
350
E
  3
ACAD_PLOTSETTINGS
350
302
1001
ACAD
1000
TREAT_AS_HARD
1070
     0
  0
DICTIONARY
  5
5DB
330
18
100
AcDbDictionary
  3
ACAD_LAYOUTSELFREF
350
5DC
  0
DICTIONARY
  5
5DD
330
338
100
AcDbDictionary
  3
ACAD_LAYOUTSELFREF
350
5DE
  0
DICTIONARY
  5
D
102
{ACAD_REACTORS
330
C
102
}
330
C
100
AcDbDictionary
1001
ACAD
1000
TREAT_AS_HARD
1070
     0
  0
DICTIONARY
  5
301
102
{ACAD_REACTORS
330
C
102
}
330
C
100
AcDbDictionary
1001
ACAD
1000
TREAT_AS_HARD
1070
     0
  0
DICTIONARY
  5
E
102
{ACAD_REACTORS
330
C
102
}
330
C
100
AcDbDictionary
  3
STANDARD
350
1B
1001
ACAD
1000
TREAT_AS_HARD
1070
     0
  0
DICTIONARY
  5
302
102
{ACAD_REACTORS
330
C
102
}
330
C
100
AcDbDictionary
1001
ACAD
1000
TREAT_AS_HARD
1070
     0
  0
XRECORD
  5
5DC
102
{ACAD_REACTORS
330
5DB
102
}
330
5DB
100
AcDbXrecord
340
18
  0
XRECORD
  5
5DE
102
{ACAD_REACTORS
330
5DD
102
}
330
5DD
100
AcDbXrecord
340
338
  0
MLINESTYLE
  5
1B
102
{ACAD_REACTORS
330
E
102
}
330
E
100
AcDbMlineStyle
  2
STANDARD
 70
     0
  3

 62
     0
 51
90.0
 52
90.0
 71
     2
 49
0.5
 62
   256
  6
BYLAYER
 49
-0.5
 62
   256
  6
BYLAYER
  0
ENDSEC
  0
EOF
