  0
SECTION
  2
HEADER
  9
$ACADVER
  1
AC1012
  9
$DWGCODEPAGE
  3
ANSI_1252
  9
$INSBASE
 10
0.0
 20
0.0
 30
0.0
  9
$EXTMIN
 10
-41.9163953414145
 20
-45.02075080645818
 30
-0.0015258207003583
  9
$EXTMAX
 10
125.0348979961534
 20
81.8743904422438
 30
0.0000000349246037
  9
$LIMMIN
 10
-170.0
 20
-170.0
  9
$LIMMAX
 10
519.0
 20
260.0
  9
$ORTHOMODE
 70
     0
  9
$REGENMODE
 70
     1
  9
$FILLMODE
 70
     1
  9
$QTEXTMODE
 70
     0
  9
$MIRRTEXT
 70
     0
  9
$DRAGMODE
 70
     2
  9
$LTSCALE
 40
15.0
  9
$OSMODE
 70
     0
  9
$ATTMODE
 70
     1
  9
$TEXTSIZE
 40
4.57
  9
$TRACEWID
 40
0.05
  9
$TEXTSTYLE
  7
SIMPLEX
  9
$CLAYER
  8
SK2
  9
$CELTYPE
  6
BYLAYER
  9
$CECOLOR
 62
   256
  9
$CELTSCALE
 40
1.0
  9
$DELOBJ
 70
     1
  9
$DISPSILH
 70
     0
  9
$DIMSCALE
 40
0.0
  9
$DIMASZ
 40
4.57
  9
$DIMEXO
 40
0.0
  9
$DIMDLI
 40
0.38
  9
$DIMRND
 40
0.0
  9
$DIMDLE
 40
0.0
  9
$DIMEXE
 40
5.0
  9
$DIMTP
 40
0.0
  9
$DIMTM
 40
0.0
  9
$DIMTXT
 40
4.57
  9
$DIMCEN
 40
0.09
  9
$DIMTSZ
 40
0.0
  9
$DIMTOL
 70
     0
  9
$DIMLIM
 70
     0
  9
$DIMTIH
 70
     0
  9
$DIMTOH
 70
     0
  9
$DIMSE1
 70
     0
  9
$DIMSE2
 70
     0
  9
$DIMTAD
 70
     1
  9
$DIMZIN
 70
     8
  9
$DIMBLK
  1

  9
$DIMASO
 70
     1
  9
$DIMSHO
 70
     1
  9
$DIMPOST
  1

  9
$DIMAPOST
  1

  9
$DIMALT
 70
     0
  9
$DIMALTD
 70
     2
  9
$DIMALTF
 40
25.4
  9
$DIMLFAC
 40
1.0
  9
$DIMTOFL
 70
     0
  9
$DIMTVP
 40
0.0
  9
$DIMTIX
 70
     0
  9
$DIMSOXD
 70
     0
  9
$DIMSAH
 70
     0
  9
$DIMBLK1
  1

  9
$DIMBLK2
  1

  9
$DIMSTYLE
  2
STANDARD
  9
$DIMCLRD
 70
     0
  9
$DIMCLRE
 70
     0
  9
$DIMCLRT
 70
     0
  9
$DIMTFAC
 40
1.0
  9
$DIMGAP
 40
2.299999999999999
  9
$DIMJUST
 70
     0
  9
$DIMSD1
 70
     0
  9
$DIMSD2
 70
     0
  9
$DIMTOLJ
 70
     1
  9
$DIMTZIN
 70
     0
  9
$DIMALTZ
 70
     0
  9
$DIMALTTZ
 70
     0
  9
$DIMFIT
 70
     3
  9
$DIMUPT
 70
     0
  9
$DIMUNIT
 70
     2
  9
$DIMDEC
 70
     2
  9
$DIMTDEC
 70
     4
  9
$DIMALTU
 70
     2
  9
$DIMALTTD
 70
     2
  9
$DIMTXSTY
  7
SIMPLEX
  9
$DIMAUNIT
 70
     0
  9
$LUNITS
 70
     2
  9
$LUPREC
 70
     2
  9
$SKETCHINC
 40
0.1
  9
$FILLETRAD
 40
0.0
  9
$AUNITS
 70
     0
  9
$AUPREC
 70
     0
  9
$MENU
  1
c:\tdm21\cad\caduti13\tdm13
  9
$ELEVATION
 40
0.0
  9
$PELEVATION
 40
0.0
  9
$THICKNESS
 40
0.0
  9
$LIMCHECK
 70
     0
  9
$BLIPMODE
 70
     0
  9
$CHAMFERA
 40
0.0
  9
$CHAMFERB
 40
0.0
  9
$CHAMFERC
 40
0.0
  9
$CHAMFERD
 40
0.0
  9
$SKPOLY
 70
     0
  9
$TDCREATE
 40
2452551.735063194
  9
$TDUPDATE
 40
2452551.735063194
  9
$TDINDWG
 40
0.0002218750
  9
$TDUSRTIMER
 40
0.0002218750
  9
$USRTIMER
 70
     1
  9
$ANGBASE
 50
0.0
  9
$ANGDIR
 70
     0
  9
$PDMODE
 70
     1
  9
$PDSIZE
 40
0.0
  9
$PLINEWID
 40
0.0
  9
$COORDS
 70
     1
  9
$SPLFRAME
 70
     0
  9
$SPLINETYPE
 70
     6
  9
$SPLINESEGS
 70
     8
  9
$ATTDIA
 70
     0
  9
$ATTREQ
 70
     1
  9
$HANDLING
 70
  4097
  9
$HANDSEED
  5
5CB
  9
$SURFTAB1
 70
     6
  9
$SURFTAB2
 70
     6
  9
$SURFTYPE
 70
     6
  9
$SURFU
 70
     6
  9
$SURFV
 70
     6
  9
$UCSNAME
  2

  9
$UCSORG
 10
0.0
 20
0.0
 30
0.0
  9
$UCSXDIR
 10
1.0
 20
0.0
 30
0.0
  9
$UCSYDIR
 10
0.0
 20
1.0
 30
0.0
  9
$PUCSNAME
  2

  9
$PUCSORG
 10
0.0
 20
0.0
 30
0.0
  9
$PUCSXDIR
 10
1.0
 20
0.0
 30
0.0
  9
$PUCSYDIR
 10
0.0
 20
1.0
 30
0.0
  9
$USERI1
 70
     0
  9
$USERI2
 70
     0
  9
$USERI3
 70
     0
  9
$USERI4
 70
     0
  9
$USERI5
 70
     0
  9
$USERR1
 40
0.0
  9
$USERR2
 40
0.0
  9
$USERR3
 40
0.0
  9
$USERR4
 40
0.0
  9
$USERR5
 40
0.0
  9
$WORLDVIEW
 70
     1
  9
$SHADEDGE
 70
     3
  9
$SHADEDIF
 70
    70
  9
$TILEMODE
 70
     1
  9
$MAXACTVP
 70
    16
  9
$PINSBASE
 10
0.0
 20
0.0
 30
0.0
  9
$PLIMCHECK
 70
     0
  9
$PEXTMIN
 10
0.0
 20
0.0
 30
0.0
  9
$PEXTMAX
 10
0.0
 20
0.0
 30
0.0
  9
$PLIMMIN
 10
0.0
 20
0.0
  9
$PLIMMAX
 10
12.0
 20
9.0
  9
$UNITMODE
 70
     0
  9
$VISRETAIN
 70
     0
  9
$PLINEGEN
 70
     0
  9
$PSLTSCALE
 70
     1
  9
$TREEDEPTH
 70
  3020
  9
$PICKSTYLE
 70
     1
  9
$CMLSTYLE
  2
STANDARD
  9
$CMLJUST
 70
     0
  9
$CMLSCALE
 40
1.0
  9
$SAVEIMAGES
 70
     1
  0
ENDSEC
  0
SECTION
  2
CLASSES
  0
CLASS
  1
ACDBDICTIONARYWDFLT
  2
AcDbDictionaryWithDefault
  3
AutoCAD 2000
 90
    32768
280
     0
281
     0
  0
CLASS
  1
ACDBPLACEHOLDER
  2
AcDbPlaceHolder
  3
AutoCAD 2000
 90
    32768
280
     0
281
     0
  0
CLASS
  1
LAYOUT
  2
AcDbLayout
  3
AutoCAD 2000
 90
    32768
280
     0
281
     0
  0
CLASS
  1
LONG_TRANSACTION
  2
AcDbLongTransaction
  3
AutoCAD 2000
 90
    32768
280
     0
281
     0
  0
CLASS
  1
LWPOLYLINE
  2
AcDbPolyline
  3
AutoCAD 2000
 90
    32768
280
     0
281
     1
  0
CLASS
  1
HATCH
  2
AcDbHatch
  3
AutoCAD 2000
 90
    32768
280
     0
281
     1
  0
CLASS
  1
XRECORD
  2
AcDbXrecord
  3
AutoCAD 2000
 90
    32768
280
     0
281
     0
  0
ENDSEC
  0
SECTION
  2
TABLES
  0
TABLE
  2
VPORT
  5
8
330
0
100
AcDbSymbolTable
 70
     3
  0
VPORT
  5
5AE
330
8
100
AcDbSymbolTableRecord
100
AcDbViewportTableRecord
  2
*ACTIVE
 70
     0
 10
0.0
 20
0.0
 11
1.0
 21
1.0
 12
41.55925132736948
 22
18.4268198178928
 13
0.0
 23
0.0
 14
5.0
 24
5.0
 15
5.0
 25
5.0
 16
0.0
 26
0.0
 36
1.0
 17
0.0
 27
0.0
 37
0.0
 40
136.8951412487019
 41
2.191693290734824
 42
50.0
 43
0.0
 44
0.0
 50
0.0
 51
0.0
 71
     0
 72
   100
 73
     1
 74
     1
 75
     0
 76
     0
 77
     0
 78
     0
  0
ENDTAB
  0
TABLE
  2
LTYPE
  5
5
330
0
100
AcDbSymbolTable
 70
     3
  0
LTYPE
  5
12
330
5
100
AcDbSymbolTableRecord
100
AcDbLinetypeTableRecord
  2
BYBLOCK
 70
     0
  3

 72
    65
 73
     0
 40
0.0
  0
LTYPE
  5
13
330
5
100
AcDbSymbolTableRecord
100
AcDbLinetypeTableRecord
  2
BYLAYER
 70
     0
  3

 72
    65
 73
     0
 40
0.0
  0
LTYPE
  5
14
330
5
100
AcDbSymbolTableRecord
100
AcDbLinetypeTableRecord
  2
CONTINUOUS
 70
     0
  3
Solid line
 72
    65
 73
     0
 40
0.0
  0
LTYPE
  5
1F
330
5
100
AcDbSymbolTableRecord
100
AcDbLinetypeTableRecord
  2
CENTER
 70
     0
  3
____ . ____ . ____
 72
    65
 73
     4
 40
1.5
 49
1.0
 74
     0
 49
-0.25
 74
     0
 49
0.0
 74
     0
 49
-0.25
 74
     0
  0
LTYPE
  5
20
330
5
100
AcDbSymbolTableRecord
100
AcDbLinetypeTableRecord
  2
HIDDEN
 70
     0
  3
_ _ _ _ _ _ _ _ _ _ _ _ _ _ _ _ _ _ _ _ _ _ _
 72
    65
 73
     2
 40
0.375
 49
0.25
 74
     0
 49
-0.125
 74
     0
  0
ENDTAB
  0
TABLE
  2
LAYER
  5
2
330
0
100
AcDbSymbolTable
 70
    15
  0
LAYER
  5
F
330
2
100
AcDbSymbolTableRecord
100
AcDbLayerTableRecord
  2
0
 70
     0
 62
     7
  6
CONTINUOUS
  0
LAYER
  5
23
330
2
100
AcDbSymbolTableRecord
100
AcDbLayerTableRecord
  2
1
 70
     0
 62
     4
  6
CONTINUOUS
  0
LAYER
  5
24
330
2
100
AcDbSymbolTableRecord
100
AcDbLayerTableRecord
  2
SK1
 70
     0
 62
     4
  6
CONTINUOUS
  0
LAYER
  5
25
330
2
100
AcDbSymbolTableRecord
100
AcDbLayerTableRecord
  2
2
 70
     0
 62
     7
  6
CONTINUOUS
  0
LAYER
  5
26
330
2
100
AcDbSymbolTableRecord
100
AcDbLayerTableRecord
  2
2L
 70
     0
 62
     7
  6
CONTINUOUS
  0
LAYER
  5
27
330
2
100
AcDbSymbolTableRecord
100
AcDbLayerTableRecord
  2
SK2
 70
     0
 62
     7
  6
CONTINUOUS
  0
LAYER
  5
28
330
2
100
AcDbSymbolTableRecord
100
AcDbLayerTableRecord
  2
3
 70
     0
 62
     1
  6
HIDDEN
  0
LAYER
  5
29
330
2
100
AcDbSymbolTableRecord
100
AcDbLayerTableRecord
  2
SK3
 70
     0
 62
     1
  6
HIDDEN
  0
LAYER
  5
2A
330
2
100
AcDbSymbolTableRecord
100
AcDbLayerTableRecord
  2
4
 70
     0
 62
     2
  6
CENTER
  0
LAYER
  5
2B
330
2
100
AcDbSymbolTableRecord
100
AcDbLayerTableRecord
  2
SK4
 70
     0
 62
     2
  6
CENTER
  0
LAYER
  5
2C
330
2
100
AcDbSymbolTableRecord
100
AcDbLayerTableRecord
  2
5
 70
     0
 62
     7
  6
CONTINUOUS
  0
LAYER
  5
2D
330
2
100
AcDbSymbolTableRecord
100
AcDbLayerTableRecord
  2
6
 70
     0
 62
     5
  6
CONTINUOUS
  0
LAYER
  5
2E
330
2
100
AcDbSymbolTableRecord
100
AcDbLayerTableRecord
  2
SK6
 70
     0
 62
     5
  6
CONTINUOUS
  0
LAYER
  5
2F
330
2
100
AcDbSymbolTableRecord
100
AcDbLayerTableRecord
  2
DEFPOINTS
 70
     0
 62
     7
  6
CONTINUOUS
  0
LAYER
  5
390
330
2
100
AcDbSymbolTableRecord
100
AcDbLayerTableRecord
  2
BEMASS
 70
     0
 62
     1
  6
CONTINUOUS
  0
ENDTAB
  0
TABLE
  2
STYLE
  5
3
330
0
100
AcDbSymbolTable
 70
     3
  0
STYLE
  5
10
330
3
100
AcDbSymbolTableRecord
100
AcDbTextStyleTableRecord
  2
STANDARD
 70
     0
 40
0.0
 41
1.0
 50
0.0
 71
     0
 42
5.0
  3
txt
  4

  0
STYLE
  5
1D
330
3
100
AcDbSymbolTableRecord
100
AcDbTextStyleTableRecord
  2
TXT
 70
     0
 40
8.0
 41
1.0
 50
0.0
 71
     0
 42
8.0
  3
txt
  4

  0
STYLE
  5
1E
330
3
100
AcDbSymbolTableRecord
100
AcDbTextStyleTableRecord
  2
SIMPLEX
 70
     0
 40
0.0
 41
1.0
 50
0.0
 71
     0
 42
4.57
  3
simplex
  4

  0
ENDTAB
  0
TABLE
  2
VIEW
  5
6
330
0
100
AcDbSymbolTable
 70
     0
  0
ENDTAB
  0
TABLE
  2
UCS
  5
7
330
0
100
AcDbSymbolTable
 70
     0
  0
ENDTAB
  0
TABLE
  2
APPID
  5
9
330
0
100
AcDbSymbolTable
 70
     1
  0
APPID
  5
11
330
9
100
AcDbSymbolTableRecord
100
AcDbRegAppTableRecord
  2
ACAD
 70
     0
  0
ENDTAB
  0
TABLE
  2
DIMSTYLE
  5
A
330
0
100
AcDbSymbolTable
 70
     1
  0
DIMSTYLE
105
3F
102
{ACAD_REACTORS
330
3D0
330
3D3
330
4FE
330
4FD
330
3CF
330
3CE
330
3CD
330
395
102
}
330
A
100
AcDbSymbolTableRecord
100
AcDbDimStyleTableRecord
  2
STANDARD
 70
     0
  3

  4

  5

  6

  7

 40
0.0
 41
4.57
 42
0.0
 43
0.38
 44
5.0
 45
0.0
 46
0.0
 47
0.0
 48
0.0
140
4.57
141
0.09
142
0.0
143
25.4
144
1.0
145
0.0
146
1.0
147
2.299999999999999
 71
     0
 72
     0
 73
     0
 74
     0
 75
     0
 76
     0
 77
     1
 78
     8
170
     0
171
     2
172
     0
173
     0
174
     0
175
     0
176
     0
177
     0
178
     0
270
     2
271
     2
272
     4
273
     2
274
     2
340
1E
275
     0
280
     0
281
     0
282
     0
283
     1
284
     0
285
     0
286
     0
287
     3
288
     0
  0
ENDTAB
  0
TABLE
  2
BLOCK_RECORD
  5
1
330
0
100
AcDbSymbolTable
 70
    11
  0
BLOCK_RECORD
  5
18
102
{ACAD_XDICTIONARY
360
5AF
102
}
330
1
100
AcDbSymbolTableRecord
100
AcDbBlockTableRecord
  2
*MODEL_SPACE
  0
BLOCK_RECORD
  5
338
102
{ACAD_XDICTIONARY
360
5B1
102
}
330
1
100
AcDbSymbolTableRecord
100
AcDbBlockTableRecord
  2
*PAPER_SPACE
  0
BLOCK_RECORD
  5
345
330
1
100
AcDbSymbolTableRecord
100
AcDbBlockTableRecord
  2
*D0
  0
BLOCK_RECORD
  5
351
330
1
100
AcDbSymbolTableRecord
100
AcDbBlockTableRecord
  2
*D1
  0
BLOCK_RECORD
  5
35F
330
1
100
AcDbSymbolTableRecord
100
AcDbBlockTableRecord
  2
*D2
  0
BLOCK_RECORD
  5
36B
330
1
100
AcDbSymbolTableRecord
100
AcDbBlockTableRecord
  2
*D3
  0
BLOCK_RECORD
  5
378
330
1
100
AcDbSymbolTableRecord
100
AcDbBlockTableRecord
  2
*D4
  0
BLOCK_RECORD
  5
384
330
1
100
AcDbSymbolTableRecord
100
AcDbBlockTableRecord
  2
*D5
  0
BLOCK_RECORD
  5
48A
330
1
100
AcDbSymbolTableRecord
100
AcDbBlockTableRecord
  2
*D6
  0
BLOCK_RECORD
  5
496
330
1
100
AcDbSymbolTableRecord
100
AcDbBlockTableRecord
  2
*D7
  0
BLOCK_RECORD
  5
550
330
1
100
AcDbSymbolTableRecord
100
AcDbBlockTableRecord
  2
*D9
  0
BLOCK_RECORD
  5
55C
330
1
100
AcDbSymbolTableRecord
100
AcDbBlockTableRecord
  2
*D10
  0
ENDTAB
  0
ENDSEC
  0
SECTION
  2
BLOCKS
  0
BLOCK
  5
32
330
18
100
AcDbEntity
  8
0
100
AcDbBlockBegin
  2
*MODEL_SPACE
 70
     0
 10
0.0
 20
0.0
 30
0.0
  3
*MODEL_SPACE
  1

  0
ENDBLK
  5
33
330
18
100
AcDbEntity
  8
0
100
AcDbBlockEnd
  0
BLOCK
  5
339
330
338
100
AcDbEntity
 67
     1
  8
0
100
AcDbBlockBegin
  2
*PAPER_SPACE
 70
     0
 10
0.0
 20
0.0
 30
0.0
  3
*PAPER_SPACE
  1

  0
ENDBLK
  5
33A
330
338
100
AcDbEntity
 67
     1
  8
0
100
AcDbBlockEnd
  0
BLOCK
  5
34F
330
345
100
AcDbEntity
  8
0
100
AcDbBlockBegin
  2
*D0
 70
     1
 10
0.0
 20
0.0
 30
0.0
  3
*D0
  1

  0
LINE
  5
451
330
345
100
AcDbEntity
  8
2
 62
     0
100
AcDbLine
 10
0.0000052588630614
 20
22.22500892674834
 30
0.0
 11
0.0000052588630649
 21
80.0
 31
0.0
  0
LINE
  5
452
330
345
100
AcDbEntity
  8
2
 62
     0
100
AcDbLine
 10
79.99999999999999
 20
9.560000000000002
 30
0.0
 11
79.99999999999999
 21
80.0
 31
0.0
  0
LINE
  5
453
330
345
100
AcDbEntity
  8
2
 62
     0
100
AcDbLine
 10
4.570005258863065
 20
75.0
 30
0.0
 11
75.42999999999998
 21
75.0
 31
0.0
  0
SOLID
  5
454
330
345
100
AcDbEntity
  8
2
 62
     0
100
AcDbTrace
 10
4.570005258863065
 20
75.76166666666667
 30
0.0
 11
4.570005258863065
 21
74.23833333333333
 31
0.0
 12
0.0000052588630646
 22
75.0
 32
0.0
 13
0.0000052588630646
 23
75.0
 33
0.0
  0
SOLID
  5
455
330
345
100
AcDbEntity
  8
2
 62
     0
100
AcDbTrace
 10
75.42999999999998
 20
75.76166666666667
 30
0.0
 11
75.42999999999998
 21
74.23833333333333
 31
0.0
 12
79.99999999999999
 22
75.0
 32
0.0
 13
79.99999999999999
 23
75.0
 33
0.0
  0
MTEXT
  5
456
330
345
100
AcDbEntity
  8
2
 62
     0
100
AcDbMText
 10
40.00000262943152
 20
79.58499999999999
 30
0.0
 40
4.57
 41
0.0
 71
     5
 72
     1
  1
\A1;80
  7
SIMPLEX
1001
ACAD
1000
MTEXTBEGIN
1070
    73
1070
     1
1070
    44
1040
1.0
1070
    74
1070
     0
1000
MTEXTEND
  0
POINT
  5
457
330
345
100
AcDbEntity
  8
DEFPOINTS
 62
     0
100
AcDbPoint
 10
0.0000052588630614
 20
22.22500892674834
 30
0.0
  0
POINT
  5
458
330
345
100
AcDbEntity
  8
DEFPOINTS
 62
     0
100
AcDbPoint
 10
79.99999999999999
 20
9.560000000000002
 30
0.0
  0
POINT
  5
459
330
345
100
AcDbEntity
  8
DEFPOINTS
 62
     0
100
AcDbPoint
 10
79.99999999999999
 20
75.0
 30
0.0
  0
ENDBLK
  5
350
330
345
100
AcDbEntity
  8
0
100
AcDbBlockEnd
  0
BLOCK
  5
35D
330
351
100
AcDbEntity
  8
0
100
AcDbBlockBegin
  2
*D1
 70
     1
 10
0.0
 20
0.0
 30
0.0
  3
*D1
  1

  0
LINE
  5
45A
330
351
100
AcDbEntity
  8
SK2
 62
     0
100
AcDbLine
 10
29.16999999999999
 20
16.0
 30
0.0
 11
56.86192357707446
 21
16.0
 31
0.0
  0
ARC
  5
45B
330
351
100
AcDbEntity
  8
SK2
 62
     0
100
AcDbCircle
 10
29.16999999999999
 20
16.0
 30
0.0
 40
22.69192357707445
100
AcDbArc
 50
332.3919845709533
 51
343.950557251334
  0
ARC
  5
45C
330
351
100
AcDbEntity
  8
SK2
 62
     0
100
AcDbCircle
 10
29.16999999999999
 20
16.0
 30
0.0
 40
22.69192357707445
100
AcDbArc
 50
11.55857268038077
 51
23.11714536076154
  0
SOLID
  5
45D
330
351
100
AcDbEntity
  8
SK2
 62
     0
100
AcDbTrace
 10
50.22800809022994
 20
9.862234674591849
 30
0.0
 11
51.72693463323266
 21
9.590640007622237
 31
0.0
 12
51.79225536264014
 22
14.22321697011523
 32
0.0
 13
51.79225536264014
 23
14.22321697011523
 33
0.0
  0
SOLID
  5
45E
330
351
100
AcDbEntity
  8
SK2
 62
     0
100
AcDbTrace
 10
52.15953527524207
 20
20.62346876146307
 30
0.0
 11
50.64394477432607
 21
20.47007424403294
 31
0.0
 12
51.86192357707446
 22
16.0
 32
0.0
 13
51.86192357707446
 23
16.0
 33
0.0
  0
MTEXT
  5
45F
330
351
100
AcDbEntity
  8
SK2
 62
     0
100
AcDbMText
 10
55.40204151474918
 20
23.47733627691277
 30
0.0
 40
4.57
 41
0.0
 71
     5
 72
     1
  1
\A1;4.5°
  7
SIMPLEX
 11
0.2741268184362725
 21
-0.9616935517169732
 31
0.0
1001
ACAD
1000
MTEXTBEGIN
1070
    73
1070
     1
1070
    44
1040
1.0
1070
    74
1070
     0
1000
MTEXTEND
  0
POINT
  5
460
330
351
100
AcDbEntity
  8
DEFPOINTS
 62
     0
100
AcDbPoint
 10
51.83095111759199
 20
14.81480378253493
 30
0.0
  0
POINT
  5
461
330
351
100
AcDbEntity
  8
DEFPOINTS
 62
     0
100
AcDbPoint
 10
29.16999999999999
 20
16.0
 30
0.0
  0
POINT
  5
462
330
351
100
AcDbEntity
  8
DEFPOINTS
 62
     0
100
AcDbPoint
 10
79.07999999999998
 20
12.07999999999999
 30
0.0
  0
POINT
  5
463
330
351
100
AcDbEntity
  8
DEFPOINTS
 62
     0
100
AcDbPoint
 10
29.16999999999999
 20
16.0
 30
0.0
  0
POINT
  5
464
330
351
100
AcDbEntity
  8
DEFPOINTS
 62
     0
100
AcDbPoint
 10
21.09999999999999
 20
16.0
 30
0.0
  0
ENDBLK
  5
35E
330
351
100
AcDbEntity
  8
0
100
AcDbBlockEnd
  0
BLOCK
  5
369
330
35F
100
AcDbEntity
  8
0
100
AcDbBlockBegin
  2
*D2
 70
     1
 10
0.0
 20
0.0
 30
0.0
  3
*D2
  1

  0
LINE
  5
465
330
35F
100
AcDbEntity
  8
SK2
 62
     0
100
AcDbLine
 10
37.99999999999998
 20
-11.07999999999999
 30
0.0
 11
37.99999999999998
 21
-45.0
 31
0.0
  0
LINE
  5
466
330
35F
100
AcDbEntity
  8
SK2
 62
     0
100
AcDbLine
 10
79.99999999999999
 20
-11.07999994764011
 30
0.0
 11
79.99999999999999
 21
-45.0
 31
0.0
  0
LINE
  5
467
330
35F
100
AcDbEntity
  8
SK2
 62
     0
100
AcDbLine
 10
42.56999999999998
 20
-40.0
 30
0.0
 11
75.42999999999998
 21
-40.0
 31
0.0
  0
SOLID
  5
468
330
35F
100
AcDbEntity
  8
SK2
 62
     0
100
AcDbTrace
 10
42.56999999999998
 20
-39.23833333333332
 30
0.0
 11
42.56999999999998
 21
-40.76166666666667
 31
0.0
 12
37.99999999999998
 22
-40.0
 32
0.0
 13
37.99999999999998
 23
-40.0
 33
0.0
  0
SOLID
  5
469
330
35F
100
AcDbEntity
  8
SK2
 62
     0
100
AcDbTrace
 10
75.42999999999998
 20
-39.23833333333332
 30
0.0
 11
75.42999999999998
 21
-40.76166666666667
 31
0.0
 12
79.99999999999999
 22
-40.0
 32
0.0
 13
79.99999999999999
 23
-40.0
 33
0.0
  0
MTEXT
  5
46A
330
35F
100
AcDbEntity
  8
SK2
 62
     0
100
AcDbMText
 10
58.99999999999998
 20
-35.415
 30
0.0
 40
4.57
 41
0.0
 71
     5
 72
     1
  1
\A1;42
  7
SIMPLEX
1001
ACAD
1000
MTEXTBEGIN
1070
    73
1070
     1
1070
    44
1040
1.0
1070
    74
1070
     0
1000
MTEXTEND
  0
POINT
  5
46B
330
35F
100
AcDbEntity
  8
DEFPOINTS
 62
     0
100
AcDbPoint
 10
37.99999999999998
 20
-11.07999999999999
 30
0.0
  0
POINT
  5
46C
330
35F
100
AcDbEntity
  8
DEFPOINTS
 62
     0
100
AcDbPoint
 10
79.99999999999999
 20
-11.07999994764011
 30
0.0
  0
POINT
  5
46D
330
35F
100
AcDbEntity
  8
DEFPOINTS
 62
     0
100
AcDbPoint
 10
79.99999999999999
 20
-40.0
 30
0.0
  0
ENDBLK
  5
36A
330
35F
100
AcDbEntity
  8
0
100
AcDbBlockEnd
  0
BLOCK
  5
376
330
36B
100
AcDbEntity
  8
0
100
AcDbBlockBegin
  2
*D3
 70
     1
 10
0.0
 20
0.0
 30
0.0
  3
*D3
  1

  0
LINE
  5
46E
330
36B
100
AcDbEntity
  8
SK2
 62
     0
100
AcDbLine
 10
37.99999999999998
 20
-11.07999999999999
 30
0.0
 11
37.99999999999998
 21
-30.0
 31
0.0
  0
LINE
  5
46F
330
36B
100
AcDbEntity
  8
SK2
 62
     0
100
AcDbLine
 10
47.99999999999998
 20
-11.07999999999999
 30
0.0
 11
47.99999999999998
 21
-30.0
 31
0.0
  0
LINE
  5
470
330
36B
100
AcDbEntity
  8
SK2
 62
     0
100
AcDbLine
 10
33.42999999999998
 20
-25.0
 30
0.0
 11
28.85999999999998
 21
-25.0
 31
0.0
  0
LINE
  5
471
330
36B
100
AcDbEntity
  8
SK2
 62
     0
100
AcDbLine
 10
52.56999999999998
 20
-25.0
 30
0.0
 11
68.26857142857142
 21
-25.0
 31
0.0
  0
SOLID
  5
472
330
36B
100
AcDbEntity
  8
SK2
 62
     0
100
AcDbTrace
 10
33.42999999999998
 20
-24.23833333333333
 30
0.0
 11
33.42999999999998
 21
-25.76166666666666
 31
0.0
 12
37.99999999999998
 22
-25.0
 32
0.0
 13
37.99999999999998
 23
-25.0
 33
0.0
  0
SOLID
  5
473
330
36B
100
AcDbEntity
  8
SK2
 62
     0
100
AcDbTrace
 10
52.56999999999998
 20
-24.23833333333333
 30
0.0
 11
52.56999999999998
 21
-25.76166666666666
 31
0.0
 12
47.99999999999998
 22
-25.0
 32
0.0
 13
47.99999999999998
 23
-25.0
 33
0.0
  0
MTEXT
  5
474
330
36B
100
AcDbEntity
  8
SK2
 62
     0
100
AcDbMText
 10
62.70428571428571
 20
-20.415
 30
0.0
 40
4.57
 41
0.0
 71
     5
 72
     1
  1
\A1;10
  7
SIMPLEX
1001
ACAD
1000
MTEXTBEGIN
1070
    73
1070
     1
1070
    44
1040
1.0
1070
    74
1070
     0
1000
MTEXTEND
  0
POINT
  5
475
330
36B
100
AcDbEntity
  8
DEFPOINTS
 62
     0
100
AcDbPoint
 10
37.99999999999998
 20
-11.07999999999999
 30
0.0
  0
POINT
  5
476
330
36B
100
AcDbEntity
  8
DEFPOINTS
 62
     0
100
AcDbPoint
 10
47.99999999999998
 20
-11.07999999999999
 30
0.0
  0
POINT
  5
477
330
36B
100
AcDbEntity
  8
DEFPOINTS
 62
     0
100
AcDbPoint
 10
47.99999999999998
 20
-25.0
 30
0.0
  0
ENDBLK
  5
377
330
36B
100
AcDbEntity
  8
0
100
AcDbBlockEnd
  0
BLOCK
  5
382
330
378
100
AcDbEntity
  8
0
100
AcDbBlockBegin
  2
*D4
 70
     1
 10
0.0
 20
0.0
 30
0.0
  3
*D4
  1

  0
LINE
  5
478
330
378
100
AcDbEntity
  8
2
 62
     0
100
AcDbLine
 10
0.0000000000000025
 20
20.0
 30
0.0
 11
0.0000000000000052
 21
65.0
 31
0.0
  0
LINE
  5
479
330
378
100
AcDbEntity
  8
2
 62
     0
100
AcDbLine
 10
20.0
 20
19.99999999999999
 30
0.0
 11
20.0
 21
65.0
 31
0.0
  0
LINE
  5
47A
330
378
100
AcDbEntity
  8
2
 62
     0
100
AcDbLine
 10
4.570000000000005
 20
60.0
 30
0.0
 11
15.43
 21
60.0
 31
0.0
  0
SOLID
  5
47B
330
378
100
AcDbEntity
  8
2
 62
     0
100
AcDbTrace
 10
4.570000000000005
 20
60.76166666666667
 30
0.0
 11
4.570000000000005
 21
59.23833333333333
 31
0.0
 12
0.0000000000000049
 22
60.0
 32
0.0
 13
0.0000000000000049
 23
60.0
 33
0.0
  0
SOLID
  5
47C
330
378
100
AcDbEntity
  8
2
 62
     0
100
AcDbTrace
 10
15.43
 20
60.76166666666667
 30
0.0
 11
15.43
 21
59.23833333333333
 31
0.0
 12
20.0
 22
60.0
 32
0.0
 13
20.0
 23
60.0
 33
0.0
  0
MTEXT
  5
47D
330
378
100
AcDbEntity
  8
2
 62
     0
100
AcDbMText
 10
10.0
 20
64.58499999999999
 30
0.0
 40
4.57
 41
0.0
 71
     5
 72
     1
  1
\A1;20
  7
SIMPLEX
1001
ACAD
1000
MTEXTBEGIN
1070
    73
1070
     1
1070
    44
1040
1.0
1070
    74
1070
     0
1000
MTEXTEND
  0
POINT
  5
47E
330
378
100
AcDbEntity
  8
DEFPOINTS
 62
     0
100
AcDbPoint
 10
0.0000000000000025
 20
20.0
 30
0.0
  0
POINT
  5
47F
330
378
100
AcDbEntity
  8
DEFPOINTS
 62
     0
100
AcDbPoint
 10
20.0
 20
19.99999999999999
 30
0.0
  0
POINT
  5
480
330
378
100
AcDbEntity
  8
DEFPOINTS
 62
     0
100
AcDbPoint
 10
20.0
 20
60.0
 30
0.0
  0
ENDBLK
  5
383
330
378
100
AcDbEntity
  8
0
100
AcDbBlockEnd
  0
BLOCK
  5
38E
330
384
100
AcDbEntity
  8
0
100
AcDbBlockBegin
  2
*D5
 70
     1
 10
0.0
 20
0.0
 30
0.0
  3
*D5
  1

  0
LINE
  5
481
330
384
100
AcDbEntity
  8
SK2
 62
     0
100
AcDbLine
 10
-0.0000000000000025
 20
-20.0
 30
0.0
 11
-40.00000000000001
 21
-19.99999999999998
 31
0.0
  0
LINE
  5
482
330
384
100
AcDbEntity
  8
SK2
 62
     0
100
AcDbLine
 10
0.0000000000000025
 20
20.0
 30
0.0
 11
-40.0
 21
20.00000000000001
 31
0.0
  0
LINE
  5
483
330
384
100
AcDbEntity
  8
SK2
 62
     0
100
AcDbLine
 10
-35.0
 20
-15.42999999999999
 30
0.0
 11
-35.0
 21
15.43000000000001
 31
0.0
  0
SOLID
  5
484
330
384
100
AcDbEntity
  8
SK2
 62
     0
100
AcDbTrace
 10
-35.76166666666667
 20
-15.42999999999999
 30
0.0
 11
-34.23833333333334
 21
-15.42999999999999
 31
0.0
 12
-35.00000000000001
 22
-19.99999999999999
 32
0.0
 13
-35.00000000000001
 23
-19.99999999999999
 33
0.0
  0
SOLID
  5
485
330
384
100
AcDbEntity
  8
SK2
 62
     0
100
AcDbTrace
 10
-35.76166666666667
 20
15.43000000000001
 30
0.0
 11
-34.23833333333334
 21
15.43000000000001
 31
0.0
 12
-35.0
 22
20.00000000000001
 32
0.0
 13
-35.0
 23
20.00000000000001
 33
0.0
  0
MTEXT
  5
486
330
384
100
AcDbEntity
  8
SK2
 62
     0
100
AcDbMText
 10
-39.585
 20
0.0000000000000063
 30
0.0
 40
4.57
 41
0.0
 71
     5
 72
     1
  1
\A1;%%C40
  7
SIMPLEX
 11
0.0000000000000001
 21
1.0
 31
0.0
1001
ACAD
1000
MTEXTBEGIN
1070
    73
1070
     1
1070
    44
1040
1.0
1070
    74
1070
     0
1000
MTEXTEND
  0
POINT
  5
487
330
384
100
AcDbEntity
  8
DEFPOINTS
 62
     0
100
AcDbPoint
 10
-0.0000000000000025
 20
-20.0
 30
0.0
  0
POINT
  5
488
330
384
100
AcDbEntity
  8
DEFPOINTS
 62
     0
100
AcDbPoint
 10
0.0000000000000025
 20
20.0
 30
0.0
  0
POINT
  5
489
330
384
100
AcDbEntity
  8
DEFPOINTS
 62
     0
100
AcDbPoint
 10
-35.0
 20
20.00000000000001
 30
0.0
  0
ENDBLK
  5
38F
330
384
100
AcDbEntity
  8
0
100
AcDbBlockEnd
  0
BLOCK
  5
494
330
48A
100
AcDbEntity
  8
0
100
AcDbBlockBegin
  2
*D6
 70
     1
 10
0.0
 20
0.0
 30
0.0
  3
*D6
  1

  0
LINE
  5
48B
330
48A
100
AcDbEntity
  8
2
 62
     0
100
AcDbLine
 10
0.0000000000000025
 20
20.0
 30
0.0
 11
0.0000000000000052
 21
65.0
 31
0.0
  0
LINE
  5
48C
330
48A
100
AcDbEntity
  8
2
 62
     0
100
AcDbLine
 10
20.0
 20
19.99999999999999
 30
0.0
 11
20.0
 21
65.0
 31
0.0
  0
LINE
  5
48D
330
48A
100
AcDbEntity
  8
2
 62
     0
100
AcDbLine
 10
4.570000000000005
 20
60.0
 30
0.0
 11
15.43
 21
60.0
 31
0.0
  0
SOLID
  5
48E
330
48A
100
AcDbEntity
  8
2
 62
     0
100
AcDbTrace
 10
4.570000000000005
 20
60.76166666666667
 30
0.0
 11
4.570000000000005
 21
59.23833333333333
 31
0.0
 12
0.0000000000000049
 22
60.0
 32
0.0
 13
0.0000000000000049
 23
60.0
 33
0.0
  0
SOLID
  5
48F
330
48A
100
AcDbEntity
  8
2
 62
     0
100
AcDbTrace
 10
15.43
 20
60.76166666666667
 30
0.0
 11
15.43
 21
59.23833333333333
 31
0.0
 12
20.0
 22
60.0
 32
0.0
 13
20.0
 23
60.0
 33
0.0
  0
MTEXT
  5
490
330
48A
100
AcDbEntity
  8
2
 62
     0
100
AcDbMText
 10
10.0
 20
64.58499999999999
 30
0.0
 40
4.57
 41
0.0
 71
     5
 72
     1
  1
\A1;20
  7
SIMPLEX
1001
ACAD
1000
MTEXTBEGIN
1070
    73
1070
     1
1070
    44
1040
1.0
1070
    74
1070
     0
1000
MTEXTEND
  0
POINT
  5
491
330
48A
100
AcDbEntity
  8
DEFPOINTS
 62
     0
100
AcDbPoint
 10
0.0000000000000025
 20
20.0
 30
0.0
  0
POINT
  5
492
330
48A
100
AcDbEntity
  8
DEFPOINTS
 62
     0
100
AcDbPoint
 10
20.0
 20
19.99999999999999
 30
0.0
  0
POINT
  5
493
330
48A
100
AcDbEntity
  8
DEFPOINTS
 62
     0
100
AcDbPoint
 10
20.0
 20
60.0
 30
0.0
  0
ENDBLK
  5
495
330
48A
100
AcDbEntity
  8
0
100
AcDbBlockEnd
  0
BLOCK
  5
4A0
330
496
100
AcDbEntity
  8
0
100
AcDbBlockBegin
  2
*D7
 70
     1
 10
0.0
 20
0.0
 30
0.0
  3
*D7
  1

  0
LINE
  5
497
330
496
100
AcDbEntity
  8
SK2
 62
     0
100
AcDbLine
 10
-0.0000000000000025
 20
-20.0
 30
0.0
 11
-40.00000000000001
 21
-19.99999999999998
 31
0.0
  0
LINE
  5
498
330
496
100
AcDbEntity
  8
SK2
 62
     0
100
AcDbLine
 10
0.0000000000000025
 20
20.0
 30
0.0
 11
-40.0
 21
20.00000000000001
 31
0.0
  0
LINE
  5
499
330
496
100
AcDbEntity
  8
SK2
 62
     0
100
AcDbLine
 10
-35.0
 20
-15.42999999999999
 30
0.0
 11
-35.0
 21
15.43000000000001
 31
0.0
  0
SOLID
  5
49A
330
496
100
AcDbEntity
  8
SK2
 62
     0
100
AcDbTrace
 10
-35.76166666666667
 20
-15.42999999999999
 30
0.0
 11
-34.23833333333334
 21
-15.42999999999999
 31
0.0
 12
-35.00000000000001
 22
-19.99999999999999
 32
0.0
 13
-35.00000000000001
 23
-19.99999999999999
 33
0.0
  0
SOLID
  5
49B
330
496
100
AcDbEntity
  8
SK2
 62
     0
100
AcDbTrace
 10
-35.76166666666667
 20
15.43000000000001
 30
0.0
 11
-34.23833333333334
 21
15.43000000000001
 31
0.0
 12
-35.0
 22
20.00000000000001
 32
0.0
 13
-35.0
 23
20.00000000000001
 33
0.0
  0
MTEXT
  5
49C
330
496
100
AcDbEntity
  8
SK2
 62
     0
100
AcDbMText
 10
-39.585
 20
0.0000000000000063
 30
0.0
 40
4.57
 41
0.0
 71
     5
 72
     1
  1
\A1;%%C40
  7
SIMPLEX
 11
0.0000000000000001
 21
1.0
 31
0.0
1001
ACAD
1000
MTEXTBEGIN
1070
    73
1070
     1
1070
    44
1040
1.0
1070
    74
1070
     0
1000
MTEXTEND
  0
POINT
  5
49D
330
496
100
AcDbEntity
  8
DEFPOINTS
 62
     0
100
AcDbPoint
 10
-0.0000000000000025
 20
-20.0
 30
0.0
  0
POINT
  5
49E
330
496
100
AcDbEntity
  8
DEFPOINTS
 62
     0
100
AcDbPoint
 10
0.0000000000000025
 20
20.0
 30
0.0
  0
POINT
  5
49F
330
496
100
AcDbEntity
  8
DEFPOINTS
 62
     0
100
AcDbPoint
 10
-35.0
 20
20.00000000000001
 30
0.0
  0
ENDBLK
  5
4A1
330
496
100
AcDbEntity
  8
0
100
AcDbBlockEnd
  0
BLOCK
  5
55A
330
550
100
AcDbEntity
  8
0
100
AcDbBlockBegin
  2
*D9
 70
     1
 10
0.0
 20
0.0
 30
0.0
  3
*D9
  1

  0
LINE
  5
568
330
550
100
AcDbEntity
  8
2
 62
     0
100
AcDbLine
 10
0.0000000000000025
 20
20.0
 30
0.0
 11
0.0000000000000052
 21
65.0
 31
0.0
  0
LINE
  5
569
330
550
100
AcDbEntity
  8
2
 62
     0
100
AcDbLine
 10
20.0
 20
19.99999999999999
 30
0.0
 11
20.0
 21
65.0
 31
0.0
  0
LINE
  5
56A
330
550
100
AcDbEntity
  8
2
 62
     0
100
AcDbLine
 10
4.570000000000005
 20
60.0
 30
0.0
 11
15.43
 21
60.0
 31
0.0
  0
SOLID
  5
56B
330
550
100
AcDbEntity
  8
2
 62
     0
100
AcDbTrace
 10
4.570000000000005
 20
60.76166666666667
 30
0.0
 11
4.570000000000005
 21
59.23833333333333
 31
0.0
 12
0.0000000000000049
 22
60.0
 32
0.0
 13
0.0000000000000049
 23
60.0
 33
0.0
  0
SOLID
  5
56C
330
550
100
AcDbEntity
  8
2
 62
     0
100
AcDbTrace
 10
15.43
 20
60.76166666666667
 30
0.0
 11
15.43
 21
59.23833333333333
 31
0.0
 12
20.0
 22
60.0
 32
0.0
 13
20.0
 23
60.0
 33
0.0
  0
MTEXT
  5
56D
330
550
100
AcDbEntity
  8
2
 62
     0
100
AcDbMText
 10
10.0
 20
64.58499999999999
 30
0.0
 40
4.57
 41
0.0
 71
     5
 72
     1
  1
\A1;20
  7
SIMPLEX
1001
ACAD
1000
MTEXTBEGIN
1070
    73
1070
     1
1070
    44
1040
1.0
1070
    74
1070
     0
1000
MTEXTEND
  0
POINT
  5
56E
330
550
100
AcDbEntity
  8
DEFPOINTS
 62
     0
100
AcDbPoint
 10
0.0000000000000025
 20
20.0
 30
0.0
  0
POINT
  5
56F
330
550
100
AcDbEntity
  8
DEFPOINTS
 62
     0
100
AcDbPoint
 10
20.0
 20
19.99999999999999
 30
0.0
  0
POINT
  5
570
330
550
100
AcDbEntity
  8
DEFPOINTS
 62
     0
100
AcDbPoint
 10
20.0
 20
60.0
 30
0.0
  0
ENDBLK
  5
55B
330
550
100
AcDbEntity
  8
0
100
AcDbBlockEnd
  0
BLOCK
  5
566
330
55C
100
AcDbEntity
  8
0
100
AcDbBlockBegin
  2
*D10
 70
     1
 10
0.0
 20
0.0
 30
0.0
  3
*D10
  1

  0
LINE
  5
571
330
55C
100
AcDbEntity
  8
SK2
 62
     0
100
AcDbLine
 10
-0.0000000000000025
 20
-20.0
 30
0.0
 11
-40.00000000000001
 21
-19.99999999999998
 31
0.0
  0
LINE
  5
572
330
55C
100
AcDbEntity
  8
SK2
 62
     0
100
AcDbLine
 10
0.0000000000000025
 20
20.0
 30
0.0
 11
-40.0
 21
20.00000000000001
 31
0.0
  0
LINE
  5
573
330
55C
100
AcDbEntity
  8
SK2
 62
     0
100
AcDbLine
 10
-35.0
 20
-15.42999999999999
 30
0.0
 11
-35.0
 21
15.43000000000001
 31
0.0
  0
SOLID
  5
574
330
55C
100
AcDbEntity
  8
SK2
 62
     0
100
AcDbTrace
 10
-35.76166666666667
 20
-15.42999999999999
 30
0.0
 11
-34.23833333333334
 21
-15.42999999999999
 31
0.0
 12
-35.00000000000001
 22
-19.99999999999999
 32
0.0
 13
-35.00000000000001
 23
-19.99999999999999
 33
0.0
  0
SOLID
  5
575
330
55C
100
AcDbEntity
  8
SK2
 62
     0
100
AcDbTrace
 10
-35.76166666666667
 20
15.43000000000001
 30
0.0
 11
-34.23833333333334
 21
15.43000000000001
 31
0.0
 12
-35.0
 22
20.00000000000001
 32
0.0
 13
-35.0
 23
20.00000000000001
 33
0.0
  0
MTEXT
  5
576
330
55C
100
AcDbEntity
  8
SK2
 62
     0
100
AcDbMText
 10
-39.585
 20
0.0000000000000063
 30
0.0
 40
4.57
 41
0.0
 71
     5
 72
     1
  1
\A1;%%C40
  7
SIMPLEX
 11
0.0000000000000001
 21
1.0
 31
0.0
1001
ACAD
1000
MTEXTBEGIN
1070
    73
1070
     1
1070
    44
1040
1.0
1070
    74
1070
     0
1000
MTEXTEND
  0
POINT
  5
577
330
55C
100
AcDbEntity
  8
DEFPOINTS
 62
     0
100
AcDbPoint
 10
-0.0000000000000025
 20
-20.0
 30
0.0
  0
POINT
  5
578
330
55C
100
AcDbEntity
  8
DEFPOINTS
 62
     0
100
AcDbPoint
 10
0.0000000000000025
 20
20.0
 30
0.0
  0
POINT
  5
579
330
55C
100
AcDbEntity
  8
DEFPOINTS
 62
     0
100
AcDbPoint
 10
-35.0
 20
20.00000000000001
 30
0.0
  0
ENDBLK
  5
567
330
55C
100
AcDbEntity
  8
0
100
AcDbBlockEnd
  0
ENDSEC
  0
SECTION
  2
ENTITIES
  0
LINE
  5
391
330
18
100
AcDbEntity
  8
SK4
100
AcDbLine
 10
-24.333702752112
 20
0.0
 30
0.0
 11
82.48346404995846
 21
0.0
 31
0.0
  0
LINE
  5
392
330
18
100
AcDbEntity
  8
4
100
AcDbLine
 10
-20.0
 20
0.0
 30
0.0
 11
79.99999999999999
 21
0.0
 31
0.0
  0
LINE
  5
393
330
18
100
AcDbEntity
  8
SK3
100
AcDbLine
 10
16.0
 20
3.650999999999999
 30
0.0
 11
20.99999999999999
 21
3.650999999999999
 31
0.0
  0
LINE
  5
394
330
18
100
AcDbEntity
  8
SK3
100
AcDbLine
 10
20.99999999999999
 20
-3.647999999999999
 30
0.0
 11
16.0
 21
-3.647999999999999
 31
0.0
  0
LINE
  5
396
330
18
100
AcDbEntity
  8
SK3
100
AcDbLine
 10
36.42299999999999
 20
4.001000000000001
 30
0.0
 11
21.00099999999999
 21
4.001000000000001
 31
0.0
  0
LINE
  5
397
330
18
100
AcDbEntity
  8
SK3
100
AcDbLine
 10
36.42299999999999
 20
-4.0
 30
0.0
 11
21.00099999999999
 21
-4.0
 31
0.0
  0
LINE
  5
398
330
18
100
AcDbEntity
  8
SK3
100
AcDbLine
 10
20.99999999999999
 20
-4.0
 30
0.0
 11
20.99999999999999
 21
3.955999999999999
 31
0.0
  0
LINE
  5
399
330
18
100
AcDbEntity
  8
SK3
100
AcDbLine
 10
36.033
 20
3.324000000000001
 30
0.0
 11
36.033
 21
-3.322999999999996
 31
0.0
  0
LINE
  5
39A
330
18
100
AcDbEntity
  8
SK3
100
AcDbLine
 10
37.17499999999999
 20
4.843999999999997
 30
0.0
 11
37.17399999999999
 21
-4.905999999999998
 31
0.0
  0
LINE
  5
39B
330
18
100
AcDbEntity
  8
SK3
100
AcDbLine
 10
36.42299999999999
 20
4.001000000000001
 30
0.0
 11
36.42299999999999
 21
-3.998999999999998
 31
0.0
  0
LINE
  5
39C
330
18
100
AcDbEntity
  8
SK3
100
AcDbLine
 10
41.87999999999999
 20
4.87
 30
0.0
 11
41.87999999999999
 21
-4.841000000000001
 31
0.0
  0
LINE
  5
39D
330
18
100
AcDbEntity
  8
SK3
100
AcDbLine
 10
43.00099999999999
 20
5.001999999999998
 30
0.0
 11
43.00099999999999
 21
-4.998999999999998
 31
0.0
  0
LINE
  5
39E
330
18
100
AcDbEntity
  8
SK3
100
AcDbLine
 10
41.80099999999999
 20
-5.298999999999995
 30
0.0
 11
37.52099999999999
 21
-5.298999999999995
 31
0.0
  0
LINE
  5
39F
330
18
100
AcDbEntity
  8
SK3
100
AcDbLine
 10
37.00199999999999
 20
-5.0
 30
0.0
 11
36.03399999999999
 21
-3.322999999999996
 31
0.0
  0
ARC
  5
3A0
330
18
100
AcDbEntity
  8
SK3
100
AcDbCircle
 10
37.51999999999999
 20
-4.701
 30
0.0
 40
0.598
100
AcDbArc
 50
210.0268400000003
 51
269.9987180000001
  0
ARC
  5
3A1
330
18
100
AcDbEntity
  8
SK3
100
AcDbCircle
 10
41.80099999999999
 20
-4.698999999999998
 30
0.0
 40
0.6
100
AcDbArc
 50
270.0
 51
284.9616089999997
  0
LINE
  5
3A2
330
18
100
AcDbEntity
  8
SK3
100
AcDbLine
 10
43.00099999999999
 20
-5.0
 30
0.0
 11
41.95699999999999
 21
-5.277999999999998
 31
0.0
  0
LINE
  5
3A3
330
18
100
AcDbEntity
  8
SK3
100
AcDbLine
 10
37.51999999999999
 20
5.302000000000003
 30
0.0
 11
41.80099999999999
 21
5.302000000000003
 31
0.0
  0
ARC
  5
3A4
330
18
100
AcDbEntity
  8
SK3
100
AcDbCircle
 10
37.51999999999999
 20
4.702000000000001
 30
0.0
 40
0.598
100
AcDbArc
 50
90.0
 51
149.9718780000001
  0
LINE
  5
3A5
330
18
100
AcDbEntity
  8
SK3
100
AcDbLine
 10
37.00199999999999
 20
5.001999999999998
 30
0.0
 11
36.03399999999999
 21
3.324999999999999
 31
0.0
  0
ARC
  5
3A6
330
18
100
AcDbEntity
  8
SK3
100
AcDbCircle
 10
41.80099999999999
 20
4.702000000000001
 30
0.0
 40
0.6
100
AcDbArc
 50
75.03839900000015
 51
90.0
  0
LINE
  5
3A7
330
18
100
AcDbEntity
  8
SK3
100
AcDbLine
 10
41.95599999999998
 20
5.281000000000002
 30
0.0
 11
43.00099999999999
 21
5.003000000000003
 31
0.0
  0
ARC
  5
3A8
330
18
100
AcDbEntity
  8
SK3
100
AcDbCircle
 10
79.25
 20
-5.947999999999996
 30
0.0
 40
0.75
100
AcDbArc
 50
0.0
 51
85.02784000000032
  0
LINE
  5
3A9
330
18
100
AcDbEntity
  8
SK3
100
AcDbLine
 10
77.0
 20
5.001000000000001
 30
0.0
 11
77.0
 21
-4.998999999999998
 31
0.0
  0
ARC
  5
3AA
330
18
100
AcDbEntity
  8
SK3
100
AcDbCircle
 10
79.25
 20
5.949000000000001
 30
0.0
 40
0.75
100
AcDbArc
 50
274.9724729999998
 51
0.0003030000000036
  0
POLYLINE
  5
3AB
330
18
100
AcDbEntity
  8
1
  6
CONTINUOUS
 62
     4
100
AcDb2dPolyline
 66
     1
 10
0.0
 20
0.0
 30
0.0
  0
VERTEX
  5
5B3
330
3AB
100
AcDbEntity
  8
1
  6
CONTINUOUS
 62
     4
100
AcDbVertex
100
AcDb2dVertex
 10
79.08
 20
12.07999999999999
 30
0.0
  0
VERTEX
  5
5B4
330
3AB
100
AcDbEntity
  8
1
  6
CONTINUOUS
 62
     4
100
AcDbVertex
100
AcDb2dVertex
 10
29.16999999999999
 20
16.0
 30
0.0
  0
SEQEND
  5
5B5
330
3AB
100
AcDbEntity
  8
1
  6
CONTINUOUS
 62
     4
  0
POLYLINE
  5
3AC
330
18
100
AcDbEntity
  8
1
  6
CONTINUOUS
 62
     4
100
AcDb2dPolyline
 66
     1
 10
0.0
 20
0.0
 30
0.0
  0
VERTEX
  5
5B6
330
3AC
100
AcDbEntity
  8
1
  6
CONTINUOUS
 62
     4
100
AcDbVertex
100
AcDb2dVertex
 10
29.16999999999999
 20
16.0
 30
0.0
  0
VERTEX
  5
5B7
330
3AC
100
AcDbEntity
  8
1
  6
CONTINUOUS
 62
     4
100
AcDbVertex
100
AcDb2dVertex
 10
20.99999999999999
 20
16.0
 30
0.0
  0
SEQEND
  5
5B8
330
3AC
100
AcDbEntity
  8
1
  6
CONTINUOUS
 62
     4
  0
ARC
  5
3AD
330
18
100
AcDbEntity
  8
1
  6
CONTINUOUS
 62
     4
100
AcDbCircle
 10
78.99999999999998
 20
11.09
 30
0.0
 40
1.0
100
AcDbArc
 50
0.0000270000000304
 51
85.52654999999971
  0
POLYLINE
  5
3AE
330
18
100
AcDbEntity
  8
1
  6
CONTINUOUS
 62
     4
100
AcDb2dPolyline
 66
     1
 10
0.0
 20
0.0
 30
0.0
  0
VERTEX
  5
5B9
330
3AE
100
AcDbEntity
  8
1
  6
CONTINUOUS
 62
     4
100
AcDbVertex
100
AcDb2dVertex
 10
79.99999999999999
 20
-11.07999999999999
 30
0.0
  0
VERTEX
  5
5BA
330
3AE
100
AcDbEntity
  8
1
  6
CONTINUOUS
 62
     4
100
AcDbVertex
100
AcDb2dVertex
 10
79.99999999999999
 20
11.09
 30
0.0
  0
SEQEND
  5
5BB
330
3AE
100
AcDbEntity
  8
1
  6
CONTINUOUS
 62
     4
  0
ARC
  5
3AF
330
18
100
AcDbEntity
  8
1
  6
CONTINUOUS
 62
     4
100
AcDbCircle
 10
78.99999999999998
 20
-11.07999999999999
 30
0.0
 40
1.0
100
AcDbArc
 50
274.4734799999999
 51
0.0000030000001391
  0
POLYLINE
  5
3B0
330
18
100
AcDbEntity
  8
1
  6
CONTINUOUS
 62
     4
100
AcDb2dPolyline
 66
     1
 10
0.0
 20
0.0
 30
0.0
  0
VERTEX
  5
5BC
330
3B0
100
AcDbEntity
  8
1
  6
CONTINUOUS
 62
     4
100
AcDbVertex
100
AcDb2dVertex
 10
79.99999999999999
 20
-11.07999999999999
 30
0.0
  0
VERTEX
  5
5BD
330
3B0
100
AcDbEntity
  8
1
  6
CONTINUOUS
 62
     4
100
AcDbVertex
100
AcDb2dVertex
 10
79.99999999999999
 20
-11.08999999999999
 30
0.0
  0
SEQEND
  5
5BE
330
3B0
100
AcDbEntity
  8
1
  6
CONTINUOUS
 62
     4
  0
POLYLINE
  5
3B1
330
18
100
AcDbEntity
  8
BEMASS
  6
CONTINUOUS
 62
     3
100
AcDb2dPolyline
 66
     1
 10
0.0
 20
0.0
 30
0.0
  0
VERTEX
  5
5BF
330
3B1
100
AcDbEntity
  8
BEMASS
  6
CONTINUOUS
 62
     3
100
AcDbVertex
100
AcDb2dVertex
 10
79.99999999999999
 20
-5.0
 30
0.0
  0
VERTEX
  5
5C0
330
3B1
100
AcDbEntity
  8
BEMASS
  6
CONTINUOUS
 62
     3
100
AcDbVertex
100
AcDb2dVertex
 10
80.00999999999999
 20
-5.0
 30
0.0
  0
SEQEND
  5
5C1
330
3B1
100
AcDbEntity
  8
BEMASS
  6
CONTINUOUS
 62
     3
  0
POLYLINE
  5
3B2
330
18
100
AcDbEntity
  8
BEMASS
  6
CONTINUOUS
 62
     3
100
AcDb2dPolyline
 66
     1
 10
0.0
 20
0.0
 30
0.0
  0
VERTEX
  5
5C2
330
3B2
100
AcDbEntity
  8
BEMASS
  6
CONTINUOUS
 62
     3
100
AcDbVertex
100
AcDb2dVertex
 10
79.99999999999999
 20
5.0
 30
0.0
  0
VERTEX
  5
5C3
330
3B2
100
AcDbEntity
  8
BEMASS
  6
CONTINUOUS
 62
     3
100
AcDbVertex
100
AcDb2dVertex
 10
80.00999999999999
 20
5.0
 30
0.0
  0
SEQEND
  5
5C4
330
3B2
100
AcDbEntity
  8
BEMASS
  6
CONTINUOUS
 62
     3
  0
POLYLINE
  5
3B3
330
18
100
AcDbEntity
  8
1
  6
CONTINUOUS
 62
     4
100
AcDb2dPolyline
 66
     1
 10
0.0
 20
0.0
 30
0.0
  0
VERTEX
  5
5C5
330
3B3
100
AcDbEntity
  8
1
  6
CONTINUOUS
 62
     4
100
AcDbVertex
100
AcDb2dVertex
 10
29.16999999999999
 20
-16.0
 30
0.0
  0
VERTEX
  5
5C6
330
3B3
100
AcDbEntity
  8
1
  6
CONTINUOUS
 62
     4
100
AcDbVertex
100
AcDb2dVertex
 10
20.99999999999999
 20
-16.0
 30
0.0
  0
SEQEND
  5
5C7
330
3B3
100
AcDbEntity
  8
1
  6
CONTINUOUS
 62
     4
  0
POLYLINE
  5
3B4
330
18
100
AcDbEntity
  8
1
  6
CONTINUOUS
 62
     4
100
AcDb2dPolyline
 66
     1
 10
0.0
 20
0.0
 30
0.0
  0
VERTEX
  5
5C8
330
3B4
100
AcDbEntity
  8
1
  6
CONTINUOUS
 62
     4
100
AcDbVertex
100
AcDb2dVertex
 10
79.08
 20
-12.07
 30
0.0
  0
VERTEX
  5
5C9
330
3B4
100
AcDbEntity
  8
1
  6
CONTINUOUS
 62
     4
100
AcDbVertex
100
AcDb2dVertex
 10
29.16999999999999
 20
-16.0
 30
0.0
  0
SEQEND
  5
5CA
330
3B4
100
AcDbEntity
  8
1
  6
CONTINUOUS
 62
     4
  0
LINE
  5
3B5
330
18
100
AcDbEntity
  8
1
100
AcDbLine
 10
29.16999999999999
 20
16.0
 30
0.0
 11
29.16999999999999
 21
-16.0
 31
0.0
  0
LINE
  5
3B6
330
18
100
AcDbEntity
  8
SK2
100
AcDbLine
 10
77.0
 20
5.001000000000001
 30
0.0
 11
95.0
 21
5.000999999999995
 31
0.0
  0
LINE
  5
3B7
330
18
100
AcDbEntity
  8
SK2
100
AcDbLine
 10
77.0
 20
-4.998999999999998
 30
0.0
 11
95.0
 21
-4.999000000000004
 31
0.0
  0
LINE
  5
3B8
330
18
100
AcDbEntity
  8
SK2
100
AcDbLine
 10
90.0
 20
9.570999999999997
 30
0.0
 11
90.0
 21
14.14099999999999
 31
0.0
  0
LINE
  5
3B9
330
18
100
AcDbEntity
  8
SK2
100
AcDbLine
 10
90.0
 20
-9.569000000000002
 30
0.0
 11
90.0
 21
-25.26757142857143
 31
0.0
  0
SOLID
  5
3BA
330
18
100
AcDbEntity
  8
SK2
100
AcDbTrace
 10
89.23833333333332
 20
9.570999999999997
 30
0.0
 11
90.76166666666667
 21
9.570999999999997
 31
0.0
 12
90.0
 22
5.000999999999997
 32
0.0
 13
90.0
 23
5.000999999999997
 33
0.0
  0
SOLID
  5
3BB
330
18
100
AcDbEntity
  8
SK2
100
AcDbTrace
 10
89.23833333333332
 20
-9.569000000000002
 30
0.0
 11
90.76166666666667
 21
-9.569000000000002
 31
0.0
 12
90.0
 22
-4.999000000000002
 32
0.0
 13
90.0
 23
-4.999000000000002
 33
0.0
  0
LINE
  5
3BD
330
18
100
AcDbEntity
  8
SK3
100
AcDbLine
 10
43.00099999999999
 20
5.001000000000001
 30
0.0
 11
77.00099999999999
 21
5.001000000000001
 31
0.0
  0
LINE
  5
3BE
330
18
100
AcDbEntity
  8
SK3
100
AcDbLine
 10
77.00099999999999
 20
5.001000000000001
 30
0.0
 11
79.31599999999999
 21
5.202999999999999
 31
0.0
  0
LINE
  5
3BF
330
18
100
AcDbEntity
  8
SK3
100
AcDbLine
 10
79.31599999999999
 20
-5.201999999999998
 30
0.0
 11
77.00099999999999
 21
-5.0
 31
0.0
  0
LINE
  5
3C0
330
18
100
AcDbEntity
  8
SK3
100
AcDbLine
 10
77.00099999999999
 20
-5.0
 30
0.0
 11
43.00099999999999
 21
-5.0
 31
0.0
  0
LINE
  5
3C1
330
18
100
AcDbEntity
  8
SK2
100
AcDbLine
 10
80.35021955020283
 20
12.001
 30
0.0
 11
110.0
 21
12.00099999999999
 31
0.0
  0
LINE
  5
3C2
330
18
100
AcDbEntity
  8
SK2
100
AcDbLine
 10
80.35021955020283
 20
-12.001
 30
0.0
 11
110.0
 21
-12.00100000000001
 31
0.0
  0
LINE
  5
3C3
330
18
100
AcDbEntity
  8
SK2
100
AcDbLine
 10
105.0
 20
7.430999999999993
 30
0.0
 11
105.0
 21
-7.431000000000008
 31
0.0
  0
SOLID
  5
3C4
330
18
100
AcDbEntity
  8
SK2
100
AcDbTrace
 10
104.2383333333333
 20
7.430999999999993
 30
0.0
 11
105.7616666666666
 21
7.430999999999993
 31
0.0
 12
105.0
 22
12.00099999999999
 32
0.0
 13
105.0
 23
12.00099999999999
 33
0.0
  0
SOLID
  5
3C5
330
18
100
AcDbEntity
  8
SK2
100
AcDbTrace
 10
104.2383333333333
 20
-7.431000000000008
 30
0.0
 11
105.7616666666666
 21
-7.431000000000008
 31
0.0
 12
105.0
 22
-12.001
 32
0.0
 13
105.0
 23
-12.001
 33
0.0
  0
LINE
  5
3C7
330
18
100
AcDbEntity
  8
SK2
100
AcDbLine
 10
29.16999999999999
 20
16.0
 30
0.0
 11
125.0
 21
15.99999999999997
 31
0.0
  0
LINE
  5
3C8
330
18
100
AcDbEntity
  8
SK2
100
AcDbLine
 10
29.16999999999999
 20
-16.0
 30
0.0
 11
125.0
 21
-16.00000000000002
 31
0.0
  0
LINE
  5
3C9
330
18
100
AcDbEntity
  8
SK2
100
AcDbLine
 10
120.0
 20
11.42999999999997
 30
0.0
 11
120.0
 21
-11.43000000000002
 31
0.0
  0
SOLID
  5
3CA
330
18
100
AcDbEntity
  8
SK2
100
AcDbTrace
 10
119.2383333333333
 20
11.42999999999997
 30
0.0
 11
120.7616666666666
 21
11.42999999999997
 31
0.0
 12
120.0
 22
15.99999999999997
 32
0.0
 13
120.0
 23
15.99999999999997
 33
0.0
  0
SOLID
  5
3CB
330
18
100
AcDbEntity
  8
SK2
100
AcDbTrace
 10
119.2383333333333
 20
-11.43000000000002
 30
0.0
 11
120.7616666666666
 21
-11.43000000000002
 31
0.0
 12
120.0
 22
-16.00000000000002
 32
0.0
 13
120.0
 23
-16.00000000000002
 33
0.0
  0
ARC
  5
44F
330
18
100
AcDbEntity
  8
1
100
AcDbCircle
 10
20.99999999999999
 20
17.0
 30
0.0
 40
1.0
100
AcDbArc
 50
180.0
 51
270.0
  0
ARC
  5
450
330
18
100
AcDbEntity
  8
1
100
AcDbCircle
 10
20.99999999999999
 20
-17.0
 30
0.0
 40
1.0
100
AcDbArc
 50
90.00000000000003
 51
180.0
  0
LINE
  5
4FB
330
18
100
AcDbEntity
  8
SK2
100
AcDbLine
 10
-20.0
 20
14.20168421052631
 30
0.0
 11
-20.0
 21
80.0
 31
0.0
  0
LINE
  5
4FC
330
18
100
AcDbEntity
  8
SK2
100
AcDbLine
 10
0.0000000000000025
 20
20.0
 30
0.0
 11
0.0000000000000061
 21
80.0
 31
0.0
  0
LINE
  5
4FF
330
18
100
AcDbEntity
  8
1
100
AcDbLine
 10
13.9792740578363
 20
-20.0
 30
0.0
 11
-0.0000000000000025
 21
-20.0
 31
0.0
  0
LINE
  5
500
330
18
100
AcDbEntity
  8
1
100
AcDbLine
 10
13.97927405783631
 20
20.0
 30
0.0
 11
0.0000000000000025
 21
20.0
 31
0.0
  0
LINE
  5
501
330
18
100
AcDbEntity
  8
SK3
100
AcDbLine
 10
8.0
 20
-6.0
 30
0.0
 11
14.0
 21
-6.0
 31
0.0
  0
LINE
  5
502
330
18
100
AcDbEntity
  8
SK3
100
AcDbLine
 10
7.999999999999999
 20
6.0
 30
0.0
 11
14.0
 21
6.0
 31
0.0
  0
LINE
  5
503
330
18
100
AcDbEntity
  8
SK3
100
AcDbLine
 10
8.0
 20
-5.45
 30
0.0
 11
14.0
 21
-5.45
 31
0.0
  0
LINE
  5
504
330
18
100
AcDbEntity
  8
SK3
100
AcDbLine
 10
7.999999999999999
 20
5.45
 30
0.0
 11
14.0
 21
5.45
 31
0.0
  0
LINE
  5
505
330
18
100
AcDbEntity
  8
SK3
100
AcDbLine
 10
8.02786404500042
 20
-17.0
 30
0.0
 11
20.0
 21
-17.0
 31
0.0
  0
LINE
  5
506
330
18
100
AcDbEntity
  8
SK3
100
AcDbLine
 10
8.02786404500042
 20
17.0
 30
0.0
 11
20.0
 21
17.0
 31
0.0
  0
LINE
  5
507
330
18
100
AcDbEntity
  8
1
100
AcDbLine
 10
-20.0
 20
-13.44060482507738
 30
0.0
 11
-20.0
 21
13.44060482507738
 31
0.0
  0
LINE
  5
508
330
18
100
AcDbEntity
  8
1
100
AcDbLine
 10
-2.000000000000001
 20
-15.09978947368421
 30
0.0
 11
-1.999999999999998
 21
15.09978947368421
 31
0.0
  0
LINE
  5
509
330
18
100
AcDbEntity
  8
1
100
AcDbLine
 10
-0.0000000000000025
 20
-20.0
 30
0.0
 11
0.0000000000000025
 21
20.0
 31
0.0
  0
LINE
  5
50A
330
18
100
AcDbEntity
  8
SK3
100
AcDbLine
 10
-16.5
 20
10.5
 30
0.0
 11
-16.5
 21
13.62673234548593
 31
0.0
  0
ARC
  5
50B
330
18
100
AcDbEntity
  8
SK3
100
AcDbCircle
 10
-4.175823272122515
 20
7.75
 30
0.0
 40
5.0
100
AcDbArc
 50
33.36701296923179
 51
89.99999999999998
  0
LINE
  5
50C
330
18
100
AcDbEntity
  8
SK3
100
AcDbLine
 10
-11.99735026918962
 20
10.5
 30
0.0
 11
-10.69831216351296
 21
12.75
 31
0.0
  0
LINE
  5
50D
330
18
100
AcDbEntity
  8
SK3
100
AcDbLine
 10
-10.69831216351297
 20
-12.74999999999999
 30
0.0
 11
-10.69831216351296
 21
12.75
 31
0.0
  0
LINE
  5
50E
330
18
100
AcDbEntity
  8
1
100
AcDbLine
 10
-1.999999999999992
 20
-15.09978947368421
 30
0.0
 11
-19.23986619717327
 21
-14.23961088658314
 31
0.0
  0
LINE
  5
50F
330
18
100
AcDbEntity
  8
SK3
100
AcDbLine
 10
-11.99735026918963
 20
10.5
 30
0.0
 11
-19.19999999999999
 21
10.5
 31
0.0
  0
LINE
  5
510
330
18
100
AcDbEntity
  8
SK3
100
AcDbLine
 10
-11.99735026918963
 20
-10.49999999999999
 30
0.0
 11
-19.19999999999998
 21
-10.49999999999999
 31
0.0
  0
TEXT
  5
511
330
18
100
AcDbEntity
  8
6
100
AcDbText
 10
-21.0
 20
-19.5
 30
0.0
 40
3.5
  1
HSK 40-E
 41
0.7
  7
SIMPLEX
100
AcDbText
  0
LINE
  5
512
330
18
100
AcDbEntity
  8
SK3
100
AcDbLine
 10
-19.19999999999999
 20
-10.49999999999999
 30
0.0
 11
-19.19999999999999
 21
10.5
 31
0.0
  0
ARC
  5
513
330
18
100
AcDbEntity
  8
1
100
AcDbCircle
 10
-19.19999999999919
 20
-13.44060482507738
 30
0.0
 40
0.8
100
AcDbArc
 50
180.0
 51
267.1436108999004
  0
LINE
  5
514
330
18
100
AcDbEntity
  8
SK3
100
AcDbLine
 10
-16.5
 20
-13.62673234548592
 30
0.0
 11
-16.5
 21
-10.49999999999999
 31
0.0
  0
LINE
  5
515
330
18
100
AcDbEntity
  8
SK3
100
AcDbLine
 10
-19.19999999999999
 20
-10.49999999999999
 30
0.0
 11
-20.0
 21
-10.9618802153517
 31
0.0
  0
LINE
  5
516
330
18
100
AcDbEntity
  8
SK3
100
AcDbLine
 10
-19.19999999999999
 20
10.5
 30
0.0
 11
-20.0
 21
10.96188021535171
 31
0.0
  0
LINE
  5
517
330
18
100
AcDbEntity
  8
SK3
100
AcDbLine
 10
7.999999999999999
 20
10.5
 30
0.0
 11
8.000000000000001
 21
-10.49999999999999
 31
0.0
  0
LINE
  5
518
330
18
100
AcDbEntity
  8
SK3
100
AcDbLine
 10
-11.99735026918963
 20
10.5
 30
0.0
 11
-11.99735026918963
 21
-10.49999999999999
 31
0.0
  0
LINE
  5
519
330
18
100
AcDbEntity
  8
1
100
AcDbLine
 10
-1.200928839451273
 20
-14.89978947368421
 30
0.0
 11
-0.3055524447157746
 21
-14.89978947368421
 31
0.0
  0
ARC
  5
51A
330
18
100
AcDbEntity
  8
SK3
100
AcDbCircle
 10
-4.175823272122517
 20
-7.749999999999999
 30
0.0
 40
5.0
100
AcDbArc
 50
270.0
 51
326.6329870307682
  0
LINE
  5
51B
330
18
100
AcDbEntity
  8
1
100
AcDbLine
 10
-1.999999999999998
 20
-15.09978947368421
 30
0.0
 11
-1.304456457492278
 21
-14.91341914316858
 31
0.0
  0
ARC
  5
51C
330
18
100
AcDbEntity
  8
1
100
AcDbCircle
 10
-1.20092883945127
 20
-15.29978947368421
 30
0.0
 40
0.4
100
AcDbArc
 50
89.99999999999991
 51
104.9999999999999
  0
LINE
  5
51D
330
18
100
AcDbEntity
  8
1
100
AcDbLine
 10
-2.000000000000001
 20
-15.09978947368421
 30
0.0
 11
-1.304456457492282
 21
-14.91341914316858
 31
0.0
  0
ARC
  5
51E
330
18
100
AcDbEntity
  8
1
100
AcDbCircle
 10
-1.200928839451274
 20
-15.29978947368421
 30
0.0
 40
0.4
100
AcDbArc
 50
89.99999999999989
 51
104.9999999999999
  0
LINE
  5
51F
330
18
100
AcDbEntity
  8
SK3
100
AcDbLine
 10
-4.175823272122518
 20
-12.74999999999999
 30
0.0
 11
-10.69831216351297
 21
-12.74999999999999
 31
0.0
  0
LINE
  5
520
330
18
100
AcDbEntity
  8
SK3
100
AcDbLine
 10
-11.99735026918963
 20
-10.49999999999999
 30
0.0
 11
-10.69831216351297
 21
-12.74999999999999
 31
0.0
  0
LINE
  5
521
330
18
100
AcDbEntity
  8
SK3
100
AcDbLine
 10
-0.000000000000002
 20
-15.99978947368421
 30
0.0
 11
0.0905547827808529
 21
-15.35545871406823
 31
0.0
  0
ARC
  5
522
330
18
100
AcDbEntity
  8
SK3
100
AcDbCircle
 10
-0.3055524447157752
 20
-15.29978947368421
 30
0.0
 40
0.4
100
AcDbArc
 50
352.0
 51
40.19244677683519
  0
ARC
  5
523
330
18
100
AcDbEntity
  8
1
100
AcDbCircle
 10
-0.3055524447157752
 20
-15.29978947368421
 30
0.0
 40
0.4
100
AcDbArc
 50
40.19244677683519
 51
89.99999999999989
  0
LINE
  5
524
330
18
100
AcDbEntity
  8
SK3
100
AcDbLine
 10
8.02786404500042
 20
-17.0
 30
0.0
 11
8.02786404500042
 21
-20.0
 31
0.0
  0
LINE
  5
525
330
18
100
AcDbEntity
  8
SK3
100
AcDbLine
 10
7.999999999999999
 20
-10.5
 30
0.0
 11
-0.0000000000000013
 21
-10.5
 31
0.0
  0
LINE
  5
526
330
18
100
AcDbEntity
  8
SK3
100
AcDbLine
 10
8.000000000000001
 20
10.49999999999999
 30
0.0
 11
0.0000000000000013
 21
10.5
 31
0.0
  0
LINE
  5
527
330
18
100
AcDbEntity
  8
1
100
AcDbLine
 10
-1.999999999999992
 20
15.09978947368421
 30
0.0
 11
-19.23986619717327
 21
14.23961088658314
 31
0.0
  0
ARC
  5
528
330
18
100
AcDbEntity
  8
1
100
AcDbCircle
 10
-19.19999999999919
 20
13.44060482507738
 30
0.0
 40
0.8
100
AcDbArc
 50
92.8563891000995
 51
180.0
  0
LINE
  5
529
330
18
100
AcDbEntity
  8
1
100
AcDbLine
 10
-1.200928839451269
 20
14.89978947368421
 30
0.0
 11
-0.305552444715771
 21
14.89978947368421
 31
0.0
  0
LINE
  5
52A
330
18
100
AcDbEntity
  8
SK3
100
AcDbLine
 10
-4.175823272122514
 20
12.75
 30
0.0
 11
-10.69831216351296
 21
12.75
 31
0.0
  0
ARC
  5
52B
330
18
100
AcDbEntity
  8
1
100
AcDbCircle
 10
-1.20092883945127
 20
15.29978947368421
 30
0.0
 40
0.4
100
AcDbArc
 50
255.0
 51
270.0000000000001
  0
LINE
  5
52C
330
18
100
AcDbEntity
  8
1
100
AcDbLine
 10
-1.999999999999998
 20
15.09978947368421
 30
0.0
 11
-1.304456457492278
 21
14.91341914316858
 31
0.0
  0
LINE
  5
52D
330
18
100
AcDbEntity
  8
SK3
100
AcDbLine
 10
8.02786404500042
 20
17.0
 30
0.0
 11
8.027864045000418
 21
19.99999999999999
 31
0.0
  0
ARC
  5
52E
330
18
100
AcDbEntity
  8
1
100
AcDbCircle
 10
-0.3055524447157714
 20
15.29978947368421
 30
0.0
 40
0.4
100
AcDbArc
 50
270.0000000000001
 51
319.8075532231648
  0
LINE
  5
52F
330
18
100
AcDbEntity
  8
1
100
AcDbLine
 10
0.000000000000002
 20
15.99978947368421
 30
0.0
 11
0.0000000000000018
 21
15.04164667690651
 31
0.0
  0
ARC
  5
530
330
18
100
AcDbEntity
  8
SK3
100
AcDbCircle
 10
-0.3055524447157714
 20
15.29978947368421
 30
0.0
 40
0.4
100
AcDbArc
 50
319.8075532231648
 51
7.999999999999993
  0
LINE
  5
531
330
18
100
AcDbEntity
  8
SK3
100
AcDbLine
 10
0.000000000000002
 20
15.99978947368421
 30
0.0
 11
0.0905547827808567
 21
15.35545871406823
 31
0.0
  0
LINE
  5
532
330
18
100
AcDbEntity
  8
1
100
AcDbLine
 10
19.99999999999999
 20
20.0
 30
0.0
 11
20.0
 21
-19.99999999999999
 31
0.0
  0
LINE
  5
533
330
18
100
AcDbEntity
  8
1
100
AcDbLine
 10
14.99999999999999
 20
18.23205080756888
 30
0.0
 11
15.00000000000001
 21
-18.14999999999999
 31
0.0
  0
LINE
  5
534
330
18
100
AcDbEntity
  8
1
100
AcDbLine
 10
16.99999999999999
 20
18.23205080756888
 30
0.0
 11
17.00000000000001
 21
-18.14999999999999
 31
0.0
  0
LINE
  5
535
330
18
100
AcDbEntity
  8
1
100
AcDbLine
 10
13.97927405783631
 20
20.0
 30
0.0
 11
13.97927405783631
 21
-19.99999999999999
 31
0.0
  0
LINE
  5
536
330
18
100
AcDbEntity
  8
1
100
AcDbLine
 10
18.02072594216368
 20
20.0
 30
0.0
 11
18.02072594216369
 21
-20.0
 31
0.0
  0
LINE
  5
537
330
18
100
AcDbEntity
  8
SK3
100
AcDbLine
 10
16.0
 20
6.25
 30
0.0
 11
16.0
 21
-6.25
 31
0.0
  0
LINE
  5
538
330
18
100
AcDbEntity
  8
SK3
100
AcDbLine
 10
14.0
 20
6.25
 30
0.0
 11
14.0
 21
-6.25
 31
0.0
  0
LINE
  5
539
330
18
100
AcDbEntity
  8
1
100
AcDbLine
 10
20.0
 20
-19.99999999999999
 30
0.0
 11
18.02072594216369
 21
-19.99999999999999
 31
0.0
  0
ARC
  5
53A
330
18
100
AcDbEntity
  8
1
100
AcDbCircle
 10
16.25
 20
-18.14999999999999
 30
0.0
 40
0.75
100
AcDbArc
 50
0.0
 51
90.00000000000003
  0
ARC
  5
53B
330
18
100
AcDbEntity
  8
1
100
AcDbCircle
 10
15.75
 20
-18.14999999999999
 30
0.0
 40
0.75
100
AcDbArc
 50
90.00000000000003
 51
180.0
  0
LINE
  5
53C
330
18
100
AcDbEntity
  8
1
100
AcDbLine
 10
13.97927405783631
 20
-20.0
 30
0.0
 11
15.0
 21
-18.23205080756887
 31
0.0
  0
LINE
  5
53D
330
18
100
AcDbEntity
  8
1
100
AcDbLine
 10
18.02072594216369
 20
-19.99999999999999
 30
0.0
 11
17.0
 21
-18.23205080756887
 31
0.0
  0
LINE
  5
53E
330
18
100
AcDbEntity
  8
1
100
AcDbLine
 10
16.25
 20
-17.39999999999999
 30
0.0
 11
15.75
 21
-17.39999999999999
 31
0.0
  0
LINE
  5
53F
330
18
100
AcDbEntity
  8
1
100
AcDbLine
 10
15.0
 20
-18.23205080756887
 30
0.0
 11
15.0
 21
-18.14999999999999
 31
0.0
  0
LINE
  5
540
330
18
100
AcDbEntity
  8
1
100
AcDbLine
 10
17.0
 20
-18.23205080756887
 30
0.0
 11
17.0
 21
-18.14999999999999
 31
0.0
  0
LINE
  5
541
330
18
100
AcDbEntity
  8
SK3
100
AcDbLine
 10
14.0
 20
-6.25
 30
0.0
 11
16.0
 21
-6.25
 31
0.0
  0
LINE
  5
542
330
18
100
AcDbEntity
  8
SK3
100
AcDbLine
 10
14.0
 20
6.25
 30
0.0
 11
16.0
 21
6.25
 31
0.0
  0
LINE
  5
543
330
18
100
AcDbEntity
  8
1
100
AcDbLine
 10
18.02072594216368
 20
20.0
 30
0.0
 11
16.99999999999999
 21
18.23205080756888
 31
0.0
  0
LINE
  5
544
330
18
100
AcDbEntity
  8
1
100
AcDbLine
 10
13.9792740578363
 20
20.0
 30
0.0
 11
15.0
 21
18.23205080756888
 31
0.0
  0
LINE
  5
545
330
18
100
AcDbEntity
  8
1
100
AcDbLine
 10
16.99999999999999
 20
18.23205080756888
 30
0.0
 11
16.99999999999999
 21
18.15
 31
0.0
  0
LINE
  5
546
330
18
100
AcDbEntity
  8
1
100
AcDbLine
 10
15.0
 20
18.23205080756888
 30
0.0
 11
15.0
 21
18.15
 31
0.0
  0
LINE
  5
547
330
18
100
AcDbEntity
  8
1
100
AcDbLine
 10
16.24999999999999
 20
17.4
 30
0.0
 11
15.75
 21
17.4
 31
0.0
  0
ARC
  5
548
330
18
100
AcDbEntity
  8
1
100
AcDbCircle
 10
15.75
 20
18.15
 30
0.0
 40
0.75
100
AcDbArc
 50
180.0
 51
270.0
  0
ARC
  5
549
330
18
100
AcDbEntity
  8
1
100
AcDbCircle
 10
16.24999999999999
 20
18.15
 30
0.0
 40
0.75
100
AcDbArc
 50
270.0
 51
0.0
  0
LINE
  5
54A
330
18
100
AcDbEntity
  8
1
100
AcDbLine
 10
19.99999999999999
 20
20.0
 30
0.0
 11
18.02072594216368
 21
20.0
 31
0.0
  0
LINE
  5
54B
330
18
100
AcDbEntity
  8
SK2
100
AcDbLine
 10
0.0000000000000058
 20
75.0
 30
0.0
 11
16.56904761904762
 21
75.0
 31
0.0
  0
LINE
  5
54D
330
18
100
AcDbEntity
  8
SK2
100
AcDbLine
 10
-15.43
 20
75.0
 30
0.0
 11
-4.569999999999994
 21
75.0
 31
0.0
  0
SOLID
  5
54E
330
18
100
AcDbEntity
  8
SK2
100
AcDbTrace
 10
-15.43
 20
75.76166666666667
 30
0.0
 11
-15.43
 21
74.23833333333333
 31
0.0
 12
-20.0
 22
75.0
 32
0.0
 13
-20.0
 23
75.0
 33
0.0
  0
SOLID
  5
54F
330
18
100
AcDbEntity
  8
SK2
100
AcDbTrace
 10
-4.569999999999994
 20
75.76166666666667
 30
0.0
 11
-4.569999999999994
 21
74.23833333333333
 31
0.0
 12
0.0000000000000058
 22
75.0
 32
0.0
 13
0.0000000000000058
 23
75.0
 33
0.0
  0
LINE
  5
57B
330
18
100
AcDbEntity
  8
SK2
100
AcDbLine
 10
-0.0000000000000025
 20
-20.0
 30
0.0
 11
-40.00000000000001
 21
-19.99999999999998
 31
0.0
  0
LINE
  5
57C
330
18
100
AcDbEntity
  8
SK2
100
AcDbLine
 10
0.0000000000000025
 20
20.0
 30
0.0
 11
-40.0
 21
20.00000000000001
 31
0.0
  0
LINE
  5
57D
330
18
100
AcDbEntity
  8
SK2
100
AcDbLine
 10
-35.0
 20
-15.42999999999999
 30
0.0
 11
-35.0
 21
15.43000000000001
 31
0.0
  0
SOLID
  5
57E
330
18
100
AcDbEntity
  8
SK2
100
AcDbTrace
 10
-35.76166666666667
 20
-15.42999999999999
 30
0.0
 11
-34.23833333333334
 21
-15.42999999999999
 31
0.0
 12
-35.00000000000001
 22
-19.99999999999999
 32
0.0
 13
-35.00000000000001
 23
-19.99999999999999
 33
0.0
  0
SOLID
  5
57F
330
18
100
AcDbEntity
  8
SK2
100
AcDbTrace
 10
-35.76166666666667
 20
15.43000000000001
 30
0.0
 11
-34.23833333333334
 21
15.43000000000001
 31
0.0
 12
-35.0
 22
20.00000000000001
 32
0.0
 13
-35.0
 23
20.00000000000001
 33
0.0
  0
LINE
  5
581
330
18
100
AcDbEntity
  8
2
100
AcDbLine
 10
0.0000000000000025
 20
20.0
 30
0.0
 11
0.0000000000000052
 21
65.0
 31
0.0
  0
LINE
  5
582
330
18
100
AcDbEntity
  8
2
100
AcDbLine
 10
20.0
 20
19.99999999999999
 30
0.0
 11
20.0
 21
65.0
 31
0.0
  0
LINE
  5
583
330
18
100
AcDbEntity
  8
2
100
AcDbLine
 10
4.570000000000005
 20
60.0
 30
0.0
 11
15.43
 21
60.0
 31
0.0
  0
SOLID
  5
584
330
18
100
AcDbEntity
  8
2
100
AcDbTrace
 10
4.570000000000005
 20
60.76166666666667
 30
0.0
 11
4.570000000000005
 21
59.23833333333333
 31
0.0
 12
0.0000000000000049
 22
60.0
 32
0.0
 13
0.0000000000000049
 23
60.0
 33
0.0
  0
SOLID
  5
585
330
18
100
AcDbEntity
  8
2
100
AcDbTrace
 10
15.43
 20
60.76166666666667
 30
0.0
 11
15.43
 21
59.23833333333333
 31
0.0
 12
20.0
 22
60.0
 32
0.0
 13
20.0
 23
60.0
 33
0.0
  0
LINE
  5
587
330
18
100
AcDbEntity
  8
SK2
100
AcDbLine
 10
37.99999999999998
 20
-11.07999999999999
 30
0.0
 11
37.99999999999998
 21
-30.0
 31
0.0
  0
LINE
  5
588
330
18
100
AcDbEntity
  8
SK2
100
AcDbLine
 10
47.99999999999998
 20
-11.07999999999999
 30
0.0
 11
47.99999999999998
 21
-30.0
 31
0.0
  0
LINE
  5
589
330
18
100
AcDbEntity
  8
SK2
100
AcDbLine
 10
33.42999999999998
 20
-25.0
 30
0.0
 11
28.85999999999998
 21
-25.0
 31
0.0
  0
LINE
  5
58A
330
18
100
AcDbEntity
  8
SK2
100
AcDbLine
 10
52.56999999999998
 20
-25.0
 30
0.0
 11
68.26857142857142
 21
-25.0
 31
0.0
  0
SOLID
  5
58B
330
18
100
AcDbEntity
  8
SK2
100
AcDbTrace
 10
33.42999999999998
 20
-24.23833333333333
 30
0.0
 11
33.42999999999998
 21
-25.76166666666666
 31
0.0
 12
37.99999999999998
 22
-25.0
 32
0.0
 13
37.99999999999998
 23
-25.0
 33
0.0
  0
SOLID
  5
58C
330
18
100
AcDbEntity
  8
SK2
100
AcDbTrace
 10
52.56999999999998
 20
-24.23833333333333
 30
0.0
 11
52.56999999999998
 21
-25.76166666666666
 31
0.0
 12
47.99999999999998
 22
-25.0
 32
0.0
 13
47.99999999999998
 23
-25.0
 33
0.0
  0
LINE
  5
58E
330
18
100
AcDbEntity
  8
SK2
100
AcDbLine
 10
37.99999999999998
 20
-11.07999999999999
 30
0.0
 11
37.99999999999998
 21
-45.0
 31
0.0
  0
LINE
  5
58F
330
18
100
AcDbEntity
  8
SK2
100
AcDbLine
 10
79.99999999999999
 20
-11.07999994764011
 30
0.0
 11
79.99999999999999
 21
-45.0
 31
0.0
  0
LINE
  5
590
330
18
100
AcDbEntity
  8
SK2
100
AcDbLine
 10
42.56999999999998
 20
-40.0
 30
0.0
 11
75.42999999999998
 21
-40.0
 31
0.0
  0
SOLID
  5
591
330
18
100
AcDbEntity
  8
SK2
100
AcDbTrace
 10
42.56999999999998
 20
-39.23833333333332
 30
0.0
 11
42.56999999999998
 21
-40.76166666666667
 31
0.0
 12
37.99999999999998
 22
-40.0
 32
0.0
 13
37.99999999999998
 23
-40.0
 33
0.0
  0
SOLID
  5
592
330
18
100
AcDbEntity
  8
SK2
100
AcDbTrace
 10
75.42999999999998
 20
-39.23833333333332
 30
0.0
 11
75.42999999999998
 21
-40.76166666666667
 31
0.0
 12
79.99999999999999
 22
-40.0
 32
0.0
 13
79.99999999999999
 23
-40.0
 33
0.0
  0
LINE
  5
594
330
18
100
AcDbEntity
  8
SK2
100
AcDbLine
 10
29.16999999999999
 20
16.0
 30
0.0
 11
56.86192357707446
 21
16.0
 31
0.0
  0
ARC
  5
595
330
18
100
AcDbEntity
  8
SK2
100
AcDbCircle
 10
29.16999999999999
 20
16.0
 30
0.0
 40
22.69192357707445
100
AcDbArc
 50
332.3919845709533
 51
343.950557251334
  0
ARC
  5
596
330
18
100
AcDbEntity
  8
SK2
100
AcDbCircle
 10
29.16999999999999
 20
16.0
 30
0.0
 40
22.69192357707445
100
AcDbArc
 50
11.55857268038077
 51
23.11714536076155
  0
SOLID
  5
597
330
18
100
AcDbEntity
  8
SK2
100
AcDbTrace
 10
50.22800809022994
 20
9.862234674591849
 30
0.0
 11
51.72693463323266
 21
9.590640007622237
 31
0.0
 12
51.79225536264014
 22
14.22321697011523
 32
0.0
 13
51.79225536264014
 23
14.22321697011523
 33
0.0
  0
SOLID
  5
598
330
18
100
AcDbEntity
  8
SK2
100
AcDbTrace
 10
52.15953527524207
 20
20.62346876146307
 30
0.0
 11
50.64394477432607
 21
20.47007424403294
 31
0.0
 12
51.86192357707446
 22
16.0
 32
0.0
 13
51.86192357707446
 23
16.0
 33
0.0
  0
LINE
  5
59A
330
18
100
AcDbEntity
  8
2
100
AcDbLine
 10
0.0000052588630614
 20
22.22500892674834
 30
0.0
 11
0.0000052588630649
 21
80.0
 31
0.0
  0
LINE
  5
59B
330
18
100
AcDbEntity
  8
2
100
AcDbLine
 10
79.99999999999999
 20
9.560000000000002
 30
0.0
 11
79.99999999999999
 21
80.0
 31
0.0
  0
LINE
  5
59C
330
18
100
AcDbEntity
  8
2
100
AcDbLine
 10
4.570005258863065
 20
75.0
 30
0.0
 11
75.42999999999998
 21
75.0
 31
0.0
  0
SOLID
  5
59D
330
18
100
AcDbEntity
  8
2
100
AcDbTrace
 10
4.570005258863065
 20
75.76166666666667
 30
0.0
 11
4.570005258863065
 21
74.23833333333333
 31
0.0
 12
0.0000052588630646
 22
75.0
 32
0.0
 13
0.0000052588630646
 23
75.0
 33
0.0
  0
SOLID
  5
59E
330
18
100
AcDbEntity
  8
2
100
AcDbTrace
 10
75.42999999999998
 20
75.76166666666667
 30
0.0
 11
75.42999999999998
 21
74.23833333333333
 31
0.0
 12
79.99999999999999
 22
75.0
 32
0.0
 13
79.99999999999999
 23
75.0
 33
0.0
  0
TEXT
  5
5A0
330
18
100
AcDbEntity
  8
2
100
AcDbText
 10
36.30047881990771
 20
77.3
 30
0.0
 40
4.57
  1
80
  7
SIMPLEX
100
AcDbText
  0
TEXT
  5
5A1
330
18
100
AcDbEntity
  8
SK2
100
AcDbText
 10
51.59388088589248
 20
28.50159303708862
 30
0.0
 40
4.57
  1
4.5°
 50
285.9099850097745
  7
SIMPLEX
100
AcDbText
  0
TEXT
  5
5A2
330
18
100
AcDbEntity
  8
SK2
100
AcDbText
 10
55.30047619047618
 20
-37.7
 30
0.0
 40
4.57
  1
42
  7
SIMPLEX
100
AcDbText
  0
TEXT
  5
5A3
330
18
100
AcDbEntity
  8
SK2
100
AcDbText
 10
59.43999999999999
 20
-22.7
 30
0.0
 40
4.57
  1
10
  7
SIMPLEX
100
AcDbText
  0
TEXT
  5
5A4
330
18
100
AcDbEntity
  8
2
100
AcDbText
 10
6.300476190476198
 20
62.3
 30
0.0
 40
4.57
  1
20
  7
SIMPLEX
100
AcDbText
  0
TEXT
  5
5A5
330
18
100
AcDbEntity
  8
SK2
100
AcDbText
 10
-37.30000000000001
 20
-5.766904761904755
 30
0.0
 40
4.57
  1
%%c
 50
90.0
  7
SIMPLEX
100
AcDbText
  0
TEXT
  5
5A6
330
18
100
AcDbEntity
  8
SK2
100
AcDbText
 10
-37.30000000000001
 20
-1.63214285714285
 30
0.0
 40
4.57
  1
40
 50
90.0
  7
SIMPLEX
100
AcDbText
  0
TEXT
  5
5A7
330
18
100
AcDbEntity
  8
SK2
100
AcDbText
 10
-13.68332382790012
 20
77.3
 30
0.0
 40
4.57
  1
20
  7
SIMPLEX
100
AcDbText
  0
TEXT
  5
5A8
330
18
100
AcDbEntity
  8
SK2
100
AcDbText
 10
117.7
 20
-5.766904761904769
 30
0.0
 40
4.57
  1
%%c
 50
90.0
  7
SIMPLEX
100
AcDbText
  0
TEXT
  5
5A9
330
18
100
AcDbEntity
  8
SK2
100
AcDbText
 10
117.7
 20
-1.632142857142865
 30
0.0
 40
4.57
  1
32
 50
90.0
  7
SIMPLEX
100
AcDbText
  0
TEXT
  5
5AA
330
18
100
AcDbEntity
  8
SK2
100
AcDbText
 10
102.7
 20
-5.875714285714275
 30
0.0
 40
4.57
  1
%%c
 50
90.0
  7
SIMPLEX
100
AcDbText
  0
TEXT
  5
5AB
330
18
100
AcDbEntity
  8
SK2
100
AcDbText
 10
102.7
 20
-1.740952380952371
 30
0.0
 40
4.57
  1
24
 50
90.0
  7
SIMPLEX
100
AcDbText
  0
TEXT
  5
5AC
330
18
100
AcDbEntity
  8
SK2
100
AcDbText
 10
87.70000000000001
 20
-25.03495238095236
 30
0.0
 40
4.57
  1
%%c
 50
90.0
  7
SIMPLEX
100
AcDbText
  0
TEXT
  5
5AD
330
18
100
AcDbEntity
  8
SK2
100
AcDbText
 10
87.70000000000001
 20
-20.90019047619046
 30
0.0
 40
4.57
  1
10
 50
90.0
  7
SIMPLEX
100
AcDbText
  0
ENDSEC
  0
SECTION
  2
OBJECTS
  0
DICTIONARY
  5
C
330
0
100
AcDbDictionary
  3
ACAD_GROUP
350
D
  3
ACAD_LAYOUT
350
301
  3
ACAD_MLINESTYLE
350
E
  3
ACAD_PLOTSETTINGS
350
302
1001
ACAD
1000
TREAT_AS_HARD
1070
     0
  0
DICTIONARY
  5
5AF
330
18
100
AcDbDictionary
  3
ACAD_LAYOUTSELFREF
350
5B0
  0
DICTIONARY
  5
5B1
330
338
100
AcDbDictionary
  3
ACAD_LAYOUTSELFREF
350
5B2
  0
DICTIONARY
  5
D
102
{ACAD_REACTORS
330
C
102
}
330
C
100
AcDbDictionary
1001
ACAD
1000
TREAT_AS_HARD
1070
     0
  0
DICTIONARY
  5
301
102
{ACAD_REACTORS
330
C
102
}
330
C
100
AcDbDictionary
1001
ACAD
1000
TREAT_AS_HARD
1070
     0
  0
DICTIONARY
  5
E
102
{ACAD_REACTORS
330
C
102
}
330
C
100
AcDbDictionary
  3
STANDARD
350
1B
1001
ACAD
1000
TREAT_AS_HARD
1070
     0
  0
DICTIONARY
  5
302
102
{ACAD_REACTORS
330
C
102
}
330
C
100
AcDbDictionary
1001
ACAD
1000
TREAT_AS_HARD
1070
     0
  0
XRECORD
  5
5B0
102
{ACAD_REACTORS
330
5AF
102
}
330
5AF
100
AcDbXrecord
340
18
  0
XRECORD
  5
5B2
102
{ACAD_REACTORS
330
5B1
102
}
330
5B1
100
AcDbXrecord
340
338
  0
MLINESTYLE
  5
1B
102
{ACAD_REACTORS
330
E
102
}
330
E
100
AcDbMlineStyle
  2
STANDARD
 70
     0
  3

 62
     0
 51
90.0
 52
90.0
 71
     2
 49
0.5
 62
   256
  6
BYLAYER
 49
-0.5
 62
   256
  6
BYLAYER
  0
ENDSEC
  0
EOF
