  0
SECTION
  2
HEADER
  9
$ACADVER
  1
AC1012
  9
$DWGCODEPAGE
  3
ANSI_1252
  9
$INSBASE
 10
0.0
 20
0.0
 30
0.0
  9
$EXTMIN
 10
-37.92133918441982
 20
-45.02075080645818
 30
-0.0015258207003583
  9
$EXTMAX
 10
125.0348979961534
 20
81.8743904422438
 30
0.0000000349246037
  9
$LIMMIN
 10
-170.0
 20
-170.0
  9
$LIMMAX
 10
519.0
 20
260.0
  9
$ORTHOMODE
 70
     0
  9
$REGENMODE
 70
     1
  9
$FILLMODE
 70
     1
  9
$QTEXTMODE
 70
     0
  9
$MIRRTEXT
 70
     0
  9
$DRAGMODE
 70
     2
  9
$LTSCALE
 40
15.0
  9
$OSMODE
 70
     0
  9
$ATTMODE
 70
     1
  9
$TEXTSIZE
 40
4.57
  9
$TRACEWID
 40
0.05
  9
$TEXTSTYLE
  7
SIMPLEX
  9
$CLAYER
  8
SK2
  9
$CELTYPE
  6
BYLAYER
  9
$CECOLOR
 62
   256
  9
$CELTSCALE
 40
1.0
  9
$DELOBJ
 70
     1
  9
$DISPSILH
 70
     0
  9
$DIMSCALE
 40
0.0
  9
$DIMASZ
 40
4.57
  9
$DIMEXO
 40
0.0
  9
$DIMDLI
 40
0.38
  9
$DIMRND
 40
0.0
  9
$DIMDLE
 40
0.0
  9
$DIMEXE
 40
5.0
  9
$DIMTP
 40
0.0
  9
$DIMTM
 40
0.0
  9
$DIMTXT
 40
4.57
  9
$DIMCEN
 40
0.09
  9
$DIMTSZ
 40
0.0
  9
$DIMTOL
 70
     0
  9
$DIMLIM
 70
     0
  9
$DIMTIH
 70
     0
  9
$DIMTOH
 70
     0
  9
$DIMSE1
 70
     0
  9
$DIMSE2
 70
     0
  9
$DIMTAD
 70
     1
  9
$DIMZIN
 70
     8
  9
$DIMBLK
  1

  9
$DIMASO
 70
     1
  9
$DIMSHO
 70
     1
  9
$DIMPOST
  1

  9
$DIMAPOST
  1

  9
$DIMALT
 70
     0
  9
$DIMALTD
 70
     2
  9
$DIMALTF
 40
25.4
  9
$DIMLFAC
 40
1.0
  9
$DIMTOFL
 70
     0
  9
$DIMTVP
 40
0.0
  9
$DIMTIX
 70
     0
  9
$DIMSOXD
 70
     0
  9
$DIMSAH
 70
     0
  9
$DIMBLK1
  1

  9
$DIMBLK2
  1

  9
$DIMSTYLE
  2
STANDARD
  9
$DIMCLRD
 70
     0
  9
$DIMCLRE
 70
     0
  9
$DIMCLRT
 70
     0
  9
$DIMTFAC
 40
1.0
  9
$DIMGAP
 40
2.299999999999999
  9
$DIMJUST
 70
     0
  9
$DIMSD1
 70
     0
  9
$DIMSD2
 70
     0
  9
$DIMTOLJ
 70
     1
  9
$DIMTZIN
 70
     0
  9
$DIMALTZ
 70
     0
  9
$DIMALTTZ
 70
     0
  9
$DIMFIT
 70
     3
  9
$DIMUPT
 70
     0
  9
$DIMUNIT
 70
     2
  9
$DIMDEC
 70
     2
  9
$DIMTDEC
 70
     4
  9
$DIMALTU
 70
     2
  9
$DIMALTTD
 70
     2
  9
$DIMTXSTY
  7
SIMPLEX
  9
$DIMAUNIT
 70
     0
  9
$LUNITS
 70
     2
  9
$LUPREC
 70
     2
  9
$SKETCHINC
 40
0.1
  9
$FILLETRAD
 40
0.0
  9
$AUNITS
 70
     0
  9
$AUPREC
 70
     0
  9
$MENU
  1
c:\tdm21\cad\caduti13\tdm13
  9
$ELEVATION
 40
0.0
  9
$PELEVATION
 40
0.0
  9
$THICKNESS
 40
0.0
  9
$LIMCHECK
 70
     0
  9
$BLIPMODE
 70
     0
  9
$CHAMFERA
 40
0.0
  9
$CHAMFERB
 40
0.0
  9
$CHAMFERC
 40
0.0
  9
$CHAMFERD
 40
0.0
  9
$SKPOLY
 70
     0
  9
$TDCREATE
 40
2452546.453124421
  9
$TDUPDATE
 40
2452546.453124421
  9
$TDINDWG
 40
0.0003954861
  9
$TDUSRTIMER
 40
0.0003954861
  9
$USRTIMER
 70
     1
  9
$ANGBASE
 50
0.0
  9
$ANGDIR
 70
     0
  9
$PDMODE
 70
     1
  9
$PDSIZE
 40
0.0
  9
$PLINEWID
 40
0.0
  9
$COORDS
 70
     1
  9
$SPLFRAME
 70
     0
  9
$SPLINETYPE
 70
     6
  9
$SPLINESEGS
 70
     8
  9
$ATTDIA
 70
     0
  9
$ATTREQ
 70
     1
  9
$HANDLING
 70
  4097
  9
$HANDSEED
  5
609
  9
$SURFTAB1
 70
     6
  9
$SURFTAB2
 70
     6
  9
$SURFTYPE
 70
     6
  9
$SURFU
 70
     6
  9
$SURFV
 70
     6
  9
$UCSNAME
  2

  9
$UCSORG
 10
0.0
 20
0.0
 30
0.0
  9
$UCSXDIR
 10
1.0
 20
0.0
 30
0.0
  9
$UCSYDIR
 10
0.0
 20
1.0
 30
0.0
  9
$PUCSNAME
  2

  9
$PUCSORG
 10
0.0
 20
0.0
 30
0.0
  9
$PUCSXDIR
 10
1.0
 20
0.0
 30
0.0
  9
$PUCSYDIR
 10
0.0
 20
1.0
 30
0.0
  9
$USERI1
 70
     0
  9
$USERI2
 70
     0
  9
$USERI3
 70
     0
  9
$USERI4
 70
     0
  9
$USERI5
 70
     0
  9
$USERR1
 40
0.0
  9
$USERR2
 40
0.0
  9
$USERR3
 40
0.0
  9
$USERR4
 40
0.0
  9
$USERR5
 40
0.0
  9
$WORLDVIEW
 70
     1
  9
$SHADEDGE
 70
     3
  9
$SHADEDIF
 70
    70
  9
$TILEMODE
 70
     1
  9
$MAXACTVP
 70
    16
  9
$PINSBASE
 10
0.0
 20
0.0
 30
0.0
  9
$PLIMCHECK
 70
     0
  9
$PEXTMIN
 10
0.0
 20
0.0
 30
0.0
  9
$PEXTMAX
 10
0.0
 20
0.0
 30
0.0
  9
$PLIMMIN
 10
0.0
 20
0.0
  9
$PLIMMAX
 10
12.0
 20
9.0
  9
$UNITMODE
 70
     0
  9
$VISRETAIN
 70
     0
  9
$PLINEGEN
 70
     0
  9
$PSLTSCALE
 70
     1
  9
$TREEDEPTH
 70
  3020
  9
$PICKSTYLE
 70
     1
  9
$CMLSTYLE
  2
STANDARD
  9
$CMLJUST
 70
     0
  9
$CMLSCALE
 40
1.0
  9
$SAVEIMAGES
 70
     1
  0
ENDSEC
  0
SECTION
  2
CLASSES
  0
CLASS
  1
ACDBDICTIONARYWDFLT
  2
AcDbDictionaryWithDefault
  3
AutoCAD 2000
 90
    32768
280
     0
281
     0
  0
CLASS
  1
ACDBPLACEHOLDER
  2
AcDbPlaceHolder
  3
AutoCAD 2000
 90
    32768
280
     0
281
     0
  0
CLASS
  1
LAYOUT
  2
AcDbLayout
  3
AutoCAD 2000
 90
    32768
280
     0
281
     0
  0
CLASS
  1
LONG_TRANSACTION
  2
AcDbLongTransaction
  3
AutoCAD 2000
 90
    32768
280
     0
281
     0
  0
CLASS
  1
LWPOLYLINE
  2
AcDbPolyline
  3
AutoCAD 2000
 90
    32768
280
     0
281
     1
  0
CLASS
  1
HATCH
  2
AcDbHatch
  3
AutoCAD 2000
 90
    32768
280
     0
281
     1
  0
CLASS
  1
XRECORD
  2
AcDbXrecord
  3
AutoCAD 2000
 90
    32768
280
     0
281
     0
  0
ENDSEC
  0
SECTION
  2
TABLES
  0
TABLE
  2
VPORT
  5
8
330
0
100
AcDbSymbolTable
 70
     3
  0
VPORT
  5
5F2
330
8
100
AcDbSymbolTableRecord
100
AcDbViewportTableRecord
  2
*ACTIVE
 70
     0
 10
0.0
 20
0.0
 11
1.0
 21
1.0
 12
43.55677940586677
 22
18.4268198178928
 13
0.0
 23
0.0
 14
5.0
 24
5.0
 15
5.0
 25
5.0
 16
0.0
 26
0.0
 36
1.0
 17
0.0
 27
0.0
 37
0.0
 40
136.8951412487019
 41
2.184713375796178
 42
50.0
 43
0.0
 44
0.0
 50
0.0
 51
0.0
 71
     0
 72
   100
 73
     1
 74
     1
 75
     0
 76
     0
 77
     0
 78
     0
  0
ENDTAB
  0
TABLE
  2
LTYPE
  5
5
330
0
100
AcDbSymbolTable
 70
     3
  0
LTYPE
  5
12
330
5
100
AcDbSymbolTableRecord
100
AcDbLinetypeTableRecord
  2
BYBLOCK
 70
     0
  3

 72
    65
 73
     0
 40
0.0
  0
LTYPE
  5
13
330
5
100
AcDbSymbolTableRecord
100
AcDbLinetypeTableRecord
  2
BYLAYER
 70
     0
  3

 72
    65
 73
     0
 40
0.0
  0
LTYPE
  5
14
330
5
100
AcDbSymbolTableRecord
100
AcDbLinetypeTableRecord
  2
CONTINUOUS
 70
     0
  3
Solid line
 72
    65
 73
     0
 40
0.0
  0
LTYPE
  5
1F
330
5
100
AcDbSymbolTableRecord
100
AcDbLinetypeTableRecord
  2
CENTER
 70
     0
  3
____ . ____ . ____
 72
    65
 73
     4
 40
1.5
 49
1.0
 74
     0
 49
-0.25
 74
     0
 49
0.0
 74
     0
 49
-0.25
 74
     0
  0
LTYPE
  5
20
330
5
100
AcDbSymbolTableRecord
100
AcDbLinetypeTableRecord
  2
HIDDEN
 70
     0
  3
_ _ _ _ _ _ _ _ _ _ _ _ _ _ _ _ _ _ _ _ _ _ _
 72
    65
 73
     2
 40
0.375
 49
0.25
 74
     0
 49
-0.125
 74
     0
  0
ENDTAB
  0
TABLE
  2
LAYER
  5
2
330
0
100
AcDbSymbolTable
 70
    15
  0
LAYER
  5
F
330
2
100
AcDbSymbolTableRecord
100
AcDbLayerTableRecord
  2
0
 70
     0
 62
     7
  6
CONTINUOUS
  0
LAYER
  5
23
330
2
100
AcDbSymbolTableRecord
100
AcDbLayerTableRecord
  2
1
 70
     0
 62
     4
  6
CONTINUOUS
  0
LAYER
  5
24
330
2
100
AcDbSymbolTableRecord
100
AcDbLayerTableRecord
  2
SK1
 70
     0
 62
     4
  6
CONTINUOUS
  0
LAYER
  5
25
330
2
100
AcDbSymbolTableRecord
100
AcDbLayerTableRecord
  2
2
 70
     0
 62
     7
  6
CONTINUOUS
  0
LAYER
  5
26
330
2
100
AcDbSymbolTableRecord
100
AcDbLayerTableRecord
  2
2L
 70
     0
 62
     7
  6
CONTINUOUS
  0
LAYER
  5
27
330
2
100
AcDbSymbolTableRecord
100
AcDbLayerTableRecord
  2
SK2
 70
     0
 62
     7
  6
CONTINUOUS
  0
LAYER
  5
28
330
2
100
AcDbSymbolTableRecord
100
AcDbLayerTableRecord
  2
3
 70
     0
 62
     1
  6
HIDDEN
  0
LAYER
  5
29
330
2
100
AcDbSymbolTableRecord
100
AcDbLayerTableRecord
  2
SK3
 70
     0
 62
     1
  6
HIDDEN
  0
LAYER
  5
2A
330
2
100
AcDbSymbolTableRecord
100
AcDbLayerTableRecord
  2
4
 70
     0
 62
     2
  6
CENTER
  0
LAYER
  5
2B
330
2
100
AcDbSymbolTableRecord
100
AcDbLayerTableRecord
  2
SK4
 70
     0
 62
     2
  6
CENTER
  0
LAYER
  5
2C
330
2
100
AcDbSymbolTableRecord
100
AcDbLayerTableRecord
  2
5
 70
     0
 62
     7
  6
CONTINUOUS
  0
LAYER
  5
2D
330
2
100
AcDbSymbolTableRecord
100
AcDbLayerTableRecord
  2
6
 70
     0
 62
     5
  6
CONTINUOUS
  0
LAYER
  5
2E
330
2
100
AcDbSymbolTableRecord
100
AcDbLayerTableRecord
  2
SK6
 70
     0
 62
     5
  6
CONTINUOUS
  0
LAYER
  5
2F
330
2
100
AcDbSymbolTableRecord
100
AcDbLayerTableRecord
  2
DEFPOINTS
 70
     0
 62
     7
  6
CONTINUOUS
  0
LAYER
  5
39D
330
2
100
AcDbSymbolTableRecord
100
AcDbLayerTableRecord
  2
BEMASS
 70
     0
 62
     1
  6
CONTINUOUS
  0
ENDTAB
  0
TABLE
  2
STYLE
  5
3
330
0
100
AcDbSymbolTable
 70
     3
  0
STYLE
  5
10
330
3
100
AcDbSymbolTableRecord
100
AcDbTextStyleTableRecord
  2
STANDARD
 70
     0
 40
0.0
 41
1.0
 50
0.0
 71
     0
 42
5.0
  3
txt
  4

  0
STYLE
  5
1D
330
3
100
AcDbSymbolTableRecord
100
AcDbTextStyleTableRecord
  2
TXT
 70
     0
 40
8.0
 41
1.0
 50
0.0
 71
     0
 42
8.0
  3
txt
  4

  0
STYLE
  5
1E
330
3
100
AcDbSymbolTableRecord
100
AcDbTextStyleTableRecord
  2
SIMPLEX
 70
     0
 40
0.0
 41
1.0
 50
0.0
 71
     0
 42
4.57
  3
simplex
  4

  0
ENDTAB
  0
TABLE
  2
VIEW
  5
6
330
0
100
AcDbSymbolTable
 70
     0
  0
ENDTAB
  0
TABLE
  2
UCS
  5
7
330
0
100
AcDbSymbolTable
 70
     0
  0
ENDTAB
  0
TABLE
  2
APPID
  5
9
330
0
100
AcDbSymbolTable
 70
     1
  0
APPID
  5
11
330
9
100
AcDbSymbolTableRecord
100
AcDbRegAppTableRecord
  2
ACAD
 70
     0
  0
ENDTAB
  0
TABLE
  2
DIMSTYLE
  5
A
330
0
100
AcDbSymbolTable
 70
     1
  0
DIMSTYLE
105
3F
102
{ACAD_REACTORS
330
3D8
330
3D7
330
3E4
330
52E
330
528
330
527
330
3D6
330
3D5
330
3D4
330
39E
102
}
330
A
100
AcDbSymbolTableRecord
100
AcDbDimStyleTableRecord
  2
STANDARD
 70
     0
  3

  4

  5

  6

  7

 40
0.0
 41
4.57
 42
0.0
 43
0.38
 44
5.0
 45
0.0
 46
0.0
 47
0.0
 48
0.0
140
4.57
141
0.09
142
0.0
143
25.4
144
1.0
145
0.0
146
1.0
147
2.299999999999999
 71
     0
 72
     0
 73
     0
 74
     0
 75
     0
 76
     0
 77
     1
 78
     8
170
     0
171
     2
172
     0
173
     0
174
     0
175
     0
176
     0
177
     0
178
     0
270
     2
271
     2
272
     4
273
     2
274
     2
340
1E
275
     0
280
     0
281
     0
282
     0
283
     1
284
     0
285
     0
286
     0
287
     3
288
     0
  0
ENDTAB
  0
TABLE
  2
BLOCK_RECORD
  5
1
330
0
100
AcDbSymbolTable
 70
    14
  0
BLOCK_RECORD
  5
18
102
{ACAD_XDICTIONARY
360
5F3
102
}
330
1
100
AcDbSymbolTableRecord
100
AcDbBlockTableRecord
  2
*MODEL_SPACE
  0
BLOCK_RECORD
  5
338
102
{ACAD_XDICTIONARY
360
5F5
102
}
330
1
100
AcDbSymbolTableRecord
100
AcDbBlockTableRecord
  2
*PAPER_SPACE
  0
BLOCK_RECORD
  5
345
330
1
100
AcDbSymbolTableRecord
100
AcDbBlockTableRecord
  2
*D0
  0
BLOCK_RECORD
  5
351
330
1
100
AcDbSymbolTableRecord
100
AcDbBlockTableRecord
  2
*D1
  0
BLOCK_RECORD
  5
35F
330
1
100
AcDbSymbolTableRecord
100
AcDbBlockTableRecord
  2
*D2
  0
BLOCK_RECORD
  5
36B
330
1
100
AcDbSymbolTableRecord
100
AcDbBlockTableRecord
  2
*D3
  0
BLOCK_RECORD
  5
378
330
1
100
AcDbSymbolTableRecord
100
AcDbBlockTableRecord
  2
*D4
  0
BLOCK_RECORD
  5
384
330
1
100
AcDbSymbolTableRecord
100
AcDbBlockTableRecord
  2
*D5
  0
BLOCK_RECORD
  5
391
330
1
100
AcDbSymbolTableRecord
100
AcDbBlockTableRecord
  2
*D6
  0
BLOCK_RECORD
  5
4AF
330
1
100
AcDbSymbolTableRecord
100
AcDbBlockTableRecord
  2
*D7
  0
BLOCK_RECORD
  5
4BC
330
1
100
AcDbSymbolTableRecord
100
AcDbBlockTableRecord
  2
*D8
  0
BLOCK_RECORD
  5
4C8
330
1
100
AcDbSymbolTableRecord
100
AcDbBlockTableRecord
  2
*D9
  0
BLOCK_RECORD
  5
576
330
1
100
AcDbSymbolTableRecord
100
AcDbBlockTableRecord
  2
*D11
  0
BLOCK_RECORD
  5
582
330
1
100
AcDbSymbolTableRecord
100
AcDbBlockTableRecord
  2
*D12
  0
BLOCK_RECORD
  5
58F
330
1
100
AcDbSymbolTableRecord
100
AcDbBlockTableRecord
  2
*D13
  0
ENDTAB
  0
ENDSEC
  0
SECTION
  2
BLOCKS
  0
BLOCK
  5
32
330
18
100
AcDbEntity
  8
0
100
AcDbBlockBegin
  2
*MODEL_SPACE
 70
     0
 10
0.0
 20
0.0
 30
0.0
  3
*MODEL_SPACE
  1

  0
ENDBLK
  5
33
330
18
100
AcDbEntity
  8
0
100
AcDbBlockEnd
  0
BLOCK
  5
339
330
338
100
AcDbEntity
 67
     1
  8
0
100
AcDbBlockBegin
  2
*PAPER_SPACE
 70
     0
 10
0.0
 20
0.0
 30
0.0
  3
*PAPER_SPACE
  1

  0
ENDBLK
  5
33A
330
338
100
AcDbEntity
 67
     1
  8
0
100
AcDbBlockEnd
  0
BLOCK
  5
34F
330
345
100
AcDbEntity
  8
0
100
AcDbBlockBegin
  2
*D0
 70
     1
 10
0.0
 20
0.0
 30
0.0
  3
*D0
  1

  0
LINE
  5
46C
330
345
100
AcDbEntity
  8
2
 62
     0
100
AcDbLine
 10
0.0000052588630614
 20
22.22500892674834
 30
0.0
 11
0.0000052588630649
 21
80.0
 31
0.0
  0
LINE
  5
46D
330
345
100
AcDbEntity
  8
2
 62
     0
100
AcDbLine
 10
79.99999999999999
 20
9.560000000000002
 30
0.0
 11
79.99999999999999
 21
80.0
 31
0.0
  0
LINE
  5
46E
330
345
100
AcDbEntity
  8
2
 62
     0
100
AcDbLine
 10
4.570005258863065
 20
75.0
 30
0.0
 11
75.42999999999998
 21
75.0
 31
0.0
  0
SOLID
  5
46F
330
345
100
AcDbEntity
  8
2
 62
     0
100
AcDbTrace
 10
4.570005258863065
 20
75.76166666666667
 30
0.0
 11
4.570005258863065
 21
74.23833333333333
 31
0.0
 12
0.0000052588630646
 22
75.0
 32
0.0
 13
0.0000052588630646
 23
75.0
 33
0.0
  0
SOLID
  5
470
330
345
100
AcDbEntity
  8
2
 62
     0
100
AcDbTrace
 10
75.42999999999998
 20
75.76166666666667
 30
0.0
 11
75.42999999999998
 21
74.23833333333333
 31
0.0
 12
79.99999999999999
 22
75.0
 32
0.0
 13
79.99999999999999
 23
75.0
 33
0.0
  0
MTEXT
  5
471
330
345
100
AcDbEntity
  8
2
 62
     0
100
AcDbMText
 10
40.00000262943152
 20
79.58499999999999
 30
0.0
 40
4.57
 41
0.0
 71
     5
 72
     1
  1
\A1;80
  7
SIMPLEX
1001
ACAD
1000
MTEXTBEGIN
1070
    73
1070
     1
1070
    44
1040
1.0
1070
    74
1070
     0
1000
MTEXTEND
  0
POINT
  5
472
330
345
100
AcDbEntity
  8
DEFPOINTS
 62
     0
100
AcDbPoint
 10
0.0000052588630614
 20
22.22500892674834
 30
0.0
  0
POINT
  5
473
330
345
100
AcDbEntity
  8
DEFPOINTS
 62
     0
100
AcDbPoint
 10
79.99999999999999
 20
9.560000000000002
 30
0.0
  0
POINT
  5
474
330
345
100
AcDbEntity
  8
DEFPOINTS
 62
     0
100
AcDbPoint
 10
79.99999999999999
 20
75.0
 30
0.0
  0
ENDBLK
  5
350
330
345
100
AcDbEntity
  8
0
100
AcDbBlockEnd
  0
BLOCK
  5
35D
330
351
100
AcDbEntity
  8
0
100
AcDbBlockBegin
  2
*D1
 70
     1
 10
0.0
 20
0.0
 30
0.0
  3
*D1
  1

  0
LINE
  5
475
330
351
100
AcDbEntity
  8
SK2
 62
     0
100
AcDbLine
 10
29.16999999999998
 20
15.99999999999999
 30
0.0
 11
56.86192357707444
 21
16.0
 31
0.0
  0
ARC
  5
476
330
351
100
AcDbEntity
  8
SK2
 62
     0
100
AcDbCircle
 10
29.16999999999998
 20
15.99999999999999
 30
0.0
 40
22.69192357707445
100
AcDbArc
 50
332.3919845709533
 51
343.9505572513341
  0
ARC
  5
477
330
351
100
AcDbEntity
  8
SK2
 62
     0
100
AcDbCircle
 10
29.16999999999998
 20
15.99999999999999
 30
0.0
 40
22.69192357707445
100
AcDbArc
 50
11.55857268038076
 51
23.11714536076153
  0
SOLID
  5
478
330
351
100
AcDbEntity
  8
SK2
 62
     0
100
AcDbTrace
 10
50.22800809022993
 20
9.86223467459186
 30
0.0
 11
51.72693463323266
 21
9.590640007622249
 31
0.0
 12
51.79225536264014
 22
14.22321697011524
 32
0.0
 13
51.79225536264014
 23
14.22321697011524
 33
0.0
  0
SOLID
  5
479
330
351
100
AcDbEntity
  8
SK2
 62
     0
100
AcDbTrace
 10
52.15953527524206
 20
20.62346876146307
 30
0.0
 11
50.64394477432605
 21
20.47007424403294
 31
0.0
 12
51.86192357707444
 22
15.99999999999999
 32
0.0
 13
51.86192357707444
 23
15.99999999999999
 33
0.0
  0
MTEXT
  5
47A
330
351
100
AcDbEntity
  8
SK2
 62
     0
100
AcDbMText
 10
55.40204151474918
 20
23.47733627691277
 30
0.0
 40
4.57
 41
0.0
 71
     5
 72
     1
  1
\A1;4.5°
  7
SIMPLEX
 11
0.2741268184362729
 21
-0.9616935517169732
 31
0.0
1001
ACAD
1000
MTEXTBEGIN
1070
    73
1070
     1
1070
    44
1040
1.0
1070
    74
1070
     0
1000
MTEXTEND
  0
POINT
  5
47B
330
351
100
AcDbEntity
  8
DEFPOINTS
 62
     0
100
AcDbPoint
 10
51.83095111759199
 20
14.81480378253494
 30
0.0
  0
POINT
  5
47C
330
351
100
AcDbEntity
  8
DEFPOINTS
 62
     0
100
AcDbPoint
 10
29.16999999999998
 20
15.99999999999999
 30
0.0
  0
POINT
  5
47D
330
351
100
AcDbEntity
  8
DEFPOINTS
 62
     0
100
AcDbPoint
 10
79.08
 20
12.07999999999999
 30
0.0
  0
POINT
  5
47E
330
351
100
AcDbEntity
  8
DEFPOINTS
 62
     0
100
AcDbPoint
 10
29.16999999999998
 20
15.99999999999999
 30
0.0
  0
POINT
  5
47F
330
351
100
AcDbEntity
  8
DEFPOINTS
 62
     0
100
AcDbPoint
 10
21.09999999999999
 20
15.99999999999999
 30
0.0
  0
ENDBLK
  5
35E
330
351
100
AcDbEntity
  8
0
100
AcDbBlockEnd
  0
BLOCK
  5
369
330
35F
100
AcDbEntity
  8
0
100
AcDbBlockBegin
  2
*D2
 70
     1
 10
0.0
 20
0.0
 30
0.0
  3
*D2
  1

  0
LINE
  5
480
330
35F
100
AcDbEntity
  8
SK2
 62
     0
100
AcDbLine
 10
37.99999999999998
 20
-11.07999999999999
 30
0.0
 11
37.99999999999998
 21
-45.0
 31
0.0
  0
LINE
  5
481
330
35F
100
AcDbEntity
  8
SK2
 62
     0
100
AcDbLine
 10
79.99999999999999
 20
-11.07999994764011
 30
0.0
 11
79.99999999999999
 21
-45.0
 31
0.0
  0
LINE
  5
482
330
35F
100
AcDbEntity
  8
SK2
 62
     0
100
AcDbLine
 10
42.56999999999998
 20
-40.0
 30
0.0
 11
75.42999999999998
 21
-40.0
 31
0.0
  0
SOLID
  5
483
330
35F
100
AcDbEntity
  8
SK2
 62
     0
100
AcDbTrace
 10
42.56999999999998
 20
-39.23833333333332
 30
0.0
 11
42.56999999999998
 21
-40.76166666666667
 31
0.0
 12
37.99999999999998
 22
-40.0
 32
0.0
 13
37.99999999999998
 23
-40.0
 33
0.0
  0
SOLID
  5
484
330
35F
100
AcDbEntity
  8
SK2
 62
     0
100
AcDbTrace
 10
75.42999999999998
 20
-39.23833333333332
 30
0.0
 11
75.42999999999998
 21
-40.76166666666667
 31
0.0
 12
79.99999999999999
 22
-40.0
 32
0.0
 13
79.99999999999999
 23
-40.0
 33
0.0
  0
MTEXT
  5
485
330
35F
100
AcDbEntity
  8
SK2
 62
     0
100
AcDbMText
 10
58.99999999999998
 20
-35.415
 30
0.0
 40
4.57
 41
0.0
 71
     5
 72
     1
  1
\A1;42
  7
SIMPLEX
1001
ACAD
1000
MTEXTBEGIN
1070
    73
1070
     1
1070
    44
1040
1.0
1070
    74
1070
     0
1000
MTEXTEND
  0
POINT
  5
486
330
35F
100
AcDbEntity
  8
DEFPOINTS
 62
     0
100
AcDbPoint
 10
37.99999999999998
 20
-11.07999999999999
 30
0.0
  0
POINT
  5
487
330
35F
100
AcDbEntity
  8
DEFPOINTS
 62
     0
100
AcDbPoint
 10
79.99999999999999
 20
-11.07999994764011
 30
0.0
  0
POINT
  5
488
330
35F
100
AcDbEntity
  8
DEFPOINTS
 62
     0
100
AcDbPoint
 10
79.99999999999999
 20
-40.0
 30
0.0
  0
ENDBLK
  5
36A
330
35F
100
AcDbEntity
  8
0
100
AcDbBlockEnd
  0
BLOCK
  5
376
330
36B
100
AcDbEntity
  8
0
100
AcDbBlockBegin
  2
*D3
 70
     1
 10
0.0
 20
0.0
 30
0.0
  3
*D3
  1

  0
LINE
  5
489
330
36B
100
AcDbEntity
  8
SK2
 62
     0
100
AcDbLine
 10
37.99999999999998
 20
-11.07999999999999
 30
0.0
 11
37.99999999999998
 21
-30.0
 31
0.0
  0
LINE
  5
48A
330
36B
100
AcDbEntity
  8
SK2
 62
     0
100
AcDbLine
 10
47.99999999999998
 20
-11.07999999999999
 30
0.0
 11
47.99999999999998
 21
-30.0
 31
0.0
  0
LINE
  5
48B
330
36B
100
AcDbEntity
  8
SK2
 62
     0
100
AcDbLine
 10
33.42999999999998
 20
-25.0
 30
0.0
 11
28.85999999999998
 21
-25.0
 31
0.0
  0
LINE
  5
48C
330
36B
100
AcDbEntity
  8
SK2
 62
     0
100
AcDbLine
 10
52.56999999999998
 20
-25.0
 30
0.0
 11
68.26857142857142
 21
-25.0
 31
0.0
  0
SOLID
  5
48D
330
36B
100
AcDbEntity
  8
SK2
 62
     0
100
AcDbTrace
 10
33.42999999999998
 20
-24.23833333333333
 30
0.0
 11
33.42999999999998
 21
-25.76166666666666
 31
0.0
 12
37.99999999999998
 22
-25.0
 32
0.0
 13
37.99999999999998
 23
-25.0
 33
0.0
  0
SOLID
  5
48E
330
36B
100
AcDbEntity
  8
SK2
 62
     0
100
AcDbTrace
 10
52.56999999999998
 20
-24.23833333333333
 30
0.0
 11
52.56999999999998
 21
-25.76166666666666
 31
0.0
 12
47.99999999999998
 22
-25.0
 32
0.0
 13
47.99999999999998
 23
-25.0
 33
0.0
  0
MTEXT
  5
48F
330
36B
100
AcDbEntity
  8
SK2
 62
     0
100
AcDbMText
 10
62.70428571428571
 20
-20.415
 30
0.0
 40
4.57
 41
0.0
 71
     5
 72
     1
  1
\A1;10
  7
SIMPLEX
1001
ACAD
1000
MTEXTBEGIN
1070
    73
1070
     1
1070
    44
1040
1.0
1070
    74
1070
     0
1000
MTEXTEND
  0
POINT
  5
490
330
36B
100
AcDbEntity
  8
DEFPOINTS
 62
     0
100
AcDbPoint
 10
37.99999999999998
 20
-11.07999999999999
 30
0.0
  0
POINT
  5
491
330
36B
100
AcDbEntity
  8
DEFPOINTS
 62
     0
100
AcDbPoint
 10
47.99999999999998
 20
-11.07999999999999
 30
0.0
  0
POINT
  5
492
330
36B
100
AcDbEntity
  8
DEFPOINTS
 62
     0
100
AcDbPoint
 10
47.99999999999998
 20
-25.0
 30
0.0
  0
ENDBLK
  5
377
330
36B
100
AcDbEntity
  8
0
100
AcDbBlockEnd
  0
BLOCK
  5
382
330
378
100
AcDbEntity
  8
0
100
AcDbBlockBegin
  2
*D4
 70
     1
 10
0.0
 20
0.0
 30
0.0
  3
*D4
  1

  0
LINE
  5
493
330
378
100
AcDbEntity
  8
SK2
 62
     0
100
AcDbLine
 10
0.0
 20
15.97499999999999
 30
0.0
 11
0.000000000000003
 21
65.0
 31
0.0
  0
LINE
  5
494
330
378
100
AcDbEntity
  8
SK2
 62
     0
100
AcDbLine
 10
19.9499999999999
 20
15.97500000000002
 30
0.0
 11
19.9499999999999
 21
65.0
 31
0.0
  0
LINE
  5
495
330
378
100
AcDbEntity
  8
SK2
 62
     0
100
AcDbLine
 10
4.570000000000002
 20
60.0
 30
0.0
 11
15.3799999999999
 21
60.0
 31
0.0
  0
SOLID
  5
496
330
378
100
AcDbEntity
  8
SK2
 62
     0
100
AcDbTrace
 10
4.570000000000002
 20
60.76166666666667
 30
0.0
 11
4.570000000000002
 21
59.23833333333333
 31
0.0
 12
0.0000000000000027
 22
60.0
 32
0.0
 13
0.0000000000000027
 23
60.0
 33
0.0
  0
SOLID
  5
497
330
378
100
AcDbEntity
  8
SK2
 62
     0
100
AcDbTrace
 10
15.3799999999999
 20
60.76166666666667
 30
0.0
 11
15.3799999999999
 21
59.23833333333333
 31
0.0
 12
19.9499999999999
 22
60.0
 32
0.0
 13
19.9499999999999
 23
60.0
 33
0.0
  0
MTEXT
  5
498
330
378
100
AcDbEntity
  8
SK2
 62
     0
100
AcDbMText
 10
9.974999999999955
 20
64.58499999999999
 30
0.0
 40
4.57
 41
0.0
 71
     5
 72
     1
  1
\A1;20
  7
SIMPLEX
1001
ACAD
1000
MTEXTBEGIN
1070
    73
1070
     1
1070
    44
1040
1.0
1070
    74
1070
     0
1000
MTEXTEND
  0
POINT
  5
499
330
378
100
AcDbEntity
  8
DEFPOINTS
 62
     0
100
AcDbPoint
 10
0.0
 20
15.97499999999999
 30
0.0
  0
POINT
  5
49A
330
378
100
AcDbEntity
  8
DEFPOINTS
 62
     0
100
AcDbPoint
 10
19.9499999999999
 20
15.97500000000002
 30
0.0
  0
POINT
  5
49B
330
378
100
AcDbEntity
  8
DEFPOINTS
 62
     0
100
AcDbPoint
 10
19.9499999999999
 20
60.0
 30
0.0
  0
ENDBLK
  5
383
330
378
100
AcDbEntity
  8
0
100
AcDbBlockEnd
  0
BLOCK
  5
38F
330
384
100
AcDbEntity
  8
0
100
AcDbBlockBegin
  2
*D5
 70
     1
 10
0.0
 20
0.0
 30
0.0
  3
*D5
  1

  0
LINE
  5
49C
330
384
100
AcDbEntity
  8
SK2
 62
     0
100
AcDbLine
 10
0.0
 20
15.97499999999999
 30
0.0
 11
0.0000000000000039
 21
80.0
 31
0.0
  0
LINE
  5
49D
330
384
100
AcDbEntity
  8
SK2
 62
     0
100
AcDbLine
 10
-15.89999999999997
 20
10.22810275564397
 30
0.0
 11
-15.89999999999997
 21
80.0
 31
0.0
  0
LINE
  5
49E
330
384
100
AcDbEntity
  8
SK2
 62
     0
100
AcDbLine
 10
4.570000000000003
 20
75.0
 30
0.0
 11
9.140000000000004
 21
75.0
 31
0.0
  0
LINE
  5
49F
330
384
100
AcDbEntity
  8
SK2
 62
     0
100
AcDbLine
 10
-20.46999999999997
 20
75.0
 30
0.0
 11
-25.03999999999997
 21
75.0
 31
0.0
  0
SOLID
  5
4A0
330
384
100
AcDbEntity
  8
SK2
 62
     0
100
AcDbTrace
 10
4.570000000000003
 20
75.76166666666667
 30
0.0
 11
4.570000000000003
 21
74.23833333333333
 31
0.0
 12
0.0000000000000036
 22
75.0
 32
0.0
 13
0.0000000000000036
 23
75.0
 33
0.0
  0
SOLID
  5
4A1
330
384
100
AcDbEntity
  8
SK2
 62
     0
100
AcDbTrace
 10
-20.46999999999997
 20
75.76166666666667
 30
0.0
 11
-20.46999999999997
 21
74.23833333333333
 31
0.0
 12
-15.89999999999997
 22
75.0
 32
0.0
 13
-15.89999999999997
 23
75.0
 33
0.0
  0
MTEXT
  5
4A2
330
384
100
AcDbEntity
  8
SK2
 62
     0
100
AcDbMText
 10
-7.949999999999992
 20
79.58499999999999
 30
0.0
 40
4.57
 41
0.0
 71
     5
 72
     1
  1
\A1;16
  7
SIMPLEX
1001
ACAD
1000
MTEXTBEGIN
1070
    73
1070
     1
1070
    44
1040
1.0
1070
    74
1070
     0
1000
MTEXTEND
  0
POINT
  5
4A3
330
384
100
AcDbEntity
  8
DEFPOINTS
 62
     0
100
AcDbPoint
 10
0.0
 20
15.97499999999999
 30
0.0
  0
POINT
  5
4A4
330
384
100
AcDbEntity
  8
DEFPOINTS
 62
     0
100
AcDbPoint
 10
-15.89999999999997
 20
10.22810275564397
 30
0.0
  0
POINT
  5
4A5
330
384
100
AcDbEntity
  8
DEFPOINTS
 62
     0
100
AcDbPoint
 10
-15.89999999999997
 20
75.0
 30
0.0
  0
ENDBLK
  5
390
330
384
100
AcDbEntity
  8
0
100
AcDbBlockEnd
  0
BLOCK
  5
39B
330
391
100
AcDbEntity
  8
0
100
AcDbBlockBegin
  2
*D6
 70
     1
 10
0.0
 20
0.0
 30
0.0
  3
*D6
  1

  0
LINE
  5
4A6
330
391
100
AcDbEntity
  8
SK2
 62
     0
100
AcDbLine
 10
0.0
 20
-15.97499999999999
 30
0.0
 11
-36.0
 21
-15.97499999999998
 31
0.0
  0
LINE
  5
4A7
330
391
100
AcDbEntity
  8
SK2
 62
     0
100
AcDbLine
 10
0.0
 20
15.97499999999999
 30
0.0
 11
-36.0
 21
15.975
 31
0.0
  0
LINE
  5
4A8
330
391
100
AcDbEntity
  8
SK2
 62
     0
100
AcDbLine
 10
-31.0
 20
-11.40499999999998
 30
0.0
 11
-31.0
 21
11.405
 31
0.0
  0
SOLID
  5
4A9
330
391
100
AcDbEntity
  8
SK2
 62
     0
100
AcDbTrace
 10
-31.76166666666667
 20
-11.40499999999998
 30
0.0
 11
-30.23833333333334
 21
-11.40499999999998
 31
0.0
 12
-31.0
 22
-15.97499999999998
 32
0.0
 13
-31.0
 23
-15.97499999999998
 33
0.0
  0
SOLID
  5
4AA
330
391
100
AcDbEntity
  8
SK2
 62
     0
100
AcDbTrace
 10
-31.76166666666667
 20
11.405
 30
0.0
 11
-30.23833333333333
 21
11.405
 31
0.0
 12
-31.0
 22
15.975
 32
0.0
 13
-31.0
 23
15.975
 33
0.0
  0
MTEXT
  5
4AB
330
391
100
AcDbEntity
  8
SK2
 62
     0
100
AcDbMText
 10
-35.585
 20
0.0000000000000051
 30
0.0
 40
4.57
 41
0.0
 71
     5
 72
     1
  1
\A1;%%C32
  7
SIMPLEX
 11
0.0000000000000001
 21
1.0
 31
0.0
1001
ACAD
1000
MTEXTBEGIN
1070
    73
1070
     1
1070
    44
1040
1.0
1070
    74
1070
     0
1000
MTEXTEND
  0
POINT
  5
4AC
330
391
100
AcDbEntity
  8
DEFPOINTS
 62
     0
100
AcDbPoint
 10
0.0
 20
-15.97499999999999
 30
0.0
  0
POINT
  5
4AD
330
391
100
AcDbEntity
  8
DEFPOINTS
 62
     0
100
AcDbPoint
 10
0.0
 20
15.97499999999999
 30
0.0
  0
POINT
  5
4AE
330
391
100
AcDbEntity
  8
DEFPOINTS
 62
     0
100
AcDbPoint
 10
-31.0
 20
15.975
 30
0.0
  0
ENDBLK
  5
39C
330
391
100
AcDbEntity
  8
0
100
AcDbBlockEnd
  0
BLOCK
  5
4BA
330
4AF
100
AcDbEntity
  8
0
100
AcDbBlockBegin
  2
*D7
 70
     1
 10
0.0
 20
0.0
 30
0.0
  3
*D7
  1

  0
LINE
  5
4B0
330
4AF
100
AcDbEntity
  8
SK2
 62
     0
100
AcDbLine
 10
0.0
 20
15.97499999999999
 30
0.0
 11
0.0000000000000039
 21
80.0
 31
0.0
  0
LINE
  5
4B1
330
4AF
100
AcDbEntity
  8
SK2
 62
     0
100
AcDbLine
 10
-15.89999999999997
 20
10.22810275564397
 30
0.0
 11
-15.89999999999997
 21
80.0
 31
0.0
  0
LINE
  5
4B2
330
4AF
100
AcDbEntity
  8
SK2
 62
     0
100
AcDbLine
 10
4.570000000000003
 20
75.0
 30
0.0
 11
9.140000000000004
 21
75.0
 31
0.0
  0
LINE
  5
4B3
330
4AF
100
AcDbEntity
  8
SK2
 62
     0
100
AcDbLine
 10
-20.46999999999997
 20
75.0
 30
0.0
 11
-25.03999999999997
 21
75.0
 31
0.0
  0
SOLID
  5
4B4
330
4AF
100
AcDbEntity
  8
SK2
 62
     0
100
AcDbTrace
 10
4.570000000000003
 20
75.76166666666667
 30
0.0
 11
4.570000000000003
 21
74.23833333333333
 31
0.0
 12
0.0000000000000036
 22
75.0
 32
0.0
 13
0.0000000000000036
 23
75.0
 33
0.0
  0
SOLID
  5
4B5
330
4AF
100
AcDbEntity
  8
SK2
 62
     0
100
AcDbTrace
 10
-20.46999999999997
 20
75.76166666666667
 30
0.0
 11
-20.46999999999997
 21
74.23833333333333
 31
0.0
 12
-15.89999999999997
 22
75.0
 32
0.0
 13
-15.89999999999997
 23
75.0
 33
0.0
  0
MTEXT
  5
4B6
330
4AF
100
AcDbEntity
  8
SK2
 62
     0
100
AcDbMText
 10
-7.949999999999992
 20
79.58499999999999
 30
0.0
 40
4.57
 41
0.0
 71
     5
 72
     1
  1
\A1;16
  7
SIMPLEX
1001
ACAD
1000
MTEXTBEGIN
1070
    73
1070
     1
1070
    44
1040
1.0
1070
    74
1070
     0
1000
MTEXTEND
  0
POINT
  5
4B7
330
4AF
100
AcDbEntity
  8
DEFPOINTS
 62
     0
100
AcDbPoint
 10
0.0
 20
15.97499999999999
 30
0.0
  0
POINT
  5
4B8
330
4AF
100
AcDbEntity
  8
DEFPOINTS
 62
     0
100
AcDbPoint
 10
-15.89999999999997
 20
10.22810275564397
 30
0.0
  0
POINT
  5
4B9
330
4AF
100
AcDbEntity
  8
DEFPOINTS
 62
     0
100
AcDbPoint
 10
-15.89999999999997
 20
75.0
 30
0.0
  0
ENDBLK
  5
4BB
330
4AF
100
AcDbEntity
  8
0
100
AcDbBlockEnd
  0
BLOCK
  5
4C6
330
4BC
100
AcDbEntity
  8
0
100
AcDbBlockBegin
  2
*D8
 70
     1
 10
0.0
 20
0.0
 30
0.0
  3
*D8
  1

  0
LINE
  5
4BD
330
4BC
100
AcDbEntity
  8
SK2
 62
     0
100
AcDbLine
 10
0.0
 20
15.97499999999999
 30
0.0
 11
0.000000000000003
 21
65.0
 31
0.0
  0
LINE
  5
4BE
330
4BC
100
AcDbEntity
  8
SK2
 62
     0
100
AcDbLine
 10
19.9499999999999
 20
15.97500000000002
 30
0.0
 11
19.9499999999999
 21
65.0
 31
0.0
  0
LINE
  5
4BF
330
4BC
100
AcDbEntity
  8
SK2
 62
     0
100
AcDbLine
 10
4.570000000000002
 20
60.0
 30
0.0
 11
15.3799999999999
 21
60.0
 31
0.0
  0
SOLID
  5
4C0
330
4BC
100
AcDbEntity
  8
SK2
 62
     0
100
AcDbTrace
 10
4.570000000000002
 20
60.76166666666667
 30
0.0
 11
4.570000000000002
 21
59.23833333333333
 31
0.0
 12
0.0000000000000027
 22
60.0
 32
0.0
 13
0.0000000000000027
 23
60.0
 33
0.0
  0
SOLID
  5
4C1
330
4BC
100
AcDbEntity
  8
SK2
 62
     0
100
AcDbTrace
 10
15.3799999999999
 20
60.76166666666667
 30
0.0
 11
15.3799999999999
 21
59.23833333333333
 31
0.0
 12
19.9499999999999
 22
60.0
 32
0.0
 13
19.9499999999999
 23
60.0
 33
0.0
  0
MTEXT
  5
4C2
330
4BC
100
AcDbEntity
  8
SK2
 62
     0
100
AcDbMText
 10
9.974999999999955
 20
64.58499999999999
 30
0.0
 40
4.57
 41
0.0
 71
     5
 72
     1
  1
\A1;20
  7
SIMPLEX
1001
ACAD
1000
MTEXTBEGIN
1070
    73
1070
     1
1070
    44
1040
1.0
1070
    74
1070
     0
1000
MTEXTEND
  0
POINT
  5
4C3
330
4BC
100
AcDbEntity
  8
DEFPOINTS
 62
     0
100
AcDbPoint
 10
0.0
 20
15.97499999999999
 30
0.0
  0
POINT
  5
4C4
330
4BC
100
AcDbEntity
  8
DEFPOINTS
 62
     0
100
AcDbPoint
 10
19.9499999999999
 20
15.97500000000002
 30
0.0
  0
POINT
  5
4C5
330
4BC
100
AcDbEntity
  8
DEFPOINTS
 62
     0
100
AcDbPoint
 10
19.9499999999999
 20
60.0
 30
0.0
  0
ENDBLK
  5
4C7
330
4BC
100
AcDbEntity
  8
0
100
AcDbBlockEnd
  0
BLOCK
  5
4D2
330
4C8
100
AcDbEntity
  8
0
100
AcDbBlockBegin
  2
*D9
 70
     1
 10
0.0
 20
0.0
 30
0.0
  3
*D9
  1

  0
LINE
  5
4C9
330
4C8
100
AcDbEntity
  8
SK2
 62
     0
100
AcDbLine
 10
0.0
 20
-15.97499999999999
 30
0.0
 11
-36.0
 21
-15.97499999999998
 31
0.0
  0
LINE
  5
4CA
330
4C8
100
AcDbEntity
  8
SK2
 62
     0
100
AcDbLine
 10
0.0
 20
15.97499999999999
 30
0.0
 11
-36.0
 21
15.975
 31
0.0
  0
LINE
  5
4CB
330
4C8
100
AcDbEntity
  8
SK2
 62
     0
100
AcDbLine
 10
-31.0
 20
-11.40499999999998
 30
0.0
 11
-31.0
 21
11.405
 31
0.0
  0
SOLID
  5
4CC
330
4C8
100
AcDbEntity
  8
SK2
 62
     0
100
AcDbTrace
 10
-31.76166666666667
 20
-11.40499999999998
 30
0.0
 11
-30.23833333333334
 21
-11.40499999999998
 31
0.0
 12
-31.0
 22
-15.97499999999998
 32
0.0
 13
-31.0
 23
-15.97499999999998
 33
0.0
  0
SOLID
  5
4CD
330
4C8
100
AcDbEntity
  8
SK2
 62
     0
100
AcDbTrace
 10
-31.76166666666667
 20
11.405
 30
0.0
 11
-30.23833333333333
 21
11.405
 31
0.0
 12
-31.0
 22
15.975
 32
0.0
 13
-31.0
 23
15.975
 33
0.0
  0
MTEXT
  5
4CE
330
4C8
100
AcDbEntity
  8
SK2
 62
     0
100
AcDbMText
 10
-35.585
 20
0.0000000000000051
 30
0.0
 40
4.57
 41
0.0
 71
     5
 72
     1
  1
\A1;%%C32
  7
SIMPLEX
 11
0.0000000000000001
 21
1.0
 31
0.0
1001
ACAD
1000
MTEXTBEGIN
1070
    73
1070
     1
1070
    44
1040
1.0
1070
    74
1070
     0
1000
MTEXTEND
  0
POINT
  5
4CF
330
4C8
100
AcDbEntity
  8
DEFPOINTS
 62
     0
100
AcDbPoint
 10
0.0
 20
-15.97499999999999
 30
0.0
  0
POINT
  5
4D0
330
4C8
100
AcDbEntity
  8
DEFPOINTS
 62
     0
100
AcDbPoint
 10
0.0
 20
15.97499999999999
 30
0.0
  0
POINT
  5
4D1
330
4C8
100
AcDbEntity
  8
DEFPOINTS
 62
     0
100
AcDbPoint
 10
-31.0
 20
15.975
 30
0.0
  0
ENDBLK
  5
4D3
330
4C8
100
AcDbEntity
  8
0
100
AcDbBlockEnd
  0
BLOCK
  5
580
330
576
100
AcDbEntity
  8
0
100
AcDbBlockBegin
  2
*D11
 70
     1
 10
0.0
 20
0.0
 30
0.0
  3
*D11
  1

  0
LINE
  5
59B
330
576
100
AcDbEntity
  8
SK2
 62
     0
100
AcDbLine
 10
0.0
 20
15.97499999999999
 30
0.0
 11
0.000000000000003
 21
65.0
 31
0.0
  0
LINE
  5
59C
330
576
100
AcDbEntity
  8
SK2
 62
     0
100
AcDbLine
 10
19.9499999999999
 20
15.97500000000002
 30
0.0
 11
19.9499999999999
 21
65.0
 31
0.0
  0
LINE
  5
59D
330
576
100
AcDbEntity
  8
SK2
 62
     0
100
AcDbLine
 10
4.570000000000002
 20
60.0
 30
0.0
 11
15.3799999999999
 21
60.0
 31
0.0
  0
SOLID
  5
59E
330
576
100
AcDbEntity
  8
SK2
 62
     0
100
AcDbTrace
 10
4.570000000000002
 20
60.76166666666667
 30
0.0
 11
4.570000000000002
 21
59.23833333333333
 31
0.0
 12
0.0000000000000027
 22
60.0
 32
0.0
 13
0.0000000000000027
 23
60.0
 33
0.0
  0
SOLID
  5
59F
330
576
100
AcDbEntity
  8
SK2
 62
     0
100
AcDbTrace
 10
15.3799999999999
 20
60.76166666666667
 30
0.0
 11
15.3799999999999
 21
59.23833333333333
 31
0.0
 12
19.9499999999999
 22
60.0
 32
0.0
 13
19.9499999999999
 23
60.0
 33
0.0
  0
MTEXT
  5
5A0
330
576
100
AcDbEntity
  8
SK2
 62
     0
100
AcDbMText
 10
9.974999999999955
 20
64.58499999999999
 30
0.0
 40
4.57
 41
0.0
 71
     5
 72
     1
  1
\A1;20
  7
SIMPLEX
1001
ACAD
1000
MTEXTBEGIN
1070
    73
1070
     1
1070
    44
1040
1.0
1070
    74
1070
     0
1000
MTEXTEND
  0
POINT
  5
5A1
330
576
100
AcDbEntity
  8
DEFPOINTS
 62
     0
100
AcDbPoint
 10
0.0
 20
15.97499999999999
 30
0.0
  0
POINT
  5
5A2
330
576
100
AcDbEntity
  8
DEFPOINTS
 62
     0
100
AcDbPoint
 10
19.9499999999999
 20
15.97500000000002
 30
0.0
  0
POINT
  5
5A3
330
576
100
AcDbEntity
  8
DEFPOINTS
 62
     0
100
AcDbPoint
 10
19.9499999999999
 20
60.0
 30
0.0
  0
ENDBLK
  5
581
330
576
100
AcDbEntity
  8
0
100
AcDbBlockEnd
  0
BLOCK
  5
58D
330
582
100
AcDbEntity
  8
0
100
AcDbBlockBegin
  2
*D12
 70
     1
 10
0.0
 20
0.0
 30
0.0
  3
*D12
  1

  0
LINE
  5
5A4
330
582
100
AcDbEntity
  8
SK2
 62
     0
100
AcDbLine
 10
0.0
 20
15.97499999999999
 30
0.0
 11
0.0000000000000039
 21
80.0
 31
0.0
  0
LINE
  5
5A5
330
582
100
AcDbEntity
  8
SK2
 62
     0
100
AcDbLine
 10
-15.89999999999997
 20
10.22810275564397
 30
0.0
 11
-15.89999999999997
 21
80.0
 31
0.0
  0
LINE
  5
5A6
330
582
100
AcDbEntity
  8
SK2
 62
     0
100
AcDbLine
 10
4.570000000000003
 20
75.0
 30
0.0
 11
9.140000000000004
 21
75.0
 31
0.0
  0
LINE
  5
5A7
330
582
100
AcDbEntity
  8
SK2
 62
     0
100
AcDbLine
 10
-20.46999999999997
 20
75.0
 30
0.0
 11
-25.03999999999997
 21
75.0
 31
0.0
  0
SOLID
  5
5A8
330
582
100
AcDbEntity
  8
SK2
 62
     0
100
AcDbTrace
 10
4.570000000000003
 20
75.76166666666667
 30
0.0
 11
4.570000000000003
 21
74.23833333333333
 31
0.0
 12
0.0000000000000036
 22
75.0
 32
0.0
 13
0.0000000000000036
 23
75.0
 33
0.0
  0
SOLID
  5
5A9
330
582
100
AcDbEntity
  8
SK2
 62
     0
100
AcDbTrace
 10
-20.46999999999997
 20
75.76166666666667
 30
0.0
 11
-20.46999999999997
 21
74.23833333333333
 31
0.0
 12
-15.89999999999997
 22
75.0
 32
0.0
 13
-15.89999999999997
 23
75.0
 33
0.0
  0
MTEXT
  5
5AA
330
582
100
AcDbEntity
  8
SK2
 62
     0
100
AcDbMText
 10
-7.949999999999992
 20
79.58499999999999
 30
0.0
 40
4.57
 41
0.0
 71
     5
 72
     1
  1
\A1;16
  7
SIMPLEX
1001
ACAD
1000
MTEXTBEGIN
1070
    73
1070
     1
1070
    44
1040
1.0
1070
    74
1070
     0
1000
MTEXTEND
  0
POINT
  5
5AB
330
582
100
AcDbEntity
  8
DEFPOINTS
 62
     0
100
AcDbPoint
 10
0.0
 20
15.97499999999999
 30
0.0
  0
POINT
  5
5AC
330
582
100
AcDbEntity
  8
DEFPOINTS
 62
     0
100
AcDbPoint
 10
-15.89999999999997
 20
10.22810275564397
 30
0.0
  0
POINT
  5
5AD
330
582
100
AcDbEntity
  8
DEFPOINTS
 62
     0
100
AcDbPoint
 10
-15.89999999999997
 20
75.0
 30
0.0
  0
ENDBLK
  5
58E
330
582
100
AcDbEntity
  8
0
100
AcDbBlockEnd
  0
BLOCK
  5
599
330
58F
100
AcDbEntity
  8
0
100
AcDbBlockBegin
  2
*D13
 70
     1
 10
0.0
 20
0.0
 30
0.0
  3
*D13
  1

  0
LINE
  5
5AE
330
58F
100
AcDbEntity
  8
SK2
 62
     0
100
AcDbLine
 10
0.0
 20
-15.97499999999999
 30
0.0
 11
-36.0
 21
-15.97499999999998
 31
0.0
  0
LINE
  5
5AF
330
58F
100
AcDbEntity
  8
SK2
 62
     0
100
AcDbLine
 10
0.0
 20
15.97499999999999
 30
0.0
 11
-36.0
 21
15.975
 31
0.0
  0
LINE
  5
5B0
330
58F
100
AcDbEntity
  8
SK2
 62
     0
100
AcDbLine
 10
-31.0
 20
-11.40499999999998
 30
0.0
 11
-31.0
 21
11.405
 31
0.0
  0
SOLID
  5
5B1
330
58F
100
AcDbEntity
  8
SK2
 62
     0
100
AcDbTrace
 10
-31.76166666666667
 20
-11.40499999999998
 30
0.0
 11
-30.23833333333334
 21
-11.40499999999998
 31
0.0
 12
-31.0
 22
-15.97499999999998
 32
0.0
 13
-31.0
 23
-15.97499999999998
 33
0.0
  0
SOLID
  5
5B2
330
58F
100
AcDbEntity
  8
SK2
 62
     0
100
AcDbTrace
 10
-31.76166666666667
 20
11.405
 30
0.0
 11
-30.23833333333333
 21
11.405
 31
0.0
 12
-31.0
 22
15.975
 32
0.0
 13
-31.0
 23
15.975
 33
0.0
  0
MTEXT
  5
5B3
330
58F
100
AcDbEntity
  8
SK2
 62
     0
100
AcDbMText
 10
-35.585
 20
0.0000000000000051
 30
0.0
 40
4.57
 41
0.0
 71
     5
 72
     1
  1
\A1;%%C32
  7
SIMPLEX
 11
0.0000000000000001
 21
1.0
 31
0.0
1001
ACAD
1000
MTEXTBEGIN
1070
    73
1070
     1
1070
    44
1040
1.0
1070
    74
1070
     0
1000
MTEXTEND
  0
POINT
  5
5B4
330
58F
100
AcDbEntity
  8
DEFPOINTS
 62
     0
100
AcDbPoint
 10
0.0
 20
-15.97499999999999
 30
0.0
  0
POINT
  5
5B5
330
58F
100
AcDbEntity
  8
DEFPOINTS
 62
     0
100
AcDbPoint
 10
0.0
 20
15.97499999999999
 30
0.0
  0
POINT
  5
5B6
330
58F
100
AcDbEntity
  8
DEFPOINTS
 62
     0
100
AcDbPoint
 10
-31.0
 20
15.975
 30
0.0
  0
ENDBLK
  5
59A
330
58F
100
AcDbEntity
  8
0
100
AcDbBlockEnd
  0
ENDSEC
  0
SECTION
  2
ENTITIES
  0
LINE
  5
39F
330
18
100
AcDbEntity
  8
SK3
100
AcDbLine
 10
36.42299999999999
 20
4.001000000000001
 30
0.0
 11
21.00099999999999
 21
4.001000000000001
 31
0.0
  0
LINE
  5
3A0
330
18
100
AcDbEntity
  8
SK3
100
AcDbLine
 10
36.42299999999999
 20
-4.0
 30
0.0
 11
21.00099999999999
 21
-4.0
 31
0.0
  0
LINE
  5
3A1
330
18
100
AcDbEntity
  8
SK3
100
AcDbLine
 10
20.99999999999999
 20
-4.0
 30
0.0
 11
20.99999999999999
 21
3.955999999999999
 31
0.0
  0
LINE
  5
3A2
330
18
100
AcDbEntity
  8
SK3
100
AcDbLine
 10
36.033
 20
3.324000000000001
 30
0.0
 11
36.033
 21
-3.322999999999996
 31
0.0
  0
LINE
  5
3A3
330
18
100
AcDbEntity
  8
SK3
100
AcDbLine
 10
37.17499999999999
 20
4.843999999999997
 30
0.0
 11
37.17399999999999
 21
-4.905999999999998
 31
0.0
  0
LINE
  5
3A4
330
18
100
AcDbEntity
  8
SK3
100
AcDbLine
 10
36.42299999999999
 20
4.001000000000001
 30
0.0
 11
36.42299999999999
 21
-3.998999999999998
 31
0.0
  0
LINE
  5
3A5
330
18
100
AcDbEntity
  8
SK3
100
AcDbLine
 10
41.87999999999999
 20
4.87
 30
0.0
 11
41.87999999999999
 21
-4.841000000000001
 31
0.0
  0
LINE
  5
3A6
330
18
100
AcDbEntity
  8
SK3
100
AcDbLine
 10
43.00099999999999
 20
5.001999999999998
 30
0.0
 11
43.00099999999999
 21
-4.998999999999998
 31
0.0
  0
LINE
  5
3A7
330
18
100
AcDbEntity
  8
SK3
100
AcDbLine
 10
41.80099999999999
 20
-5.298999999999995
 30
0.0
 11
37.52099999999999
 21
-5.298999999999995
 31
0.0
  0
LINE
  5
3A8
330
18
100
AcDbEntity
  8
SK3
100
AcDbLine
 10
37.00199999999999
 20
-5.0
 30
0.0
 11
36.03399999999999
 21
-3.322999999999996
 31
0.0
  0
ARC
  5
3A9
330
18
100
AcDbEntity
  8
SK3
100
AcDbCircle
 10
37.51999999999999
 20
-4.701
 30
0.0
 40
0.598
100
AcDbArc
 50
210.0268400000003
 51
269.9987180000001
  0
ARC
  5
3AA
330
18
100
AcDbEntity
  8
SK3
100
AcDbCircle
 10
41.80099999999999
 20
-4.698999999999998
 30
0.0
 40
0.6
100
AcDbArc
 50
270.0
 51
284.9616089999997
  0
LINE
  5
3AB
330
18
100
AcDbEntity
  8
SK3
100
AcDbLine
 10
43.00099999999999
 20
-5.0
 30
0.0
 11
41.95699999999999
 21
-5.277999999999998
 31
0.0
  0
LINE
  5
3AC
330
18
100
AcDbEntity
  8
SK3
100
AcDbLine
 10
37.51999999999999
 20
5.302000000000003
 30
0.0
 11
41.80099999999999
 21
5.302000000000003
 31
0.0
  0
ARC
  5
3AD
330
18
100
AcDbEntity
  8
SK3
100
AcDbCircle
 10
37.51999999999999
 20
4.702000000000001
 30
0.0
 40
0.598
100
AcDbArc
 50
90.0
 51
149.9718780000001
  0
LINE
  5
3AE
330
18
100
AcDbEntity
  8
SK3
100
AcDbLine
 10
37.00199999999999
 20
5.001999999999998
 30
0.0
 11
36.03399999999999
 21
3.324999999999999
 31
0.0
  0
ARC
  5
3AF
330
18
100
AcDbEntity
  8
SK3
100
AcDbCircle
 10
41.80099999999999
 20
4.702000000000001
 30
0.0
 40
0.6
100
AcDbArc
 50
75.03839900000015
 51
90.0
  0
LINE
  5
3B0
330
18
100
AcDbEntity
  8
SK3
100
AcDbLine
 10
41.95599999999998
 20
5.281000000000002
 30
0.0
 11
43.00099999999999
 21
5.003000000000003
 31
0.0
  0
ARC
  5
3B1
330
18
100
AcDbEntity
  8
SK3
100
AcDbCircle
 10
79.25
 20
-5.947999999999996
 30
0.0
 40
0.75
100
AcDbArc
 50
0.0
 51
85.02784000000032
  0
LINE
  5
3B2
330
18
100
AcDbEntity
  8
SK3
100
AcDbLine
 10
77.0
 20
5.001000000000001
 30
0.0
 11
77.0
 21
-4.998999999999998
 31
0.0
  0
ARC
  5
3B3
330
18
100
AcDbEntity
  8
SK3
100
AcDbCircle
 10
79.25
 20
5.949000000000001
 30
0.0
 40
0.75
100
AcDbArc
 50
274.9724729999998
 51
0.0003030000000036
  0
POLYLINE
  5
3B4
330
18
100
AcDbEntity
  8
1
  6
CONTINUOUS
 62
     4
100
AcDb2dPolyline
 66
     1
 10
0.0
 20
0.0
 30
0.0
  0
VERTEX
  5
5F7
330
3B4
100
AcDbEntity
  8
1
  6
CONTINUOUS
 62
     4
100
AcDbVertex
100
AcDb2dVertex
 10
79.08
 20
12.07999999999999
 30
0.0
  0
VERTEX
  5
5F8
330
3B4
100
AcDbEntity
  8
1
  6
CONTINUOUS
 62
     4
100
AcDbVertex
100
AcDb2dVertex
 10
29.16999999999999
 20
16.0
 30
0.0
  0
SEQEND
  5
5F9
330
3B4
100
AcDbEntity
  8
1
  6
CONTINUOUS
 62
     4
  0
ARC
  5
3B5
330
18
100
AcDbEntity
  8
1
  6
CONTINUOUS
 62
     4
100
AcDbCircle
 10
78.99999999999998
 20
11.09
 30
0.0
 40
1.0
100
AcDbArc
 50
0.0000270000000304
 51
85.52654999999971
  0
POLYLINE
  5
3B6
330
18
100
AcDbEntity
  8
1
  6
CONTINUOUS
 62
     4
100
AcDb2dPolyline
 66
     1
 10
0.0
 20
0.0
 30
0.0
  0
VERTEX
  5
5FA
330
3B6
100
AcDbEntity
  8
1
  6
CONTINUOUS
 62
     4
100
AcDbVertex
100
AcDb2dVertex
 10
79.99999999999999
 20
-11.07999999999999
 30
0.0
  0
VERTEX
  5
5FB
330
3B6
100
AcDbEntity
  8
1
  6
CONTINUOUS
 62
     4
100
AcDbVertex
100
AcDb2dVertex
 10
79.99999999999999
 20
11.09
 30
0.0
  0
SEQEND
  5
5FC
330
3B6
100
AcDbEntity
  8
1
  6
CONTINUOUS
 62
     4
  0
ARC
  5
3B7
330
18
100
AcDbEntity
  8
1
  6
CONTINUOUS
 62
     4
100
AcDbCircle
 10
78.99999999999998
 20
-11.07999999999999
 30
0.0
 40
1.0
100
AcDbArc
 50
274.4734799999999
 51
0.0000030000001391
  0
POLYLINE
  5
3B8
330
18
100
AcDbEntity
  8
1
  6
CONTINUOUS
 62
     4
100
AcDb2dPolyline
 66
     1
 10
0.0
 20
0.0
 30
0.0
  0
VERTEX
  5
5FD
330
3B8
100
AcDbEntity
  8
1
  6
CONTINUOUS
 62
     4
100
AcDbVertex
100
AcDb2dVertex
 10
79.99999999999999
 20
-11.07999999999999
 30
0.0
  0
VERTEX
  5
5FE
330
3B8
100
AcDbEntity
  8
1
  6
CONTINUOUS
 62
     4
100
AcDbVertex
100
AcDb2dVertex
 10
79.99999999999999
 20
-11.08999999999999
 30
0.0
  0
SEQEND
  5
5FF
330
3B8
100
AcDbEntity
  8
1
  6
CONTINUOUS
 62
     4
  0
POLYLINE
  5
3B9
330
18
100
AcDbEntity
  8
BEMASS
  6
CONTINUOUS
 62
     3
100
AcDb2dPolyline
 66
     1
 10
0.0
 20
0.0
 30
0.0
  0
VERTEX
  5
600
330
3B9
100
AcDbEntity
  8
BEMASS
  6
CONTINUOUS
 62
     3
100
AcDbVertex
100
AcDb2dVertex
 10
79.99999999999999
 20
-5.0
 30
0.0
  0
VERTEX
  5
601
330
3B9
100
AcDbEntity
  8
BEMASS
  6
CONTINUOUS
 62
     3
100
AcDbVertex
100
AcDb2dVertex
 10
80.00999999999999
 20
-5.0
 30
0.0
  0
SEQEND
  5
602
330
3B9
100
AcDbEntity
  8
BEMASS
  6
CONTINUOUS
 62
     3
  0
POLYLINE
  5
3BA
330
18
100
AcDbEntity
  8
BEMASS
  6
CONTINUOUS
 62
     3
100
AcDb2dPolyline
 66
     1
 10
0.0
 20
0.0
 30
0.0
  0
VERTEX
  5
603
330
3BA
100
AcDbEntity
  8
BEMASS
  6
CONTINUOUS
 62
     3
100
AcDbVertex
100
AcDb2dVertex
 10
79.99999999999999
 20
5.0
 30
0.0
  0
VERTEX
  5
604
330
3BA
100
AcDbEntity
  8
BEMASS
  6
CONTINUOUS
 62
     3
100
AcDbVertex
100
AcDb2dVertex
 10
80.00999999999999
 20
5.0
 30
0.0
  0
SEQEND
  5
605
330
3BA
100
AcDbEntity
  8
BEMASS
  6
CONTINUOUS
 62
     3
  0
POLYLINE
  5
3BB
330
18
100
AcDbEntity
  8
1
  6
CONTINUOUS
 62
     4
100
AcDb2dPolyline
 66
     1
 10
0.0
 20
0.0
 30
0.0
  0
VERTEX
  5
606
330
3BB
100
AcDbEntity
  8
1
  6
CONTINUOUS
 62
     4
100
AcDbVertex
100
AcDb2dVertex
 10
79.08
 20
-12.07
 30
0.0
  0
VERTEX
  5
607
330
3BB
100
AcDbEntity
  8
1
  6
CONTINUOUS
 62
     4
100
AcDbVertex
100
AcDb2dVertex
 10
29.16999999999999
 20
-16.0
 30
0.0
  0
SEQEND
  5
608
330
3BB
100
AcDbEntity
  8
1
  6
CONTINUOUS
 62
     4
  0
LINE
  5
3BC
330
18
100
AcDbEntity
  8
1
100
AcDbLine
 10
29.16999999999999
 20
16.0
 30
0.0
 11
29.16999999999999
 21
-16.0
 31
0.0
  0
LINE
  5
3BD
330
18
100
AcDbEntity
  8
SK2
100
AcDbLine
 10
77.0
 20
5.001000000000001
 30
0.0
 11
95.0
 21
5.000999999999995
 31
0.0
  0
LINE
  5
3BE
330
18
100
AcDbEntity
  8
SK2
100
AcDbLine
 10
77.0
 20
-4.998999999999998
 30
0.0
 11
95.0
 21
-4.999000000000004
 31
0.0
  0
LINE
  5
3BF
330
18
100
AcDbEntity
  8
SK2
100
AcDbLine
 10
90.0
 20
9.570999999999997
 30
0.0
 11
90.0
 21
14.14099999999999
 31
0.0
  0
LINE
  5
3C0
330
18
100
AcDbEntity
  8
SK2
100
AcDbLine
 10
90.0
 20
-9.569000000000002
 30
0.0
 11
90.0
 21
-25.26757142857143
 31
0.0
  0
SOLID
  5
3C1
330
18
100
AcDbEntity
  8
SK2
100
AcDbTrace
 10
89.23833333333332
 20
9.570999999999997
 30
0.0
 11
90.76166666666667
 21
9.570999999999997
 31
0.0
 12
90.0
 22
5.000999999999997
 32
0.0
 13
90.0
 23
5.000999999999997
 33
0.0
  0
SOLID
  5
3C2
330
18
100
AcDbEntity
  8
SK2
100
AcDbTrace
 10
89.23833333333332
 20
-9.569000000000002
 30
0.0
 11
90.76166666666667
 21
-9.569000000000002
 31
0.0
 12
90.0
 22
-4.999000000000002
 32
0.0
 13
90.0
 23
-4.999000000000002
 33
0.0
  0
LINE
  5
3C4
330
18
100
AcDbEntity
  8
SK3
100
AcDbLine
 10
43.00099999999999
 20
5.001000000000001
 30
0.0
 11
77.00099999999999
 21
5.001000000000001
 31
0.0
  0
LINE
  5
3C5
330
18
100
AcDbEntity
  8
SK3
100
AcDbLine
 10
77.00099999999999
 20
5.001000000000001
 30
0.0
 11
79.31599999999999
 21
5.202999999999999
 31
0.0
  0
LINE
  5
3C6
330
18
100
AcDbEntity
  8
SK3
100
AcDbLine
 10
79.31599999999999
 20
-5.201999999999998
 30
0.0
 11
77.00099999999999
 21
-5.0
 31
0.0
  0
LINE
  5
3C7
330
18
100
AcDbEntity
  8
SK3
100
AcDbLine
 10
77.00099999999999
 20
-5.0
 30
0.0
 11
43.00099999999999
 21
-5.0
 31
0.0
  0
LINE
  5
3C8
330
18
100
AcDbEntity
  8
SK2
100
AcDbLine
 10
80.35021955020283
 20
12.001
 30
0.0
 11
110.0
 21
12.00099999999999
 31
0.0
  0
LINE
  5
3C9
330
18
100
AcDbEntity
  8
SK2
100
AcDbLine
 10
80.35021955020283
 20
-12.001
 30
0.0
 11
110.0
 21
-12.00100000000001
 31
0.0
  0
LINE
  5
3CA
330
18
100
AcDbEntity
  8
SK2
100
AcDbLine
 10
105.0
 20
7.430999999999993
 30
0.0
 11
105.0
 21
-7.431000000000008
 31
0.0
  0
SOLID
  5
3CB
330
18
100
AcDbEntity
  8
SK2
100
AcDbTrace
 10
104.2383333333333
 20
7.430999999999993
 30
0.0
 11
105.7616666666666
 21
7.430999999999993
 31
0.0
 12
105.0
 22
12.00099999999999
 32
0.0
 13
105.0
 23
12.00099999999999
 33
0.0
  0
SOLID
  5
3CC
330
18
100
AcDbEntity
  8
SK2
100
AcDbTrace
 10
104.2383333333333
 20
-7.431000000000008
 30
0.0
 11
105.7616666666666
 21
-7.431000000000008
 31
0.0
 12
105.0
 22
-12.001
 32
0.0
 13
105.0
 23
-12.001
 33
0.0
  0
LINE
  5
3CE
330
18
100
AcDbEntity
  8
SK2
100
AcDbLine
 10
29.16999999999999
 20
16.0
 30
0.0
 11
125.0
 21
15.99999999999997
 31
0.0
  0
LINE
  5
3CF
330
18
100
AcDbEntity
  8
SK2
100
AcDbLine
 10
29.16999999999999
 20
-16.0
 30
0.0
 11
125.0
 21
-16.00000000000002
 31
0.0
  0
LINE
  5
3D0
330
18
100
AcDbEntity
  8
SK2
100
AcDbLine
 10
120.0
 20
11.42999999999997
 30
0.0
 11
120.0
 21
-11.43000000000002
 31
0.0
  0
SOLID
  5
3D1
330
18
100
AcDbEntity
  8
SK2
100
AcDbTrace
 10
119.2383333333333
 20
11.42999999999997
 30
0.0
 11
120.7616666666666
 21
11.42999999999997
 31
0.0
 12
120.0
 22
15.99999999999997
 32
0.0
 13
120.0
 23
15.99999999999997
 33
0.0
  0
SOLID
  5
3D2
330
18
100
AcDbEntity
  8
SK2
100
AcDbTrace
 10
119.2383333333333
 20
-11.43000000000002
 30
0.0
 11
120.7616666666666
 21
-11.43000000000002
 31
0.0
 12
120.0
 22
-16.00000000000002
 32
0.0
 13
120.0
 23
-16.00000000000002
 33
0.0
  0
LINE
  5
3D9
330
18
100
AcDbEntity
  8
SK4
100
AcDbLine
 10
-18.90154933656447
 20
0.0
 30
0.0
 11
82.32390864058379
 21
0.0
 31
0.0
  0
LINE
  5
3DA
330
18
100
AcDbEntity
  8
4
100
AcDbLine
 10
-15.89999999999999
 20
0.0
 30
0.0
 11
79.99999999999997
 21
0.0
 31
0.0
  0
LINE
  5
44B
330
18
100
AcDbEntity
  8
SK3
100
AcDbLine
 10
20.99999999999999
 20
-2.065999999999998
 30
0.0
 11
17.66363406383228
 21
-2.065999999999998
 31
0.0
  0
LINE
  5
44C
330
18
100
AcDbEntity
  8
SK3
100
AcDbLine
 10
17.66461603534141
 20
2.068000000000001
 30
0.0
 11
20.99999999999999
 21
2.068000000000001
 31
0.0
  0
LINE
  5
44D
330
18
100
AcDbEntity
  8
SK3
100
AcDbLine
 10
20.99999999999999
 20
2.501
 30
0.0
 11
17.66471888818695
 21
2.501000000000001
 31
0.0
  0
LINE
  5
44E
330
18
100
AcDbEntity
  8
SK3
100
AcDbLine
 10
20.99999999999999
 20
-2.499999999999999
 30
0.0
 11
17.66353097345129
 21
-2.5
 31
0.0
  0
ARC
  5
460
330
18
100
AcDbEntity
  8
1
100
AcDbCircle
 10
22.63000026179934
 20
15.50000000000003
 30
0.0
 40
1.0
100
AcDbArc
 50
270.0
 51
314.593719
  0
LINE
  5
461
330
18
100
AcDbEntity
  8
1
100
AcDbLine
 10
24.25000026179935
 20
15.71000000000003
 30
0.0
 11
23.33000026179934
 21
14.79000000000003
 31
0.0
  0
ARC
  5
462
330
18
100
AcDbEntity
  8
1
100
AcDbCircle
 10
24.95000026179934
 20
15.00000000000003
 30
0.0
 40
1.0
100
AcDbArc
 50
90.00001499999987
 51
134.5937350000001
  0
LINE
  5
463
330
18
100
AcDbEntity
  8
1
100
AcDbLine
 10
24.94999999999989
 20
-14.97499999999999
 30
0.0
 11
24.94999999999996
 21
14.97499999999999
 31
0.0
  0
LINE
  5
464
330
18
100
AcDbEntity
  8
1
100
AcDbLine
 10
22.63000026179934
 20
14.50000000000003
 30
0.0
 11
19.94999999999996
 21
14.50000000000003
 31
0.0
  0
LINE
  5
465
330
18
100
AcDbEntity
  8
1
100
AcDbLine
 10
29.16999999999999
 20
16.0
 30
0.0
 11
24.95000026179934
 21
15.99999999999999
 31
0.0
  0
LINE
  5
466
330
18
100
AcDbEntity
  8
1
100
AcDbLine
 10
24.25000026179935
 20
-15.71000000000003
 30
0.0
 11
23.33000026179934
 21
-14.79000000000003
 31
0.0
  0
ARC
  5
467
330
18
100
AcDbEntity
  8
1
100
AcDbCircle
 10
24.95000026179934
 20
-15.00000000000003
 30
0.0
 40
1.0
100
AcDbArc
 50
225.4062649999998
 51
269.9999850000001
  0
ARC
  5
468
330
18
100
AcDbEntity
  8
1
100
AcDbCircle
 10
22.63000026179934
 20
-15.50000000000003
 30
0.0
 40
1.0
100
AcDbArc
 50
45.40628099999996
 51
90.00000000000003
  0
LINE
  5
469
330
18
100
AcDbEntity
  8
1
100
AcDbLine
 10
22.63000026179934
 20
-14.50000000000003
 30
0.0
 11
19.94999999999996
 21
-14.50000000000003
 31
0.0
  0
LINE
  5
46A
330
18
100
AcDbEntity
  8
1
100
AcDbLine
 10
29.16999999999999
 20
-16.0
 30
0.0
 11
24.95000026179934
 21
-16.0
 31
0.0
  0
LINE
  5
46B
330
18
100
AcDbEntity
  8
1
100
AcDbLine
 10
22.63000026179934
 20
-13.47500000000002
 30
0.0
 11
22.63000026179934
 21
13.47500000000002
 31
0.0
  0
LINE
  5
529
330
18
100
AcDbEntity
  8
SK3
100
AcDbLine
 10
12.5
 20
5.25
 30
0.0
 11
14.0
 21
5.25
 31
0.0
  0
LINE
  5
52A
330
18
100
AcDbEntity
  8
SK3
100
AcDbLine
 10
12.5
 20
-5.25
 30
0.0
 11
13.99999999999999
 21
-5.25
 31
0.0
  0
LINE
  5
52B
330
18
100
AcDbEntity
  8
1
100
AcDbLine
 10
13.97927405783627
 20
15.97500000000002
 30
0.0
 11
-0.0000000000000284
 21
15.97499999999999
 31
0.0
  0
LINE
  5
52C
330
18
100
AcDbEntity
  8
1
100
AcDbLine
 10
13.21485506154533
 20
15.97499999999999
 30
0.0
 11
12.02249999999972
 21
15.97499999999999
 31
0.0
  0
LINE
  5
52D
330
18
100
AcDbEntity
  8
1
100
AcDbLine
 10
13.97927405783627
 20
-15.97500000000002
 30
0.0
 11
1.977500000000304
 21
-15.97499999999999
 31
0.0
  0
ARC
  5
52F
330
18
100
AcDbEntity
  8
1
100
AcDbCircle
 10
-15.29999999999997
 20
10.79394826504053
 30
0.0
 40
0.6
100
AcDbArc
 50
93.35823523196884
 51
179.9999999999999
  0
LINE
  5
530
330
18
100
AcDbEntity
  8
1
100
AcDbLine
 10
-1.000000000000028
 20
12.11360273972593
 30
0.0
 11
-15.33514722493072
 21
11.3929179408837
 31
0.0
  0
LINE
  5
531
330
18
100
AcDbEntity
  8
1
100
AcDbLine
 10
-1.0
 20
12.11360273972593
 30
0.0
 11
-1.0
 21
-12.11360273972599
 31
0.0
  0
LINE
  5
532
330
18
100
AcDbEntity
  8
1
100
AcDbLine
 10
0.0
 20
15.97500000000002
 30
0.0
 11
0.0
 21
-11.99251870222639
 31
0.0
  0
TEXT
  5
533
330
18
100
AcDbEntity
  8
6
100
AcDbText
 10
-16.832774030687
 20
-15.44442931123609
 30
0.0
 40
3.0
  1
HSK 32-E
 41
0.7
  7
SIMPLEX
100
AcDbText
  0
LINE
  5
534
330
18
100
AcDbEntity
  8
1
100
AcDbLine
 10
-1.000000000000028
 20
-12.11360273972599
 30
0.0
 11
-15.33514722493839
 21
-11.39291794088325
 31
0.0
  0
LINE
  5
535
330
18
100
AcDbEntity
  8
SK3
100
AcDbLine
 10
-15.19999999999998
 20
8.5
 30
0.0
 11
-9.49735026918961
 21
8.500000000000028
 31
0.0
  0
LINE
  5
536
330
18
100
AcDbEntity
  8
SK3
100
AcDbLine
 10
-15.19999999999998
 20
-8.5
 30
0.0
 11
-9.49735026918961
 21
-8.500000000000028
 31
0.0
  0
LINE
  5
537
330
18
100
AcDbEntity
  8
1
100
AcDbLine
 10
-15.89999999999998
 20
10.79394826504053
 30
0.0
 11
-15.89999999999999
 21
-10.79394826504053
 31
0.0
  0
LINE
  5
538
330
18
100
AcDbEntity
  8
SK3
100
AcDbLine
 10
-15.19999999999999
 20
-8.5
 30
0.0
 11
-15.19999999999998
 21
8.500000000000001
 31
0.0
  0
LINE
  5
539
330
18
100
AcDbEntity
  8
SK3
100
AcDbLine
 10
-15.19999999999998
 20
-8.5
 30
0.0
 11
-15.89999999999998
 21
-8.90414518843275
 31
0.0
  0
ARC
  5
53A
330
18
100
AcDbEntity
  8
1
100
AcDbCircle
 10
-15.29999999999997
 20
-10.79394826504053
 30
0.0
 40
0.6
100
AcDbArc
 50
180.0
 51
266.6417647680311
  0
LINE
  5
53B
330
18
100
AcDbEntity
  8
SK3
100
AcDbLine
 10
-15.19999999999998
 20
8.5
 30
0.0
 11
-15.89999999999998
 21
8.90414518843275
 31
0.0
  0
LINE
  5
53C
330
18
100
AcDbEntity
  8
SK3
100
AcDbLine
 10
8.0
 20
-8.5
 30
0.0
 11
8.0
 21
8.499999999999943
 31
0.0
  0
LINE
  5
53D
330
18
100
AcDbEntity
  8
SK3
100
AcDbLine
 10
-8.342649730810364
 20
10.42659863237109
 30
0.0
 11
-8.342649730810364
 21
-10.42659863237109
 31
0.0
  0
LINE
  5
53E
330
18
100
AcDbEntity
  8
SK3
100
AcDbLine
 10
-9.49735026918961
 20
-8.5
 30
0.0
 11
-9.49735026918961
 21
8.500000000000056
 31
0.0
  0
ARC
  5
53F
330
18
100
AcDbEntity
  8
1
100
AcDbCircle
 10
-0.4138618793470528
 20
-12.16360273972594
 30
0.0
 40
0.2
100
AcDbArc
 50
90.0
 51
105.0000000000035
  0
ARC
  5
540
330
18
100
AcDbEntity
  8
SK3
100
AcDbCircle
 10
-3.464101615137735
 20
-6.5
 30
0.0
 40
4.0
100
AcDbArc
 50
270.0
 51
329.9999999999998
  0
LINE
  5
541
330
18
100
AcDbEntity
  8
SK3
100
AcDbLine
 10
-8.111709623134515
 20
-10.5
 30
0.0
 11
-3.464101615137735
 21
-10.5
 31
0.0
  0
ARC
  5
542
330
18
100
AcDbEntity
  8
SK3
100
AcDbCircle
 10
-8.111709623134515
 20
-10.1
 30
0.0
 40
0.4
100
AcDbArc
 50
210.0000000000002
 51
270.0
  0
LINE
  5
543
330
18
100
AcDbEntity
  8
SK3
100
AcDbLine
 10
-12.79999999999992
 20
-8.500000000000028
 30
0.0
 11
-12.79999999999992
 21
-10.97583353466285
 31
0.0
  0
LINE
  5
544
330
18
100
AcDbEntity
  8
SK3
100
AcDbLine
 10
-8.458119784648291
 20
-10.3
 30
0.0
 11
-9.49735026918961
 21
-8.500000000000028
 31
0.0
  0
LINE
  5
545
330
18
100
AcDbEntity
  8
1
100
AcDbLine
 10
-1.0
 20
-12.11360273972599
 30
0.0
 11
-0.4656256883675667
 21
-11.97041757446814
 31
0.0
  0
LINE
  5
546
330
18
100
AcDbEntity
  8
1
100
AcDbLine
 10
0.0
 20
-11.99251870220513
 30
0.0
 11
0.0
 21
-15.97499999999999
 31
0.0
  0
LINE
  5
547
330
18
100
AcDbEntity
  8
1
100
AcDbLine
 10
1.977500000000304
 20
-15.97499999999999
 30
0.0
 11
-0.0000000000000284
 21
-15.97499999999999
 31
0.0
  0
LINE
  5
548
330
18
100
AcDbEntity
  8
SK3
100
AcDbLine
 10
0.0000000000000284
 20
-8.499999999999971
 30
0.0
 11
7.999999999999971
 21
-8.499999999999943
 31
0.0
  0
LINE
  5
549
330
18
100
AcDbEntity
  8
1
100
AcDbLine
 10
-0.4138618793470528
 20
-11.96360273972595
 30
0.0
 11
-0.1035869302120602
 21
-11.96360273972598
 31
0.0
  0
LINE
  5
54A
330
18
100
AcDbEntity
  8
SK3
100
AcDbLine
 10
0.0
 20
-12.86360273972599
 30
0.0
 11
0.0944666835362682
 21
-12.19143735991798
 31
0.0
  0
ARC
  5
54B
330
18
100
AcDbEntity
  8
1
100
AcDbCircle
 10
-0.1035869302120602
 20
-12.16360273972597
 30
0.0
 40
0.2
100
AcDbArc
 50
58.8061863325416
 51
90.0
  0
ARC
  5
54C
330
18
100
AcDbEntity
  8
SK3
100
AcDbCircle
 10
-0.1035869302120602
 20
-12.16360273972597
 30
0.0
 40
0.2
100
AcDbArc
 50
352.0000000000014
 51
58.8061863325416
  0
ARC
  5
54D
330
18
100
AcDbEntity
  8
SK3
100
AcDbCircle
 10
-3.464101615137735
 20
6.5
 30
0.0
 40
4.0
100
AcDbArc
 50
30.00000000000014
 51
90.0
  0
LINE
  5
54E
330
18
100
AcDbEntity
  8
SK3
100
AcDbLine
 10
-8.111709623134515
 20
10.5
 30
0.0
 11
-3.464101615137735
 21
10.5
 31
0.0
  0
ARC
  5
54F
330
18
100
AcDbEntity
  8
SK3
100
AcDbCircle
 10
-8.111709623134515
 20
10.1
 30
0.0
 40
0.4
100
AcDbArc
 50
90.0
 51
149.9999999999997
  0
LINE
  5
550
330
18
100
AcDbEntity
  8
SK3
100
AcDbLine
 10
-8.458119784648291
 20
10.3
 30
0.0
 11
-9.49735026918961
 21
8.500000000000028
 31
0.0
  0
LINE
  5
551
330
18
100
AcDbEntity
  8
SK3
100
AcDbLine
 10
-12.80000000000015
 20
10.97583353466282
 30
0.0
 11
-12.80000000000009
 21
8.5
 31
0.0
  0
LINE
  5
552
330
18
100
AcDbEntity
  8
SK3
100
AcDbLine
 10
12.5
 20
-5.25
 30
0.0
 11
12.5
 21
5.25
 31
0.0
  0
LINE
  5
553
330
18
100
AcDbEntity
  8
SK3
100
AcDbLine
 10
8.0
 20
-4.45
 30
0.0
 11
12.5
 21
-4.45
 31
0.0
  0
LINE
  5
554
330
18
100
AcDbEntity
  8
SK3
100
AcDbLine
 10
8.0
 20
-5.0
 30
0.0
 11
12.5
 21
-5.0
 31
0.0
  0
LINE
  5
555
330
18
100
AcDbEntity
  8
SK3
100
AcDbLine
 10
0.0000000000000284
 20
8.500000000000028
 30
0.0
 11
7.999999999999971
 21
8.5
 31
0.0
  0
LINE
  5
556
330
18
100
AcDbEntity
  8
SK3
100
AcDbLine
 10
8.0
 20
4.45
 30
0.0
 11
12.5
 21
4.45
 31
0.0
  0
LINE
  5
557
330
18
100
AcDbEntity
  8
SK3
100
AcDbLine
 10
8.0
 20
5.0
 30
0.0
 11
12.5
 21
5.0
 31
0.0
  0
ARC
  5
558
330
18
100
AcDbEntity
  8
1
100
AcDbCircle
 10
-0.4138618793470528
 20
12.16360273972594
 30
0.0
 40
0.2
100
AcDbArc
 50
254.9999999999964
 51
270.0
  0
LINE
  5
559
330
18
100
AcDbEntity
  8
1
100
AcDbLine
 10
-1.0
 20
12.11360273972599
 30
0.0
 11
-0.4656256883675667
 21
11.97041757446814
 31
0.0
  0
ARC
  5
55A
330
18
100
AcDbEntity
  8
SK3
100
AcDbCircle
 10
-0.1035869302120602
 20
12.16360273972597
 30
0.0
 40
0.2
100
AcDbArc
 50
301.1938136674626
 51
7.999999999998617
  0
LINE
  5
55B
330
18
100
AcDbEntity
  8
SK3
100
AcDbLine
 10
0.0
 20
12.86360273972599
 30
0.0
 11
0.0944666835362682
 21
12.19143735991798
 31
0.0
  0
LINE
  5
55C
330
18
100
AcDbEntity
  8
1
100
AcDbLine
 10
-0.4138618793470528
 20
11.96360273972595
 30
0.0
 11
-0.1035869302120602
 21
11.96360273972598
 31
0.0
  0
ARC
  5
55D
330
18
100
AcDbEntity
  8
1
100
AcDbCircle
 10
-0.1035869302120602
 20
12.16360273972597
 30
0.0
 40
0.2
100
AcDbArc
 50
270.0
 51
301.1938136674626
  0
LINE
  5
55E
330
18
100
AcDbEntity
  8
SK4
100
AcDbLine
 10
15.99999999999997
 20
-16.0
 30
0.0
 11
15.99999999999997
 21
16.0
 31
0.0
  0
LINE
  5
55F
330
18
100
AcDbEntity
  8
1
100
AcDbLine
 10
19.9499999999999
 20
-15.97499999999999
 30
0.0
 11
19.94999999999996
 21
15.97499999999999
 31
0.0
  0
LINE
  5
560
330
18
100
AcDbEntity
  8
1
100
AcDbLine
 10
18.02072594216363
 20
15.97499999999999
 30
0.0
 11
18.02072594216378
 21
-15.97500000000024
 31
0.0
  0
LINE
  5
561
330
18
100
AcDbEntity
  8
1
100
AcDbLine
 10
14.96250000000018
 20
-13.97499999999997
 30
0.0
 11
14.96250000000003
 21
13.97499999999996
 31
0.0
  0
LINE
  5
562
330
18
100
AcDbEntity
  8
1
100
AcDbLine
 10
17.03749999999999
 20
-13.97499999999996
 30
0.0
 11
17.03749999999999
 21
13.97499999999996
 31
0.0
  0
LINE
  5
563
330
18
100
AcDbEntity
  8
1
100
AcDbLine
 10
13.97927405783642
 20
-15.97499999999979
 30
0.0
 11
13.97927405783627
 21
15.97499999999996
 31
0.0
  0
ARC
  5
564
330
18
100
AcDbEntity
  8
1
100
AcDbCircle
 10
15.71250000000012
 20
-13.97499999999996
 30
0.0
 40
0.75
100
AcDbArc
 50
89.99999999999996
 51
180.0
  0
ARC
  5
565
330
18
100
AcDbEntity
  8
1
100
AcDbCircle
 10
16.28749999999999
 20
-13.97499999999996
 30
0.0
 40
0.75
100
AcDbArc
 50
0.0
 51
89.99999999999873
  0
LINE
  5
566
330
18
100
AcDbEntity
  8
1
100
AcDbLine
 10
19.9499999999999
 20
-15.97500000000002
 30
0.0
 11
18.02072594216369
 21
-15.97499999999999
 31
0.0
  0
LINE
  5
567
330
18
100
AcDbEntity
  8
1
100
AcDbLine
 10
17.03749999999999
 20
-14.27200271285278
 30
0.0
 11
17.03749999999999
 21
-13.97499999999996
 31
0.0
  0
LINE
  5
568
330
18
100
AcDbEntity
  8
1
100
AcDbLine
 10
14.96250000000009
 20
-14.27200271285258
 30
0.0
 11
14.96250000000012
 21
-13.97499999999996
 31
0.0
  0
LINE
  5
569
330
18
100
AcDbEntity
  8
1
100
AcDbLine
 10
13.9792740578363
 20
-15.97499999999999
 30
0.0
 11
14.96250000000006
 21
-14.27200271285258
 31
0.0
  0
LINE
  5
56A
330
18
100
AcDbEntity
  8
1
100
AcDbLine
 10
18.02072594216363
 20
-15.97499999999999
 30
0.0
 11
17.03749999999988
 21
-14.27200271285258
 31
0.0
  0
LINE
  5
56B
330
18
100
AcDbEntity
  8
1
100
AcDbLine
 10
16.28750000000005
 20
-13.22499999999996
 30
0.0
 11
15.71250000000012
 21
-13.22499999999996
 31
0.0
  0
LINE
  5
56C
330
18
100
AcDbEntity
  8
SK3
100
AcDbLine
 10
13.99999999999999
 20
-5.25
 30
0.0
 11
14.0
 21
5.25
 31
0.0
  0
LINE
  5
56D
330
18
100
AcDbEntity
  8
1
100
AcDbLine
 10
19.9499999999999
 20
15.97499999999999
 30
0.0
 11
18.02072594216363
 21
15.97499999999999
 31
0.0
  0
ARC
  5
56E
330
18
100
AcDbEntity
  8
1
100
AcDbCircle
 10
16.28749999999999
 20
13.97499999999996
 30
0.0
 40
0.75
100
AcDbArc
 50
270.0000000000012
 51
0.0
  0
ARC
  5
56F
330
18
100
AcDbEntity
  8
1
100
AcDbCircle
 10
15.71250000000012
 20
13.97499999999996
 30
0.0
 40
0.75
100
AcDbArc
 50
180.0
 51
270.0
  0
LINE
  5
570
330
18
100
AcDbEntity
  8
1
100
AcDbLine
 10
18.02072594216363
 20
15.97499999999999
 30
0.0
 11
17.03749999999988
 21
14.27200271285258
 31
0.0
  0
LINE
  5
571
330
18
100
AcDbEntity
  8
1
100
AcDbLine
 10
13.9792740578363
 20
15.97499999999999
 30
0.0
 11
14.96250000000006
 21
14.27200271285258
 31
0.0
  0
LINE
  5
572
330
18
100
AcDbEntity
  8
1
100
AcDbLine
 10
16.28750000000005
 20
13.22499999999996
 30
0.0
 11
15.71250000000012
 21
13.22499999999996
 31
0.0
  0
LINE
  5
573
330
18
100
AcDbEntity
  8
1
100
AcDbLine
 10
14.96250000000009
 20
14.27200271285258
 30
0.0
 11
14.96250000000012
 21
13.97499999999996
 31
0.0
  0
LINE
  5
574
330
18
100
AcDbEntity
  8
1
100
AcDbLine
 10
17.03749999999999
 20
14.27200271285278
 30
0.0
 11
17.03749999999999
 21
13.97499999999996
 31
0.0
  0
LINE
  5
575
330
18
100
AcDbEntity
  8
1
100
AcDbLine
 10
13.97927405783625
 20
15.97499999999999
 30
0.0
 11
13.21485506154533
 21
15.97499999999999
 31
0.0
  0
LINE
  5
5B8
330
18
100
AcDbEntity
  8
SK2
100
AcDbLine
 10
0.0
 20
-15.97499999999999
 30
0.0
 11
-36.0
 21
-15.97499999999998
 31
0.0
  0
LINE
  5
5B9
330
18
100
AcDbEntity
  8
SK2
100
AcDbLine
 10
0.0
 20
15.97499999999999
 30
0.0
 11
-36.0
 21
15.975
 31
0.0
  0
LINE
  5
5BA
330
18
100
AcDbEntity
  8
SK2
100
AcDbLine
 10
-31.0
 20
-11.40499999999998
 30
0.0
 11
-31.0
 21
11.405
 31
0.0
  0
SOLID
  5
5BB
330
18
100
AcDbEntity
  8
SK2
100
AcDbTrace
 10
-31.76166666666667
 20
-11.40499999999998
 30
0.0
 11
-30.23833333333334
 21
-11.40499999999998
 31
0.0
 12
-31.0
 22
-15.97499999999998
 32
0.0
 13
-31.0
 23
-15.97499999999998
 33
0.0
  0
SOLID
  5
5BC
330
18
100
AcDbEntity
  8
SK2
100
AcDbTrace
 10
-31.76166666666667
 20
11.405
 30
0.0
 11
-30.23833333333333
 21
11.405
 31
0.0
 12
-31.0
 22
15.975
 32
0.0
 13
-31.0
 23
15.975
 33
0.0
  0
LINE
  5
5BE
330
18
100
AcDbEntity
  8
SK2
100
AcDbLine
 10
0.0
 20
15.97499999999999
 30
0.0
 11
0.0000000000000039
 21
80.0
 31
0.0
  0
LINE
  5
5BF
330
18
100
AcDbEntity
  8
SK2
100
AcDbLine
 10
-15.89999999999997
 20
10.22810275564397
 30
0.0
 11
-15.89999999999997
 21
80.0
 31
0.0
  0
LINE
  5
5C0
330
18
100
AcDbEntity
  8
SK2
100
AcDbLine
 10
4.570000000000003
 20
75.0
 30
0.0
 11
9.140000000000004
 21
75.0
 31
0.0
  0
LINE
  5
5C1
330
18
100
AcDbEntity
  8
SK2
100
AcDbLine
 10
-20.46999999999997
 20
75.0
 30
0.0
 11
-25.03999999999997
 21
75.0
 31
0.0
  0
SOLID
  5
5C2
330
18
100
AcDbEntity
  8
SK2
100
AcDbTrace
 10
4.570000000000003
 20
75.76166666666667
 30
0.0
 11
4.570000000000003
 21
74.23833333333333
 31
0.0
 12
0.0000000000000036
 22
75.0
 32
0.0
 13
0.0000000000000036
 23
75.0
 33
0.0
  0
SOLID
  5
5C3
330
18
100
AcDbEntity
  8
SK2
100
AcDbTrace
 10
-20.46999999999997
 20
75.76166666666667
 30
0.0
 11
-20.46999999999997
 21
74.23833333333333
 31
0.0
 12
-15.89999999999997
 22
75.0
 32
0.0
 13
-15.89999999999997
 23
75.0
 33
0.0
  0
LINE
  5
5C5
330
18
100
AcDbEntity
  8
SK2
100
AcDbLine
 10
0.0
 20
15.97499999999999
 30
0.0
 11
0.000000000000003
 21
65.0
 31
0.0
  0
LINE
  5
5C6
330
18
100
AcDbEntity
  8
SK2
100
AcDbLine
 10
19.9499999999999
 20
15.97500000000002
 30
0.0
 11
19.9499999999999
 21
65.0
 31
0.0
  0
LINE
  5
5C7
330
18
100
AcDbEntity
  8
SK2
100
AcDbLine
 10
4.570000000000002
 20
60.0
 30
0.0
 11
15.3799999999999
 21
60.0
 31
0.0
  0
SOLID
  5
5C8
330
18
100
AcDbEntity
  8
SK2
100
AcDbTrace
 10
4.570000000000002
 20
60.76166666666667
 30
0.0
 11
4.570000000000002
 21
59.23833333333333
 31
0.0
 12
0.0000000000000027
 22
60.0
 32
0.0
 13
0.0000000000000027
 23
60.0
 33
0.0
  0
SOLID
  5
5C9
330
18
100
AcDbEntity
  8
SK2
100
AcDbTrace
 10
15.3799999999999
 20
60.76166666666667
 30
0.0
 11
15.3799999999999
 21
59.23833333333333
 31
0.0
 12
19.9499999999999
 22
60.0
 32
0.0
 13
19.9499999999999
 23
60.0
 33
0.0
  0
LINE
  5
5CB
330
18
100
AcDbEntity
  8
SK2
100
AcDbLine
 10
37.99999999999998
 20
-11.07999999999999
 30
0.0
 11
37.99999999999998
 21
-30.0
 31
0.0
  0
LINE
  5
5CC
330
18
100
AcDbEntity
  8
SK2
100
AcDbLine
 10
47.99999999999998
 20
-11.07999999999999
 30
0.0
 11
47.99999999999998
 21
-30.0
 31
0.0
  0
LINE
  5
5CD
330
18
100
AcDbEntity
  8
SK2
100
AcDbLine
 10
33.42999999999998
 20
-25.0
 30
0.0
 11
28.85999999999998
 21
-25.0
 31
0.0
  0
LINE
  5
5CE
330
18
100
AcDbEntity
  8
SK2
100
AcDbLine
 10
52.56999999999998
 20
-25.0
 30
0.0
 11
68.26857142857142
 21
-25.0
 31
0.0
  0
SOLID
  5
5CF
330
18
100
AcDbEntity
  8
SK2
100
AcDbTrace
 10
33.42999999999998
 20
-24.23833333333333
 30
0.0
 11
33.42999999999998
 21
-25.76166666666666
 31
0.0
 12
37.99999999999998
 22
-25.0
 32
0.0
 13
37.99999999999998
 23
-25.0
 33
0.0
  0
SOLID
  5
5D0
330
18
100
AcDbEntity
  8
SK2
100
AcDbTrace
 10
52.56999999999998
 20
-24.23833333333333
 30
0.0
 11
52.56999999999998
 21
-25.76166666666666
 31
0.0
 12
47.99999999999998
 22
-25.0
 32
0.0
 13
47.99999999999998
 23
-25.0
 33
0.0
  0
LINE
  5
5D2
330
18
100
AcDbEntity
  8
SK2
100
AcDbLine
 10
37.99999999999998
 20
-11.07999999999999
 30
0.0
 11
37.99999999999998
 21
-45.0
 31
0.0
  0
LINE
  5
5D3
330
18
100
AcDbEntity
  8
SK2
100
AcDbLine
 10
79.99999999999999
 20
-11.07999994764011
 30
0.0
 11
79.99999999999999
 21
-45.0
 31
0.0
  0
LINE
  5
5D4
330
18
100
AcDbEntity
  8
SK2
100
AcDbLine
 10
42.56999999999998
 20
-40.0
 30
0.0
 11
75.42999999999998
 21
-40.0
 31
0.0
  0
SOLID
  5
5D5
330
18
100
AcDbEntity
  8
SK2
100
AcDbTrace
 10
42.56999999999998
 20
-39.23833333333332
 30
0.0
 11
42.56999999999998
 21
-40.76166666666667
 31
0.0
 12
37.99999999999998
 22
-40.0
 32
0.0
 13
37.99999999999998
 23
-40.0
 33
0.0
  0
SOLID
  5
5D6
330
18
100
AcDbEntity
  8
SK2
100
AcDbTrace
 10
75.42999999999998
 20
-39.23833333333332
 30
0.0
 11
75.42999999999998
 21
-40.76166666666667
 31
0.0
 12
79.99999999999999
 22
-40.0
 32
0.0
 13
79.99999999999999
 23
-40.0
 33
0.0
  0
LINE
  5
5D8
330
18
100
AcDbEntity
  8
SK2
100
AcDbLine
 10
29.16999999999998
 20
15.99999999999999
 30
0.0
 11
56.86192357707444
 21
16.0
 31
0.0
  0
ARC
  5
5D9
330
18
100
AcDbEntity
  8
SK2
100
AcDbCircle
 10
29.16999999999998
 20
15.99999999999999
 30
0.0
 40
22.69192357707445
100
AcDbArc
 50
332.3919845709533
 51
343.9505572513341
  0
ARC
  5
5DA
330
18
100
AcDbEntity
  8
SK2
100
AcDbCircle
 10
29.16999999999998
 20
15.99999999999999
 30
0.0
 40
22.69192357707445
100
AcDbArc
 50
11.55857268038076
 51
23.11714536076153
  0
SOLID
  5
5DB
330
18
100
AcDbEntity
  8
SK2
100
AcDbTrace
 10
50.22800809022993
 20
9.86223467459186
 30
0.0
 11
51.72693463323266
 21
9.590640007622249
 31
0.0
 12
51.79225536264014
 22
14.22321697011524
 32
0.0
 13
51.79225536264014
 23
14.22321697011524
 33
0.0
  0
SOLID
  5
5DC
330
18
100
AcDbEntity
  8
SK2
100
AcDbTrace
 10
52.15953527524206
 20
20.62346876146307
 30
0.0
 11
50.64394477432605
 21
20.47007424403294
 31
0.0
 12
51.86192357707444
 22
15.99999999999999
 32
0.0
 13
51.86192357707444
 23
15.99999999999999
 33
0.0
  0
LINE
  5
5DE
330
18
100
AcDbEntity
  8
2
100
AcDbLine
 10
0.0000052588630614
 20
22.22500892674834
 30
0.0
 11
0.0000052588630649
 21
80.0
 31
0.0
  0
LINE
  5
5DF
330
18
100
AcDbEntity
  8
2
100
AcDbLine
 10
79.99999999999999
 20
9.560000000000002
 30
0.0
 11
79.99999999999999
 21
80.0
 31
0.0
  0
LINE
  5
5E0
330
18
100
AcDbEntity
  8
2
100
AcDbLine
 10
4.570005258863065
 20
75.0
 30
0.0
 11
75.42999999999998
 21
75.0
 31
0.0
  0
SOLID
  5
5E1
330
18
100
AcDbEntity
  8
2
100
AcDbTrace
 10
4.570005258863065
 20
75.76166666666667
 30
0.0
 11
4.570005258863065
 21
74.23833333333333
 31
0.0
 12
0.0000052588630646
 22
75.0
 32
0.0
 13
0.0000052588630646
 23
75.0
 33
0.0
  0
SOLID
  5
5E2
330
18
100
AcDbEntity
  8
2
100
AcDbTrace
 10
75.42999999999998
 20
75.76166666666667
 30
0.0
 11
75.42999999999998
 21
74.23833333333333
 31
0.0
 12
79.99999999999999
 22
75.0
 32
0.0
 13
79.99999999999999
 23
75.0
 33
0.0
  0
TEXT
  5
5E4
330
18
100
AcDbEntity
  8
2
100
AcDbText
 10
36.30047881990771
 20
77.3
 30
0.0
 40
4.57
  1
80
  7
SIMPLEX
100
AcDbText
  0
TEXT
  5
5E5
330
18
100
AcDbEntity
  8
SK2
100
AcDbText
 10
51.59388088589248
 20
28.50159303708862
 30
0.0
 40
4.57
  1
4.5°
 50
285.9099850097745
  7
SIMPLEX
100
AcDbText
  0
TEXT
  5
5E6
330
18
100
AcDbEntity
  8
SK2
100
AcDbText
 10
55.30047619047618
 20
-37.7
 30
0.0
 40
4.57
  1
42
  7
SIMPLEX
100
AcDbText
  0
TEXT
  5
5E7
330
18
100
AcDbEntity
  8
SK2
100
AcDbText
 10
59.43999999999999
 20
-22.7
 30
0.0
 40
4.57
  1
10
  7
SIMPLEX
100
AcDbText
  0
TEXT
  5
5E8
330
18
100
AcDbEntity
  8
SK2
100
AcDbText
 10
6.275476190476146
 20
62.3
 30
0.0
 40
4.57
  1
20
  7
SIMPLEX
100
AcDbText
  0
TEXT
  5
5E9
330
18
100
AcDbEntity
  8
SK2
100
AcDbText
 10
-11.10547619047618
 20
77.3
 30
0.0
 40
4.57
  1
16
  7
SIMPLEX
100
AcDbText
  0
TEXT
  5
5EA
330
18
100
AcDbEntity
  8
SK2
100
AcDbText
 10
-33.30000000000001
 20
-5.766904761904758
 30
0.0
 40
4.57
  1
%%c
 50
90.0
  7
SIMPLEX
100
AcDbText
  0
TEXT
  5
5EB
330
18
100
AcDbEntity
  8
SK2
100
AcDbText
 10
-33.30000000000001
 20
-1.632142857142853
 30
0.0
 40
4.57
  1
32
 50
90.0
  7
SIMPLEX
100
AcDbText
  0
TEXT
  5
5EC
330
18
100
AcDbEntity
  8
SK2
100
AcDbText
 10
117.7
 20
-5.766904761904769
 30
0.0
 40
4.57
  1
%%c
 50
90.0
  7
SIMPLEX
100
AcDbText
  0
TEXT
  5
5ED
330
18
100
AcDbEntity
  8
SK2
100
AcDbText
 10
117.7
 20
-1.632142857142865
 30
0.0
 40
4.57
  1
32
 50
90.0
  7
SIMPLEX
100
AcDbText
  0
TEXT
  5
5EE
330
18
100
AcDbEntity
  8
SK2
100
AcDbText
 10
102.7
 20
-5.875714285714275
 30
0.0
 40
4.57
  1
%%c
 50
90.0
  7
SIMPLEX
100
AcDbText
  0
TEXT
  5
5EF
330
18
100
AcDbEntity
  8
SK2
100
AcDbText
 10
102.7
 20
-1.740952380952371
 30
0.0
 40
4.57
  1
24
 50
90.0
  7
SIMPLEX
100
AcDbText
  0
TEXT
  5
5F0
330
18
100
AcDbEntity
  8
SK2
100
AcDbText
 10
87.70000000000001
 20
-25.03495238095236
 30
0.0
 40
4.57
  1
%%c
 50
90.0
  7
SIMPLEX
100
AcDbText
  0
TEXT
  5
5F1
330
18
100
AcDbEntity
  8
SK2
100
AcDbText
 10
87.70000000000001
 20
-20.90019047619046
 30
0.0
 40
4.57
  1
10
 50
90.0
  7
SIMPLEX
100
AcDbText
  0
ENDSEC
  0
SECTION
  2
OBJECTS
  0
DICTIONARY
  5
C
330
0
100
AcDbDictionary
  3
ACAD_GROUP
350
D
  3
ACAD_LAYOUT
350
301
  3
ACAD_MLINESTYLE
350
E
  3
ACAD_PLOTSETTINGS
350
302
1001
ACAD
1000
TREAT_AS_HARD
1070
     0
  0
DICTIONARY
  5
5F3
330
18
100
AcDbDictionary
  3
ACAD_LAYOUTSELFREF
350
5F4
  0
DICTIONARY
  5
5F5
330
338
100
AcDbDictionary
  3
ACAD_LAYOUTSELFREF
350
5F6
  0
DICTIONARY
  5
D
102
{ACAD_REACTORS
330
C
102
}
330
C
100
AcDbDictionary
1001
ACAD
1000
TREAT_AS_HARD
1070
     0
  0
DICTIONARY
  5
301
102
{ACAD_REACTORS
330
C
102
}
330
C
100
AcDbDictionary
1001
ACAD
1000
TREAT_AS_HARD
1070
     0
  0
DICTIONARY
  5
E
102
{ACAD_REACTORS
330
C
102
}
330
C
100
AcDbDictionary
  3
STANDARD
350
1B
1001
ACAD
1000
TREAT_AS_HARD
1070
     0
  0
DICTIONARY
  5
302
102
{ACAD_REACTORS
330
C
102
}
330
C
100
AcDbDictionary
1001
ACAD
1000
TREAT_AS_HARD
1070
     0
  0
XRECORD
  5
5F4
102
{ACAD_REACTORS
330
5F3
102
}
330
5F3
100
AcDbXrecord
340
18
  0
XRECORD
  5
5F6
102
{ACAD_REACTORS
330
5F5
102
}
330
5F5
100
AcDbXrecord
340
338
  0
MLINESTYLE
  5
1B
102
{ACAD_REACTORS
330
E
102
}
330
E
100
AcDbMlineStyle
  2
STANDARD
 70
     0
  3

 62
     0
 51
90.0
 52
90.0
 71
     2
 49
0.5
 62
   256
  6
BYLAYER
 49
-0.5
 62
   256
  6
BYLAYER
  0
ENDSEC
  0
EOF
