  0
SECTION
  2
HEADER
  9
$ACADVER
  1
AC1012
  9
$DWGCODEPAGE
  3
ANSI_1252
  9
$INSBASE
 10
0.0
 20
0.0
 30
0.0
  9
$EXTMIN
 10
-138.8490736769151
 20
-50.00732307788837
 30
-0.0015258207003583
  9
$EXTMAX
 10
250.0381024873793
 20
81.8743904422438
 30
0.0000000349246037
  9
$LIMMIN
 10
-170.0
 20
-170.0
  9
$LIMMAX
 10
519.0
 20
260.0
  9
$ORTHOMODE
 70
     0
  9
$REGENMODE
 70
     1
  9
$FILLMODE
 70
     1
  9
$QTEXTMODE
 70
     0
  9
$MIRRTEXT
 70
     0
  9
$DRAGMODE
 70
     2
  9
$LTSCALE
 40
15.0
  9
$OSMODE
 70
     0
  9
$ATTMODE
 70
     1
  9
$TEXTSIZE
 40
4.57
  9
$TRACEWID
 40
0.05
  9
$TEXTSTYLE
  7
SIMPLEX
  9
$CLAYER
  8
SK2
  9
$CELTYPE
  6
BYLAYER
  9
$CECOLOR
 62
   256
  9
$CELTSCALE
 40
1.0
  9
$DELOBJ
 70
     1
  9
$DISPSILH
 70
     0
  9
$DIMSCALE
 40
0.0
  9
$DIMASZ
 40
4.57
  9
$DIMEXO
 40
0.0
  9
$DIMDLI
 40
0.38
  9
$DIMRND
 40
0.0
  9
$DIMDLE
 40
0.0
  9
$DIMEXE
 40
5.0
  9
$DIMTP
 40
0.0
  9
$DIMTM
 40
0.0
  9
$DIMTXT
 40
4.57
  9
$DIMCEN
 40
0.09
  9
$DIMTSZ
 40
0.0
  9
$DIMTOL
 70
     0
  9
$DIMLIM
 70
     0
  9
$DIMTIH
 70
     0
  9
$DIMTOH
 70
     0
  9
$DIMSE1
 70
     0
  9
$DIMSE2
 70
     0
  9
$DIMTAD
 70
     1
  9
$DIMZIN
 70
     8
  9
$DIMBLK
  1

  9
$DIMASO
 70
     1
  9
$DIMSHO
 70
     1
  9
$DIMPOST
  1

  9
$DIMAPOST
  1

  9
$DIMALT
 70
     0
  9
$DIMALTD
 70
     2
  9
$DIMALTF
 40
25.4
  9
$DIMLFAC
 40
1.0
  9
$DIMTOFL
 70
     0
  9
$DIMTVP
 40
0.0
  9
$DIMTIX
 70
     0
  9
$DIMSOXD
 70
     0
  9
$DIMSAH
 70
     0
  9
$DIMBLK1
  1

  9
$DIMBLK2
  1

  9
$DIMSTYLE
  2
STANDARD
  9
$DIMCLRD
 70
     0
  9
$DIMCLRE
 70
     0
  9
$DIMCLRT
 70
     0
  9
$DIMTFAC
 40
1.0
  9
$DIMGAP
 40
2.299999999999999
  9
$DIMJUST
 70
     0
  9
$DIMSD1
 70
     0
  9
$DIMSD2
 70
     0
  9
$DIMTOLJ
 70
     1
  9
$DIMTZIN
 70
     0
  9
$DIMALTZ
 70
     0
  9
$DIMALTTZ
 70
     0
  9
$DIMFIT
 70
     3
  9
$DIMUPT
 70
     0
  9
$DIMUNIT
 70
     2
  9
$DIMDEC
 70
     2
  9
$DIMTDEC
 70
     4
  9
$DIMALTU
 70
     2
  9
$DIMALTTD
 70
     2
  9
$DIMTXSTY
  7
SIMPLEX
  9
$DIMAUNIT
 70
     0
  9
$LUNITS
 70
     2
  9
$LUPREC
 70
     2
  9
$SKETCHINC
 40
0.1
  9
$FILLETRAD
 40
0.0
  9
$AUNITS
 70
     0
  9
$AUPREC
 70
     0
  9
$MENU
  1
c:\tdm21\cad\caduti13\tdm13
  9
$ELEVATION
 40
0.0
  9
$PELEVATION
 40
0.0
  9
$THICKNESS
 40
0.0
  9
$LIMCHECK
 70
     0
  9
$BLIPMODE
 70
     0
  9
$CHAMFERA
 40
0.0
  9
$CHAMFERB
 40
0.0
  9
$CHAMFERC
 40
0.0
  9
$CHAMFERD
 40
0.0
  9
$SKPOLY
 70
     0
  9
$TDCREATE
 40
2452547.583876967
  9
$TDUPDATE
 40
2452547.583876967
  9
$TDINDWG
 40
0.0007056713
  9
$TDUSRTIMER
 40
0.0007056713
  9
$USRTIMER
 70
     1
  9
$ANGBASE
 50
0.0
  9
$ANGDIR
 70
     0
  9
$PDMODE
 70
     1
  9
$PDSIZE
 40
0.0
  9
$PLINEWID
 40
0.0
  9
$COORDS
 70
     1
  9
$SPLFRAME
 70
     0
  9
$SPLINETYPE
 70
     6
  9
$SPLINESEGS
 70
     8
  9
$ATTDIA
 70
     0
  9
$ATTREQ
 70
     1
  9
$HANDLING
 70
  4097
  9
$HANDSEED
  5
4DC
  9
$SURFTAB1
 70
     6
  9
$SURFTAB2
 70
     6
  9
$SURFTYPE
 70
     6
  9
$SURFU
 70
     6
  9
$SURFV
 70
     6
  9
$UCSNAME
  2

  9
$UCSORG
 10
0.0
 20
0.0
 30
0.0
  9
$UCSXDIR
 10
1.0
 20
0.0
 30
0.0
  9
$UCSYDIR
 10
0.0
 20
1.0
 30
0.0
  9
$PUCSNAME
  2

  9
$PUCSORG
 10
0.0
 20
0.0
 30
0.0
  9
$PUCSXDIR
 10
1.0
 20
0.0
 30
0.0
  9
$PUCSYDIR
 10
0.0
 20
1.0
 30
0.0
  9
$USERI1
 70
     0
  9
$USERI2
 70
     0
  9
$USERI3
 70
     0
  9
$USERI4
 70
     0
  9
$USERI5
 70
     0
  9
$USERR1
 40
0.0
  9
$USERR2
 40
0.0
  9
$USERR3
 40
0.0
  9
$USERR4
 40
0.0
  9
$USERR5
 40
0.0
  9
$WORLDVIEW
 70
     1
  9
$SHADEDGE
 70
     3
  9
$SHADEDIF
 70
    70
  9
$TILEMODE
 70
     1
  9
$MAXACTVP
 70
    16
  9
$PINSBASE
 10
0.0
 20
0.0
 30
0.0
  9
$PLIMCHECK
 70
     0
  9
$PEXTMIN
 10
0.0
 20
0.0
 30
0.0
  9
$PEXTMAX
 10
0.0
 20
0.0
 30
0.0
  9
$PLIMMIN
 10
0.0
 20
0.0
  9
$PLIMMAX
 10
12.0
 20
9.0
  9
$UNITMODE
 70
     0
  9
$VISRETAIN
 70
     0
  9
$PLINEGEN
 70
     0
  9
$PSLTSCALE
 70
     1
  9
$TREEDEPTH
 70
  3020
  9
$PICKSTYLE
 70
     1
  9
$CMLSTYLE
  2
STANDARD
  9
$CMLJUST
 70
     0
  9
$CMLSCALE
 40
1.0
  9
$SAVEIMAGES
 70
     1
  0
ENDSEC
  0
SECTION
  2
CLASSES
  0
CLASS
  1
ACDBDICTIONARYWDFLT
  2
AcDbDictionaryWithDefault
  3
AutoCAD 2000
 90
    32768
280
     0
281
     0
  0
CLASS
  1
ACDBPLACEHOLDER
  2
AcDbPlaceHolder
  3
AutoCAD 2000
 90
    32768
280
     0
281
     0
  0
CLASS
  1
LAYOUT
  2
AcDbLayout
  3
AutoCAD 2000
 90
    32768
280
     0
281
     0
  0
CLASS
  1
LONG_TRANSACTION
  2
AcDbLongTransaction
  3
AutoCAD 2000
 90
    32768
280
     0
281
     0
  0
CLASS
  1
LWPOLYLINE
  2
AcDbPolyline
  3
AutoCAD 2000
 90
    32768
280
     0
281
     1
  0
CLASS
  1
HATCH
  2
AcDbHatch
  3
AutoCAD 2000
 90
    32768
280
     0
281
     1
  0
CLASS
  1
XRECORD
  2
AcDbXrecord
  3
AutoCAD 2000
 90
    32768
280
     0
281
     0
  0
ENDSEC
  0
SECTION
  2
TABLES
  0
TABLE
  2
VPORT
  5
8
330
0
100
AcDbSymbolTable
 70
     3
  0
VPORT
  5
4CC
330
8
100
AcDbSymbolTableRecord
100
AcDbViewportTableRecord
  2
*ACTIVE
 70
     0
 10
0.0
 20
0.0
 11
1.0
 21
1.0
 12
55.59451440523208
 22
15.93353368217771
 13
0.0
 23
0.0
 14
5.0
 24
5.0
 15
5.0
 25
5.0
 16
0.0
 26
0.0
 36
1.0
 17
0.0
 27
0.0
 37
0.0
 40
182.8958668002223
 41
2.184713375796178
 42
50.0
 43
0.0
 44
0.0
 50
0.0
 51
0.0
 71
     0
 72
   100
 73
     1
 74
     1
 75
     0
 76
     0
 77
     0
 78
     0
  0
ENDTAB
  0
TABLE
  2
LTYPE
  5
5
330
0
100
AcDbSymbolTable
 70
     3
  0
LTYPE
  5
12
330
5
100
AcDbSymbolTableRecord
100
AcDbLinetypeTableRecord
  2
BYBLOCK
 70
     0
  3

 72
    65
 73
     0
 40
0.0
  0
LTYPE
  5
13
330
5
100
AcDbSymbolTableRecord
100
AcDbLinetypeTableRecord
  2
BYLAYER
 70
     0
  3

 72
    65
 73
     0
 40
0.0
  0
LTYPE
  5
14
330
5
100
AcDbSymbolTableRecord
100
AcDbLinetypeTableRecord
  2
CONTINUOUS
 70
     0
  3
Solid line
 72
    65
 73
     0
 40
0.0
  0
LTYPE
  5
1F
330
5
100
AcDbSymbolTableRecord
100
AcDbLinetypeTableRecord
  2
CENTER
 70
     0
  3
____ . ____ . ____
 72
    65
 73
     4
 40
1.5
 49
1.0
 74
     0
 49
-0.25
 74
     0
 49
0.0
 74
     0
 49
-0.25
 74
     0
  0
LTYPE
  5
20
330
5
100
AcDbSymbolTableRecord
100
AcDbLinetypeTableRecord
  2
HIDDEN
 70
     0
  3
_ _ _ _ _ _ _ _ _ _ _ _ _ _ _ _ _ _ _ _ _ _ _
 72
    65
 73
     2
 40
0.375
 49
0.25
 74
     0
 49
-0.125
 74
     0
  0
ENDTAB
  0
TABLE
  2
LAYER
  5
2
330
0
100
AcDbSymbolTable
 70
    15
  0
LAYER
  5
F
330
2
100
AcDbSymbolTableRecord
100
AcDbLayerTableRecord
  2
0
 70
     0
 62
     7
  6
CONTINUOUS
  0
LAYER
  5
23
330
2
100
AcDbSymbolTableRecord
100
AcDbLayerTableRecord
  2
1
 70
     0
 62
     4
  6
CONTINUOUS
  0
LAYER
  5
24
330
2
100
AcDbSymbolTableRecord
100
AcDbLayerTableRecord
  2
SK1
 70
     0
 62
     4
  6
CONTINUOUS
  0
LAYER
  5
25
330
2
100
AcDbSymbolTableRecord
100
AcDbLayerTableRecord
  2
2
 70
     0
 62
     7
  6
CONTINUOUS
  0
LAYER
  5
26
330
2
100
AcDbSymbolTableRecord
100
AcDbLayerTableRecord
  2
2L
 70
     0
 62
     7
  6
CONTINUOUS
  0
LAYER
  5
27
330
2
100
AcDbSymbolTableRecord
100
AcDbLayerTableRecord
  2
SK2
 70
     0
 62
     7
  6
CONTINUOUS
  0
LAYER
  5
28
330
2
100
AcDbSymbolTableRecord
100
AcDbLayerTableRecord
  2
3
 70
     0
 62
     1
  6
HIDDEN
  0
LAYER
  5
29
330
2
100
AcDbSymbolTableRecord
100
AcDbLayerTableRecord
  2
SK3
 70
     0
 62
     1
  6
HIDDEN
  0
LAYER
  5
2A
330
2
100
AcDbSymbolTableRecord
100
AcDbLayerTableRecord
  2
4
 70
     0
 62
    -2
  6
CENTER
  0
LAYER
  5
2B
330
2
100
AcDbSymbolTableRecord
100
AcDbLayerTableRecord
  2
SK4
 70
     0
 62
     2
  6
CENTER
  0
LAYER
  5
2C
330
2
100
AcDbSymbolTableRecord
100
AcDbLayerTableRecord
  2
5
 70
     0
 62
    -7
  6
CONTINUOUS
  0
LAYER
  5
2D
330
2
100
AcDbSymbolTableRecord
100
AcDbLayerTableRecord
  2
6
 70
     0
 62
     5
  6
CONTINUOUS
  0
LAYER
  5
2E
330
2
100
AcDbSymbolTableRecord
100
AcDbLayerTableRecord
  2
SK6
 70
     0
 62
     5
  6
CONTINUOUS
  0
LAYER
  5
2F
330
2
100
AcDbSymbolTableRecord
100
AcDbLayerTableRecord
  2
DEFPOINTS
 70
     0
 62
     7
  6
CONTINUOUS
  0
LAYER
  5
47F
330
2
100
AcDbSymbolTableRecord
100
AcDbLayerTableRecord
  2
1__1
 70
     0
 62
     1
  6
CONTINUOUS
  0
ENDTAB
  0
TABLE
  2
STYLE
  5
3
330
0
100
AcDbSymbolTable
 70
     3
  0
STYLE
  5
10
330
3
100
AcDbSymbolTableRecord
100
AcDbTextStyleTableRecord
  2
STANDARD
 70
     0
 40
0.0
 41
1.0
 50
0.0
 71
     0
 42
5.0
  3
txt
  4

  0
STYLE
  5
1D
330
3
100
AcDbSymbolTableRecord
100
AcDbTextStyleTableRecord
  2
TXT
 70
     0
 40
8.0
 41
1.0
 50
0.0
 71
     0
 42
8.0
  3
txt
  4

  0
STYLE
  5
1E
330
3
100
AcDbSymbolTableRecord
100
AcDbTextStyleTableRecord
  2
SIMPLEX
 70
     0
 40
0.0
 41
1.0
 50
0.0
 71
     0
 42
4.57
  3
simplex
  4

  0
ENDTAB
  0
TABLE
  2
VIEW
  5
6
330
0
100
AcDbSymbolTable
 70
     0
  0
ENDTAB
  0
TABLE
  2
UCS
  5
7
330
0
100
AcDbSymbolTable
 70
     0
  0
ENDTAB
  0
TABLE
  2
APPID
  5
9
330
0
100
AcDbSymbolTable
 70
     1
  0
APPID
  5
11
330
9
100
AcDbSymbolTableRecord
100
AcDbRegAppTableRecord
  2
ACAD
 70
     0
  0
ENDTAB
  0
TABLE
  2
DIMSTYLE
  5
A
330
0
100
AcDbSymbolTable
 70
     1
  0
DIMSTYLE
105
3F
102
{ACAD_REACTORS
330
434
330
3ED
330
3E0
330
3D7
330
3D0
330
3CE
330
3B9
330
3B8
102
}
330
A
100
AcDbSymbolTableRecord
100
AcDbDimStyleTableRecord
  2
STANDARD
 70
     0
  3

  4

  5

  6

  7

 40
0.0
 41
4.57
 42
0.0
 43
0.38
 44
5.0
 45
0.0
 46
0.0
 47
0.0
 48
0.0
140
4.57
141
0.09
142
0.0
143
25.4
144
1.0
145
0.0
146
1.0
147
2.299999999999999
 71
     0
 72
     0
 73
     0
 74
     0
 75
     0
 76
     0
 77
     1
 78
     8
170
     0
171
     2
172
     0
173
     0
174
     0
175
     0
176
     0
177
     0
178
     0
270
     2
271
     2
272
     4
273
     2
274
     2
340
1E
275
     0
280
     0
281
     0
282
     0
283
     1
284
     0
285
     0
286
     0
287
     3
288
     0
  0
ENDTAB
  0
TABLE
  2
BLOCK_RECORD
  5
1
330
0
100
AcDbSymbolTable
 70
     9
  0
BLOCK_RECORD
  5
18
102
{ACAD_XDICTIONARY
360
4CD
102
}
330
1
100
AcDbSymbolTableRecord
100
AcDbBlockTableRecord
  2
*MODEL_SPACE
  0
BLOCK_RECORD
  5
338
102
{ACAD_XDICTIONARY
360
4CF
102
}
330
1
100
AcDbSymbolTableRecord
100
AcDbBlockTableRecord
  2
*PAPER_SPACE
  0
BLOCK_RECORD
  5
345
330
1
100
AcDbSymbolTableRecord
100
AcDbBlockTableRecord
  2
*D0
  0
BLOCK_RECORD
  5
351
330
1
100
AcDbSymbolTableRecord
100
AcDbBlockTableRecord
  2
*D1
  0
BLOCK_RECORD
  5
35E
330
1
100
AcDbSymbolTableRecord
100
AcDbBlockTableRecord
  2
*D2
  0
BLOCK_RECORD
  5
36B
330
1
100
AcDbSymbolTableRecord
100
AcDbBlockTableRecord
  2
*D3
  0
BLOCK_RECORD
  5
377
330
1
100
AcDbSymbolTableRecord
100
AcDbBlockTableRecord
  2
*D4
  0
BLOCK_RECORD
  5
383
330
1
100
AcDbSymbolTableRecord
100
AcDbBlockTableRecord
  2
*D5
  0
BLOCK_RECORD
  5
38F
330
1
100
AcDbSymbolTableRecord
100
AcDbBlockTableRecord
  2
*D6
  0
BLOCK_RECORD
  5
39B
330
1
100
AcDbSymbolTableRecord
100
AcDbBlockTableRecord
  2
*D7
  0
ENDTAB
  0
ENDSEC
  0
SECTION
  2
BLOCKS
  0
BLOCK
  5
32
330
18
100
AcDbEntity
  8
0
100
AcDbBlockBegin
  2
*MODEL_SPACE
 70
     0
 10
0.0
 20
0.0
 30
0.0
  3
*MODEL_SPACE
  1

  0
ENDBLK
  5
33
330
18
100
AcDbEntity
  8
0
100
AcDbBlockEnd
  0
BLOCK
  5
339
330
338
100
AcDbEntity
 67
     1
  8
0
100
AcDbBlockBegin
  2
*PAPER_SPACE
 70
     0
 10
0.0
 20
0.0
 30
0.0
  3
*PAPER_SPACE
  1

  0
ENDBLK
  5
33A
330
338
100
AcDbEntity
 67
     1
  8
0
100
AcDbBlockEnd
  0
BLOCK
  5
34F
330
345
100
AcDbEntity
  8
0
100
AcDbBlockBegin
  2
*D0
 70
     1
 10
0.0
 20
0.0
 30
0.0
  3
*D0
  1

  0
LINE
  5
435
330
345
100
AcDbEntity
  8
SK2
 62
     0
100
AcDbLine
 10
142.0
 20
-21.08
 30
0.0
 11
142.0
 21
-50.0
 31
0.0
  0
LINE
  5
436
330
345
100
AcDbEntity
  8
SK2
 62
     0
100
AcDbLine
 10
199.9989999999829
 20
-21.57499523525113
 30
0.0
 11
199.9989999999829
 21
-50.0
 31
0.0
  0
LINE
  5
437
330
345
100
AcDbEntity
  8
SK2
 62
     0
100
AcDbLine
 10
146.57
 20
-45.0
 30
0.0
 11
195.4289999999829
 21
-45.0
 31
0.0
  0
SOLID
  5
438
330
345
100
AcDbEntity
  8
SK2
 62
     0
100
AcDbTrace
 10
146.57
 20
-44.23833333333333
 30
0.0
 11
146.57
 21
-45.76166666666667
 31
0.0
 12
142.0
 22
-45.0
 32
0.0
 13
142.0
 23
-45.0
 33
0.0
  0
SOLID
  5
439
330
345
100
AcDbEntity
  8
SK2
 62
     0
100
AcDbTrace
 10
195.4289999999829
 20
-44.23833333333333
 30
0.0
 11
195.4289999999829
 21
-45.76166666666667
 31
0.0
 12
199.9989999999829
 22
-45.0
 32
0.0
 13
199.9989999999829
 23
-45.0
 33
0.0
  0
MTEXT
  5
43A
330
345
100
AcDbEntity
  8
SK2
 62
     0
100
AcDbMText
 10
170.9994999999914
 20
-40.415
 30
0.0
 40
4.57
 41
0.0
 71
     5
 72
     1
  1
\A1;58
  7
SIMPLEX
1001
ACAD
1000
MTEXTBEGIN
1070
    73
1070
     1
1070
    44
1040
1.0
1070
    74
1070
     0
1000
MTEXTEND
  0
POINT
  5
43B
330
345
100
AcDbEntity
  8
DEFPOINTS
 62
     0
100
AcDbPoint
 10
142.0
 20
-21.08
 30
0.0
  0
POINT
  5
43C
330
345
100
AcDbEntity
  8
DEFPOINTS
 62
     0
100
AcDbPoint
 10
199.9989999999829
 20
-21.57499523525113
 30
0.0
  0
POINT
  5
43D
330
345
100
AcDbEntity
  8
DEFPOINTS
 62
     0
100
AcDbPoint
 10
199.9989999999829
 20
-45.0
 30
0.0
  0
ENDBLK
  5
350
330
345
100
AcDbEntity
  8
0
100
AcDbBlockEnd
  0
BLOCK
  5
35C
330
351
100
AcDbEntity
  8
0
100
AcDbBlockBegin
  2
*D1
 70
     1
 10
0.0
 20
0.0
 30
0.0
  3
*D1
  1

  0
LINE
  5
43E
330
351
100
AcDbEntity
  8
SK2
 62
     0
100
AcDbLine
 10
142.0
 20
-21.08
 30
0.0
 11
142.0
 21
-38.50600476474885
 31
0.0
  0
LINE
  5
43F
330
351
100
AcDbEntity
  8
SK2
 62
     0
100
AcDbLine
 10
152.0
 20
-21.08
 30
0.0
 11
152.0
 21
-38.50600476474885
 31
0.0
  0
LINE
  5
440
330
351
100
AcDbEntity
  8
SK2
 62
     0
100
AcDbLine
 10
137.43
 20
-33.50600476474885
 30
0.0
 11
132.86
 21
-33.50600476474885
 31
0.0
  0
LINE
  5
441
330
351
100
AcDbEntity
  8
SK2
 62
     0
100
AcDbLine
 10
156.5699999999999
 20
-33.50600476474885
 30
0.0
 11
172.2685714285714
 21
-33.50600476474885
 31
0.0
  0
SOLID
  5
442
330
351
100
AcDbEntity
  8
SK2
 62
     0
100
AcDbTrace
 10
137.43
 20
-32.74433809808218
 30
0.0
 11
137.43
 21
-34.26767143141552
 31
0.0
 12
142.0
 22
-33.50600476474885
 32
0.0
 13
142.0
 23
-33.50600476474885
 33
0.0
  0
SOLID
  5
443
330
351
100
AcDbEntity
  8
SK2
 62
     0
100
AcDbTrace
 10
156.5699999999999
 20
-32.74433809808218
 30
0.0
 11
156.5699999999999
 21
-34.26767143141552
 31
0.0
 12
152.0
 22
-33.50600476474885
 32
0.0
 13
152.0
 23
-33.50600476474885
 33
0.0
  0
MTEXT
  5
444
330
351
100
AcDbEntity
  8
SK2
 62
     0
100
AcDbMText
 10
166.7042857142857
 20
-28.92100476474885
 30
0.0
 40
4.57
 41
0.0
 71
     5
 72
     1
  1
\A1;10
  7
SIMPLEX
1001
ACAD
1000
MTEXTBEGIN
1070
    73
1070
     1
1070
    44
1040
1.0
1070
    74
1070
     0
1000
MTEXTEND
  0
POINT
  5
445
330
351
100
AcDbEntity
  8
DEFPOINTS
 62
     0
100
AcDbPoint
 10
142.0
 20
-21.08
 30
0.0
  0
POINT
  5
446
330
351
100
AcDbEntity
  8
DEFPOINTS
 62
     0
100
AcDbPoint
 10
152.0
 20
-21.08
 30
0.0
  0
POINT
  5
447
330
351
100
AcDbEntity
  8
DEFPOINTS
 62
     0
100
AcDbPoint
 10
152.0
 20
-33.50600476474885
 30
0.0
  0
ENDBLK
  5
35D
330
351
100
AcDbEntity
  8
0
100
AcDbBlockEnd
  0
BLOCK
  5
369
330
35E
100
AcDbEntity
  8
0
100
AcDbBlockBegin
  2
*D2
 70
     1
 10
0.0
 20
0.0
 30
0.0
  3
*D2
  1

  0
ARC
  5
448
330
35E
100
AcDbEntity
  8
SK2
 62
     0
100
AcDbCircle
 10
142.83
 20
26.50000000000001
 30
0.0
 40
29.51278912963537
100
AcDbArc
 50
337.7551167259685
 51
346.6361486228357
  0
ARC
  5
449
330
35E
100
AcDbEntity
  8
SK2
 62
     0
100
AcDbCircle
 10
142.83
 20
26.50000000000001
 30
0.0
 40
29.51278912963537
100
AcDbArc
 50
8.881031896867172
 51
17.76206379373433
  0
SOLID
  5
44A
330
35E
100
AcDbEntity
  8
SK2
 62
     0
100
AcDbTrace
 10
170.7911907504383
 20
19.79673163852075
 30
0.0
 11
172.2960868352132
 21
19.56044321630414
 31
0.0
 12
172.2525040594756
 22
24.19327568173714
 32
0.0
 13
172.2525040594756
 23
24.19327568173714
 33
0.0
  0
SOLID
  5
44B
330
35E
100
AcDbEntity
  8
SK2
 62
     0
100
AcDbTrace
 10
172.7483415040294
 20
31.11525333895493
 30
0.0
 11
171.22958083332
 21
30.99731068530139
 31
0.0
 12
172.3427891296353
 22
26.50000000000002
 32
0.0
 13
172.3427891296353
 23
26.50000000000002
 33
0.0
  0
MTEXT
  5
44C
330
35E
100
AcDbEntity
  8
SK2
 62
     0
100
AcDbMText
 10
175.954833714504
 20
34.587311970954
 30
0.0
 40
4.57
 41
0.0
 71
     5
 72
     1
  1
\A1;4.5°
  7
SIMPLEX
 11
0.2371799514686159
 21
-0.9714657331174089
 31
0.0
1001
ACAD
1000
MTEXTBEGIN
1070
    73
1070
     1
1070
    44
1040
1.0
1070
    74
1070
     0
1000
MTEXTEND
  0
POINT
  5
44D
330
35E
100
AcDbEntity
  8
DEFPOINTS
 62
     0
100
AcDbPoint
 10
172.3026510573352
 20
24.96131164205432
 30
0.0
  0
POINT
  5
44E
330
35E
100
AcDbEntity
  8
DEFPOINTS
 62
     0
100
AcDbPoint
 10
142.83
 20
26.50000000000001
 30
0.0
  0
POINT
  5
44F
330
35E
100
AcDbEntity
  8
DEFPOINTS
 62
     0
100
AcDbPoint
 10
142.83
 20
26.50000000000001
 30
0.0
  0
POINT
  5
450
330
35E
100
AcDbEntity
  8
DEFPOINTS
 62
     0
100
AcDbPoint
 10
199.0799999999999
 20
22.09
 30
0.0
  0
POINT
  5
451
330
35E
100
AcDbEntity
  8
DEFPOINTS
 62
     0
100
AcDbPoint
 10
250.0
 20
26.49999999999998
 30
0.0
  0
ENDBLK
  5
36A
330
35E
100
AcDbEntity
  8
0
100
AcDbBlockEnd
  0
BLOCK
  5
375
330
36B
100
AcDbEntity
  8
0
100
AcDbBlockBegin
  2
*D3
 70
     1
 10
0.0
 20
0.0
 30
0.0
  3
*D3
  1

  0
LINE
  5
452
330
36B
100
AcDbEntity
  8
SK2
 62
     0
100
AcDbLine
 10
0.0
 20
34.92499999999999
 30
0.0
 11
0.0000000000000028
 21
80.0
 31
0.0
  0
LINE
  5
453
330
36B
100
AcDbEntity
  8
SK2
 62
     0
100
AcDbLine
 10
-101.5999951748075
 20
18.16264950710383
 30
0.0
 11
-101.5999951748075
 21
80.0
 31
0.0
  0
LINE
  5
454
330
36B
100
AcDbEntity
  8
SK2
 62
     0
100
AcDbLine
 10
-4.569999999999997
 20
75.0
 30
0.0
 11
-97.02999517480751
 21
75.0
 31
0.0
  0
SOLID
  5
455
330
36B
100
AcDbEntity
  8
SK2
 62
     0
100
AcDbTrace
 10
-4.569999999999997
 20
75.76166666666667
 30
0.0
 11
-4.569999999999997
 21
74.23833333333333
 31
0.0
 12
0.0000000000000025
 22
75.0
 32
0.0
 13
0.0000000000000025
 23
75.0
 33
0.0
  0
SOLID
  5
456
330
36B
100
AcDbEntity
  8
SK2
 62
     0
100
AcDbTrace
 10
-97.02999517480751
 20
75.76166666666667
 30
0.0
 11
-97.02999517480751
 21
74.23833333333333
 31
0.0
 12
-101.5999951748075
 22
75.0
 32
0.0
 13
-101.5999951748075
 23
75.0
 33
0.0
  0
MTEXT
  5
457
330
36B
100
AcDbEntity
  8
SK2
 62
     0
100
AcDbMText
 10
-50.79999758740375
 20
79.58499999999999
 30
0.0
 40
4.57
 41
0.0
 71
     5
 72
     1
  1
\A1;101.6
  7
SIMPLEX
1001
ACAD
1000
MTEXTBEGIN
1070
    73
1070
     1
1070
    44
1040
1.0
1070
    74
1070
     0
1000
MTEXTEND
  0
POINT
  5
458
330
36B
100
AcDbEntity
  8
DEFPOINTS
 62
     0
100
AcDbPoint
 10
0.0
 20
34.92499999999999
 30
0.0
  0
POINT
  5
459
330
36B
100
AcDbEntity
  8
DEFPOINTS
 62
     0
100
AcDbPoint
 10
-101.5999951748075
 20
18.16264950710383
 30
0.0
  0
POINT
  5
45A
330
36B
100
AcDbEntity
  8
DEFPOINTS
 62
     0
100
AcDbPoint
 10
-101.5999951748075
 20
75.0
 30
0.0
  0
ENDBLK
  5
376
330
36B
100
AcDbEntity
  8
0
100
AcDbBlockEnd
  0
BLOCK
  5
381
330
377
100
AcDbEntity
  8
0
100
AcDbBlockBegin
  2
*D4
 70
     1
 10
0.0
 20
0.0
 30
0.0
  3
*D4
  1

  0
LINE
  5
45B
330
377
100
AcDbEntity
  8
SK2
 62
     0
100
AcDbLine
 10
4.0
 20
-48.725
 30
0.0
 11
-136.9499999999999
 21
-48.72499999999996
 31
0.0
  0
LINE
  5
45C
330
377
100
AcDbEntity
  8
SK2
 62
     0
100
AcDbLine
 10
4.0
 20
48.72499999999999
 30
0.0
 11
-136.9499999999999
 21
48.72500000000003
 31
0.0
  0
LINE
  5
45D
330
377
100
AcDbEntity
  8
SK2
 62
     0
100
AcDbLine
 10
-131.9499999999999
 20
-44.15499999999997
 30
0.0
 11
-131.9499999999999
 21
44.15500000000003
 31
0.0
  0
SOLID
  5
45E
330
377
100
AcDbEntity
  8
SK2
 62
     0
100
AcDbTrace
 10
-132.7116666666666
 20
-44.15499999999997
 30
0.0
 11
-131.1883333333333
 21
-44.15499999999997
 31
0.0
 12
-131.9499999999999
 22
-48.72499999999996
 32
0.0
 13
-131.9499999999999
 23
-48.72499999999996
 33
0.0
  0
SOLID
  5
45F
330
377
100
AcDbEntity
  8
SK2
 62
     0
100
AcDbTrace
 10
-132.7116666666666
 20
44.15500000000003
 30
0.0
 11
-131.1883333333333
 21
44.15500000000003
 31
0.0
 12
-131.9499999999999
 22
48.72500000000003
 32
0.0
 13
-131.9499999999999
 23
48.72500000000003
 33
0.0
  0
MTEXT
  5
460
330
377
100
AcDbEntity
  8
SK2
 62
     0
100
AcDbMText
 10
-136.535
 20
0.0000000000000122
 30
0.0
 40
4.57
 41
0.0
 71
     5
 72
     1
  1
\A1;%%C97.45
  7
SIMPLEX
 11
0.0000000000000001
 21
1.0
 31
0.0
1001
ACAD
1000
MTEXTBEGIN
1070
    73
1070
     1
1070
    44
1040
1.0
1070
    74
1070
     0
1000
MTEXTEND
  0
POINT
  5
461
330
377
100
AcDbEntity
  8
DEFPOINTS
 62
     0
100
AcDbPoint
 10
4.0
 20
-48.725
 30
0.0
  0
POINT
  5
462
330
377
100
AcDbEntity
  8
DEFPOINTS
 62
     0
100
AcDbPoint
 10
4.0
 20
48.72499999999999
 30
0.0
  0
POINT
  5
463
330
377
100
AcDbEntity
  8
DEFPOINTS
 62
     0
100
AcDbPoint
 10
-131.9499999999999
 20
48.72500000000003
 30
0.0
  0
ENDBLK
  5
382
330
377
100
AcDbEntity
  8
0
100
AcDbBlockEnd
  0
BLOCK
  5
38D
330
383
100
AcDbEntity
  8
0
100
AcDbBlockBegin
  2
*D5
 70
     1
 10
0.0
 20
0.0
 30
0.0
  3
*D5
  1

  0
LINE
  5
464
330
383
100
AcDbEntity
  8
SK2
 62
     0
100
AcDbLine
 10
-89.56127
 20
-12.0
 30
0.0
 11
-121.95
 21
-11.99999999999999
 31
0.0
  0
LINE
  5
465
330
383
100
AcDbEntity
  8
SK2
 62
     0
100
AcDbLine
 10
-89.56127
 20
12.0
 30
0.0
 11
-121.95
 21
12.00000000000001
 31
0.0
  0
LINE
  5
466
330
383
100
AcDbEntity
  8
SK2
 62
     0
100
AcDbLine
 10
-116.9499999999999
 20
-7.429999999999991
 30
0.0
 11
-116.9499999999999
 21
7.430000000000007
 31
0.0
  0
SOLID
  5
467
330
383
100
AcDbEntity
  8
SK2
 62
     0
100
AcDbTrace
 10
-117.7116666666666
 20
-7.429999999999991
 30
0.0
 11
-116.1883333333333
 21
-7.429999999999991
 31
0.0
 12
-116.9499999999999
 22
-11.99999999999999
 32
0.0
 13
-116.9499999999999
 23
-11.99999999999999
 33
0.0
  0
SOLID
  5
468
330
383
100
AcDbEntity
  8
SK2
 62
     0
100
AcDbTrace
 10
-117.7116666666666
 20
7.430000000000007
 30
0.0
 11
-116.1883333333333
 21
7.430000000000007
 31
0.0
 12
-116.9499999999999
 22
12.00000000000001
 32
0.0
 13
-116.9499999999999
 23
12.00000000000001
 33
0.0
  0
MTEXT
  5
469
330
383
100
AcDbEntity
  8
SK2
 62
     0
100
AcDbMText
 10
-121.5349999999999
 20
-0.00000000000001
 30
0.0
 40
4.57
 41
0.0
 71
     5
 72
     1
  1
\A1;M24
  7
SIMPLEX
 11
0.0000000000000001
 21
1.0
 31
0.0
1001
ACAD
1000
MTEXTBEGIN
1070
    73
1070
     1
1070
    44
1040
1.0
1070
    74
1070
     0
1000
MTEXTEND
  0
POINT
  5
46A
330
383
100
AcDbEntity
  8
DEFPOINTS
 62
     0
100
AcDbPoint
 10
-89.56127
 20
-12.0
 30
0.0
  0
POINT
  5
46B
330
383
100
AcDbEntity
  8
DEFPOINTS
 62
     0
100
AcDbPoint
 10
-89.56127
 20
12.0
 30
0.0
  0
POINT
  5
46C
330
383
100
AcDbEntity
  8
DEFPOINTS
 62
     0
100
AcDbPoint
 10
-116.9499999999999
 20
12.00000000000001
 30
0.0
  0
ENDBLK
  5
38E
330
383
100
AcDbEntity
  8
0
100
AcDbBlockEnd
  0
BLOCK
  5
399
330
38F
100
AcDbEntity
  8
0
100
AcDbBlockBegin
  2
*D6
 70
     1
 10
0.0
 20
0.0
 30
0.0
  3
*D6
  1

  0
LINE
  5
46D
330
38F
100
AcDbEntity
  8
SK2
 62
     0
100
AcDbLine
 10
0.0
 20
-34.92499999999999
 30
0.0
 11
-14.95000000000001
 21
-34.92499999999999
 31
0.0
  0
LINE
  5
46E
330
38F
100
AcDbEntity
  8
SK2
 62
     0
100
AcDbLine
 10
0.0
 20
34.92499999999999
 30
0.0
 11
-14.95
 21
34.92499999999999
 31
0.0
  0
LINE
  5
46F
330
38F
100
AcDbEntity
  8
SK2
 62
     0
100
AcDbLine
 10
-9.950000000000017
 20
-30.35499999999999
 30
0.0
 11
-9.950000000000002
 21
30.355
 31
0.0
  0
SOLID
  5
470
330
38F
100
AcDbEntity
  8
SK2
 62
     0
100
AcDbTrace
 10
-10.71166666666668
 20
-30.35499999999999
 30
0.0
 11
-9.18833333333335
 21
-30.35499999999999
 31
0.0
 12
-9.950000000000017
 22
-34.92499999999999
 32
0.0
 13
-9.950000000000017
 23
-34.92499999999999
 33
0.0
  0
SOLID
  5
471
330
38F
100
AcDbEntity
  8
SK2
 62
     0
100
AcDbTrace
 10
-10.71166666666667
 20
30.355
 30
0.0
 11
-9.188333333333336
 21
30.355
 31
0.0
 12
-9.950000000000002
 22
34.92499999999999
 32
0.0
 13
-9.950000000000002
 23
34.92499999999999
 33
0.0
  0
MTEXT
  5
472
330
38F
100
AcDbEntity
  8
SK2
 62
     0
100
AcDbMText
 10
-14.53500000000001
 20
0.0000000000000012
 30
0.0
 40
4.57
 41
0.0
 71
     5
 72
     1
  1
\A1;%%C69.85
  7
SIMPLEX
 11
0.0000000000000001
 21
1.0
 31
0.0
1001
ACAD
1000
MTEXTBEGIN
1070
    73
1070
     1
1070
    44
1040
1.0
1070
    74
1070
     0
1000
MTEXTEND
  0
POINT
  5
473
330
38F
100
AcDbEntity
  8
DEFPOINTS
 62
     0
100
AcDbPoint
 10
0.0
 20
-34.92499999999999
 30
0.0
  0
POINT
  5
474
330
38F
100
AcDbEntity
  8
DEFPOINTS
 62
     0
100
AcDbPoint
 10
0.0
 20
34.92499999999999
 30
0.0
  0
POINT
  5
475
330
38F
100
AcDbEntity
  8
DEFPOINTS
 62
     0
100
AcDbPoint
 10
-9.950000000000002
 20
34.92499999999999
 30
0.0
  0
ENDBLK
  5
39A
330
38F
100
AcDbEntity
  8
0
100
AcDbBlockEnd
  0
BLOCK
  5
3A5
330
39B
100
AcDbEntity
  8
0
100
AcDbBlockBegin
  2
*D7
 70
     1
 10
0.0
 20
0.0
 30
0.0
  3
*D7
  1

  0
LINE
  5
476
330
39B
100
AcDbEntity
  8
2
 62
     0
100
AcDbLine
 10
0.0000111588630337
 20
34.9250089709832
 30
0.0
 11
0.0000111588630365
 21
80.0
 31
0.0
  0
LINE
  5
477
330
39B
100
AcDbEntity
  8
2
 62
     0
100
AcDbLine
 10
199.9999999999998
 20
21.08999945894793
 30
0.0
 11
199.9999999999998
 21
80.0
 31
0.0
  0
LINE
  5
478
330
39B
100
AcDbEntity
  8
2
 62
     0
100
AcDbLine
 10
4.570011158863036
 20
75.0
 30
0.0
 11
195.4299999999998
 21
75.0
 31
0.0
  0
SOLID
  5
479
330
39B
100
AcDbEntity
  8
2
 62
     0
100
AcDbTrace
 10
4.570011158863036
 20
75.76166666666667
 30
0.0
 11
4.570011158863036
 21
74.23833333333333
 31
0.0
 12
0.0000111588630362
 22
75.0
 32
0.0
 13
0.0000111588630362
 23
75.0
 33
0.0
  0
SOLID
  5
47A
330
39B
100
AcDbEntity
  8
2
 62
     0
100
AcDbTrace
 10
195.4299999999998
 20
75.76166666666667
 30
0.0
 11
195.4299999999998
 21
74.23833333333333
 31
0.0
 12
199.9999999999998
 22
75.0
 32
0.0
 13
199.9999999999998
 23
75.0
 33
0.0
  0
MTEXT
  5
47B
330
39B
100
AcDbEntity
  8
2
 62
     0
100
AcDbMText
 10
100.0000055794314
 20
79.58499999999999
 30
0.0
 40
4.57
 41
0.0
 71
     5
 72
     1
  1
\A1;200
  7
SIMPLEX
1001
ACAD
1000
MTEXTBEGIN
1070
    73
1070
     1
1070
    44
1040
1.0
1070
    74
1070
     0
1000
MTEXTEND
  0
POINT
  5
47C
330
39B
100
AcDbEntity
  8
DEFPOINTS
 62
     0
100
AcDbPoint
 10
0.0000111588630337
 20
34.9250089709832
 30
0.0
  0
POINT
  5
47D
330
39B
100
AcDbEntity
  8
DEFPOINTS
 62
     0
100
AcDbPoint
 10
199.9999999999998
 20
21.08999945894793
 30
0.0
  0
POINT
  5
47E
330
39B
100
AcDbEntity
  8
DEFPOINTS
 62
     0
100
AcDbPoint
 10
199.9999999999998
 20
75.0
 30
0.0
  0
ENDBLK
  5
3A6
330
39B
100
AcDbEntity
  8
0
100
AcDbBlockEnd
  0
ENDSEC
  0
SECTION
  2
ENTITIES
  0
LINE
  5
3A7
330
18
100
AcDbEntity
  8
SK4
100
AcDbLine
 10
-104.6703027853573
 20
0.0
 30
0.0
 11
202.1635290446456
 21
0.0
 31
0.0
  0
LINE
  5
3A8
330
18
100
AcDbEntity
  8
4
100
AcDbLine
 10
-101.6
 20
0.0
 30
0.0
 11
200.0
 21
0.0
 31
0.0
  0
LINE
  5
3A9
330
18
100
AcDbEntity
  8
SK3
100
AcDbLine
 10
194.9999999999943
 20
16.002
 30
0.0
 11
145.9999999999943
 21
16.002
 31
0.0
  0
POLYLINE
  5
3AA
330
18
100
AcDbEntity
  8
SK3
100
AcDb2dPolyline
 66
     1
 10
0.0
 20
0.0
 30
0.0
  0
VERTEX
  5
4D1
330
3AA
100
AcDbEntity
  8
SK3
100
AcDbVertex
100
AcDb2dVertex
 10
139.9699999999943
 20
15.789
 30
0.0
  0
VERTEX
  5
4D2
330
3AA
100
AcDbEntity
  8
SK3
100
AcDbVertex
100
AcDb2dVertex
 10
139.4459999999943
 20
12.278
 30
0.0
  0
VERTEX
  5
4D3
330
3AA
100
AcDbEntity
  8
SK3
100
AcDbVertex
100
AcDb2dVertex
 10
139.9979999999943
 20
8.501999999999998
 30
0.0
  0
SEQEND
  5
4D4
330
3AA
100
AcDbEntity
  8
SK3
  0
LINE
  5
3AB
330
18
100
AcDbEntity
  8
SK3
100
AcDbLine
 10
139.9989999999943
 20
15.907
 30
0.0
 11
139.9989999999943
 21
-15.90470466531078
 31
0.0
  0
LINE
  5
3AC
330
18
100
AcDbEntity
  8
SK3
100
AcDbLine
 10
145.9989999999943
 20
-16.00226744186046
 30
0.0
 11
145.9989999999943
 21
16.00226744186046
 31
0.0
  0
LINE
  5
3AD
330
18
100
AcDbEntity
  8
SK3
100
AcDbLine
 10
144.8809999999942
 20
-16.301
 30
0.0
 11
144.8809999999942
 21
16.301
 31
0.0
  0
LINE
  5
3AE
330
18
100
AcDbEntity
  8
SK3
100
AcDbLine
 10
139.9989999999943
 20
6.001000000000001
 30
0.0
 11
118.9999999999943
 21
6.001000000000001
 31
0.0
  0
LINE
  5
3AF
330
18
100
AcDbEntity
  8
SK3
100
AcDbLine
 10
118.9999999999943
 20
-6.0
 30
0.0
 11
139.9989999999943
 21
-6.0
 31
0.0
  0
LINE
  5
3B0
330
18
100
AcDbEntity
  8
SK3
100
AcDbLine
 10
144.8809999999942
 20
16.301
 30
0.0
 11
140.5649999999943
 21
16.301
 31
0.0
  0
ARC
  5
3B1
330
18
100
AcDbEntity
  8
SK3
100
AcDbCircle
 10
140.5629999999943
 20
15.7
 30
0.0
 40
0.6
100
AcDbArc
 50
90.0
 51
171.463882
  0
LINE
  5
3B2
330
18
100
AcDbEntity
  8
SK3
100
AcDbLine
 10
145.9999999999943
 20
16.002
 30
0.0
 11
144.8819999999943
 21
16.301
 31
0.0
  0
LINE
  5
3B3
330
18
100
AcDbEntity
  8
SK3
100
AcDbLine
 10
194.9989999999943
 20
16.002
 30
0.0
 11
194.9989999999943
 21
-16.002
 31
0.0
  0
LINE
  5
3B4
330
18
100
AcDbEntity
  8
SK3
100
AcDbLine
 10
199.3149999999943
 20
16.378
 30
0.0
 11
194.9999999999943
 21
16.002
 31
0.0
  0
ARC
  5
3B5
330
18
100
AcDbEntity
  8
SK3
100
AcDbCircle
 10
199.2489999999943
 20
17.124
 30
0.0
 40
0.75
100
AcDbArc
 50
274.9724729999998
 51
0.0003030000000036
  0
LINE
  5
3B6
330
18
100
AcDbEntity
  8
SK3
100
AcDbLine
 10
139.9989999999942
 20
5.001
 30
0.0
 11
-36.92510591714285
 21
5.001000000000001
 31
0.0
  0
LINE
  5
3B7
330
18
100
AcDbEntity
  8
SK3
100
AcDbLine
 10
-36.9245619047619
 20
-5.0
 30
0.0
 11
139.9989999999943
 21
-5.0
 31
0.0
  0
ARC
  5
3BA
330
18
100
AcDbEntity
  8
1
  6
CONTINUOUS
 62
     4
100
AcDbCircle
 10
199.0
 20
21.09
 30
0.0
 40
1.0
100
AcDbArc
 50
359.999969
 51
85.52648200000012
  0
LINE
  5
3BB
330
18
100
AcDbEntity
  8
1
  6
CONTINUOUS
 62
     4
100
AcDbLine
 10
142.8299999999999
 20
26.5
 30
0.0
 11
142.8299999999999
 21
-26.5
 31
0.0
  0
POLYLINE
  5
3BC
330
18
100
AcDbEntity
  8
1
  6
CONTINUOUS
 62
     4
100
AcDb2dPolyline
 66
     1
 10
0.0
 20
0.0
 30
0.0
  0
VERTEX
  5
4D5
330
3BC
100
AcDbEntity
  8
1
  6
CONTINUOUS
 62
     4
100
AcDbVertex
100
AcDb2dVertex
 10
200.0
 20
21.1
 30
0.0
  0
VERTEX
  5
4D6
330
3BC
100
AcDbEntity
  8
1
  6
CONTINUOUS
 62
     4
100
AcDbVertex
100
AcDb2dVertex
 10
200.0
 20
-21.08
 30
0.0
  0
SEQEND
  5
4D7
330
3BC
100
AcDbEntity
  8
1
  6
CONTINUOUS
 62
     4
  0
ARC
  5
3BD
330
18
100
AcDbEntity
  8
1
  6
CONTINUOUS
 62
     4
100
AcDbCircle
 10
199.0
 20
-21.09
 30
0.0
 40
1.0
100
AcDbArc
 50
274.4735179999998
 51
0.0000309999999585
  0
LINE
  5
3BE
330
18
100
AcDbEntity
  8
1
  6
CONTINUOUS
 62
     4
100
AcDbLine
 10
72.48388922658222
 20
26.5
 30
0.0
 11
142.8299999999999
 21
26.5
 31
0.0
  0
LINE
  5
3BF
330
18
100
AcDbEntity
  8
1
  6
CONTINUOUS
 62
     4
100
AcDbLine
 10
142.8299999999999
 20
26.5
 30
0.0
 11
199.0799999999999
 21
22.09
 31
0.0
  0
LINE
  5
3C0
330
18
100
AcDbEntity
  8
1
  6
CONTINUOUS
 62
     4
100
AcDbLine
 10
72.48388922658222
 20
-26.5
 30
0.0
 11
142.8299999999999
 21
-26.5
 31
0.0
  0
LINE
  5
3C1
330
18
100
AcDbEntity
  8
1
  6
CONTINUOUS
 62
     4
100
AcDbLine
 10
142.8299999999999
 20
-26.5
 30
0.0
 11
199.0799999999999
 21
-22.09
 31
0.0
  0
LINE
  5
3C2
330
18
100
AcDbEntity
  8
SK2
100
AcDbLine
 10
142.8299999999999
 20
26.5
 30
0.0
 11
250.0
 21
26.49999999999998
 31
0.0
  0
LINE
  5
3C3
330
18
100
AcDbEntity
  8
SK2
100
AcDbLine
 10
142.8299999999999
 20
-26.5
 30
0.0
 11
250.0
 21
-26.50000000000003
 31
0.0
  0
LINE
  5
3C4
330
18
100
AcDbEntity
  8
SK2
100
AcDbLine
 10
245.0
 20
21.92999999999997
 30
0.0
 11
245.0
 21
-21.93000000000003
 31
0.0
  0
SOLID
  5
3C5
330
18
100
AcDbEntity
  8
SK2
100
AcDbTrace
 10
244.2383333333333
 20
21.92999999999997
 30
0.0
 11
245.7616666666666
 21
21.92999999999997
 31
0.0
 12
245.0
 22
26.49999999999998
 32
0.0
 13
245.0
 23
26.49999999999998
 33
0.0
  0
SOLID
  5
3C6
330
18
100
AcDbEntity
  8
SK2
100
AcDbTrace
 10
244.2383333333333
 20
-21.93000000000003
 30
0.0
 11
245.7616666666666
 21
-21.93000000000003
 31
0.0
 12
245.0
 22
-26.50000000000003
 32
0.0
 13
245.0
 23
-26.50000000000003
 33
0.0
  0
LINE
  5
3C8
330
18
100
AcDbEntity
  8
SK2
100
AcDbLine
 10
201.0949897028194
 20
22.002
 30
0.0
 11
235.0
 21
22.00199999999998
 31
0.0
  0
LINE
  5
3C9
330
18
100
AcDbEntity
  8
SK2
100
AcDbLine
 10
201.0949897028194
 20
-22.002
 30
0.0
 11
235.0
 21
-22.00200000000001
 31
0.0
  0
LINE
  5
3CA
330
18
100
AcDbEntity
  8
SK2
100
AcDbLine
 10
230.0
 20
17.43199999999999
 30
0.0
 11
230.0
 21
-17.432
 31
0.0
  0
SOLID
  5
3CB
330
18
100
AcDbEntity
  8
SK2
100
AcDbTrace
 10
229.2383333333333
 20
17.43199999999999
 30
0.0
 11
230.7616666666666
 21
17.43199999999999
 31
0.0
 12
230.0
 22
22.00199999999999
 32
0.0
 13
230.0
 23
22.00199999999999
 33
0.0
  0
SOLID
  5
3CC
330
18
100
AcDbEntity
  8
SK2
100
AcDbTrace
 10
229.2383333333333
 20
-17.432
 30
0.0
 11
230.7616666666666
 21
-17.432
 31
0.0
 12
230.0
 22
-22.002
 32
0.0
 13
230.0
 23
-22.002
 33
0.0
  0
LINE
  5
3CF
330
18
100
AcDbEntity
  8
SK2
100
AcDbLine
 10
0.0
 20
34.92499999999999
 30
0.0
 11
0.0000000000000018
 21
65.0
 31
0.0
  0
LINE
  5
3D1
330
18
100
AcDbEntity
  8
1
  6
CONTINUOUS
 62
     4
100
AcDbLine
 10
14.33172999999999
 20
48.72499999999999
 30
0.0
 11
14.33172999999999
 21
38.61419999999999
 31
0.0
  0
LINE
  5
3D2
330
18
100
AcDbEntity
  8
1
  6
CONTINUOUS
 62
     4
100
AcDbLine
 10
7.868269999999995
 20
48.72499999999999
 30
0.0
 11
7.868269999999995
 21
38.61419999999999
 31
0.0
  0
LINE
  5
3D3
330
18
100
AcDbEntity
  8
1
  6
CONTINUOUS
 62
     4
100
AcDbLine
 10
9.224999999999994
 20
46.375
 30
0.0
 11
9.224999999999994
 21
33.97812999999999
 31
0.0
  0
LINE
  5
3D4
330
18
100
AcDbEntity
  8
1
  6
CONTINUOUS
 62
     4
100
AcDbLine
 10
12.97499999999999
 20
46.375
 30
0.0
 11
12.97499999999999
 21
33.97812999999999
 31
0.0
  0
LINE
  5
3D5
330
18
100
AcDbEntity
  8
1
  6
CONTINUOUS
 62
     4
100
AcDbLine
 10
19.04999999999999
 20
-0.38673
 30
0.0
 11
19.04999999999999
 21
47.92499999999999
 31
0.0
  0
LINE
  5
3D6
330
18
100
AcDbEntity
  8
1
  6
CONTINUOUS
 62
     4
100
AcDbLine
 10
3.200000000000002
 20
47.92499999999999
 30
0.0
 11
3.200000000000002
 21
0.0
 31
0.0
  0
LINE
  5
3D8
330
18
100
AcDbEntity
  8
SK2
100
AcDbLine
 10
0.0
 20
34.92499999999999
 30
0.0
 11
0.000005258863064
 21
65.0
 31
0.0
  0
TEXT
  5
3D9
330
18
100
AcDbEntity
  8
6
100
AcDbText
 10
-77.95
 20
16.0
 30
0.0
 40
3.5
  1
SK50 DIN69871A
  7
SIMPLEX
100
AcDbText
  0
LINE
  5
3DA
330
18
100
AcDbEntity
  8
1
  6
CONTINUOUS
 62
     4
100
AcDbLine
 10
-99.67466999999999
 20
20.38899999999999
 30
0.0
 11
0.0
 21
34.92499999999999
 31
0.0
  0
LINE
  5
3DB
330
18
100
AcDbEntity
  8
1
  6
CONTINUOUS
 62
     4
100
AcDbLine
 10
-99.67466999999999
 20
-20.38899999999999
 30
0.0
 11
0.0
 21
-34.92499999999999
 31
0.0
  0
LINE
  5
3DC
330
18
100
AcDbEntity
  8
SK3
100
AcDbLine
 10
-88.6922
 20
10.5
 30
0.0
 11
-40.1
 21
10.5
 31
0.0
  0
LINE
  5
3DD
330
18
100
AcDbEntity
  8
SK3
100
AcDbLine
 10
-88.6922
 20
-10.5
 30
0.0
 11
-40.1
 21
-10.5
 31
0.0
  0
LINE
  5
3DE
330
18
100
AcDbEntity
  8
SK3
100
AcDbLine
 10
-89.85000000000001
 20
12.50526999999999
 30
0.0
 11
-100.35
 21
12.50526999999999
 31
0.0
  0
LINE
  5
3DF
330
18
100
AcDbEntity
  8
SK3
100
AcDbLine
 10
-89.85000000000001
 20
-12.50526999999999
 30
0.0
 11
-100.35
 21
-12.50526999999999
 31
0.0
  0
LINE
  5
3E1
330
18
100
AcDbEntity
  8
1
  6
CONTINUOUS
 62
     4
100
AcDbLine
 10
-101.6
 20
18.16259999999999
 30
0.0
 11
-101.6
 21
-18.16259999999999
 31
0.0
  0
ARC
  5
3E2
330
18
100
AcDbEntity
  8
1
  6
CONTINUOUS
 62
     4
100
AcDbCircle
 10
-99.35005410604937
 20
-18.16257705409053
 30
0.0
 40
2.249945253796061
100
AcDbArc
 50
179.9999748940505
 51
261.7046462976919
  0
ARC
  5
3E3
330
18
100
AcDbEntity
  8
SK3
100
AcDbCircle
 10
-100.35
 20
-13.75526999999999
 30
0.0
 40
1.25
100
AcDbArc
 50
90.0000000235031
 51
180.0000000235032
  0
ARC
  5
3E4
330
18
100
AcDbEntity
  8
1
  6
CONTINUOUS
 62
     4
100
AcDbCircle
 10
-99.34999193400109
 20
18.1625857567404
 30
0.0
 40
2.250003241709553
100
AcDbArc
 50
98.29651376075354
 51
179.9983766126642
  0
ARC
  5
3E5
330
18
100
AcDbEntity
  8
SK3
100
AcDbCircle
 10
-100.35
 20
13.75526999999999
 30
0.0
 40
1.25
100
AcDbArc
 50
179.9999999999999
 51
270.0
  0
LINE
  5
3E6
330
18
100
AcDbEntity
  8
SK3
100
AcDbLine
 10
-54.6
 20
12.0
 30
0.0
 11
-54.6
 21
-12.0
 31
0.0
  0
LINE
  5
3E7
330
18
100
AcDbEntity
  8
SK3
100
AcDbLine
 10
-89.85000000000001
 20
12.50533
 30
0.0
 11
-89.85000000000001
 21
-12.50526999999999
 31
0.0
  0
LINE
  5
3E8
330
18
100
AcDbEntity
  8
SK3
100
AcDbLine
 10
-89.85000000000001
 20
12.50533
 30
0.0
 11
-88.6922
 21
10.5
 31
0.0
  0
LINE
  5
3E9
330
18
100
AcDbEntity
  8
SK3
100
AcDbLine
 10
-89.56127
 20
-12.0
 30
0.0
 11
-54.6
 21
-12.0
 31
0.0
  0
LINE
  5
3EA
330
18
100
AcDbEntity
  8
SK3
100
AcDbLine
 10
-88.6922
 20
10.5
 30
0.0
 11
-88.6922
 21
-10.5
 31
0.0
  0
LINE
  5
3EB
330
18
100
AcDbEntity
  8
SK3
100
AcDbLine
 10
-89.85000000000001
 20
-12.50533
 30
0.0
 11
-88.6922
 21
-10.5
 31
0.0
  0
LINE
  5
3EC
330
18
100
AcDbEntity
  8
SK3
100
AcDbLine
 10
-89.56127
 20
12.0
 30
0.0
 11
-54.6
 21
12.0
 31
0.0
  0
LINE
  5
3EE
330
18
100
AcDbEntity
  8
1
  6
CONTINUOUS
 62
     4
100
AcDbLine
 10
14.33172999999999
 20
-48.725
 30
0.0
 11
14.33172999999999
 21
0.0
 31
0.0
  0
LINE
  5
3EF
330
18
100
AcDbEntity
  8
1
  6
CONTINUOUS
 62
     4
100
AcDbLine
 10
7.868269999999995
 20
-48.725
 30
0.0
 11
7.868269999999995
 21
0.0
 31
0.0
  0
LINE
  5
3F0
330
18
100
AcDbEntity
  8
1
  6
CONTINUOUS
 62
     4
100
AcDbLine
 10
0.0
 20
-34.92499999999999
 30
0.0
 11
0.0
 21
0.0
 31
0.0
  0
LINE
  5
3F1
330
18
100
AcDbEntity
  8
1
  6
CONTINUOUS
 62
     4
100
AcDbLine
 10
19.04999999999999
 20
-0.2518000000000029
 30
0.0
 11
19.04999999999999
 21
-47.92499999999999
 31
0.0
  0
LINE
  5
3F2
330
18
100
AcDbEntity
  8
1
  6
CONTINUOUS
 62
     4
100
AcDbLine
 10
3.200000000000002
 20
-47.92499999999999
 30
0.0
 11
3.200000000000002
 21
0.0
 31
0.0
  0
LINE
  5
3F3
330
18
100
AcDbEntity
  8
1
  6
CONTINUOUS
 62
     4
100
AcDbLine
 10
12.97499999999999
 20
-46.375
 30
0.0
 11
12.97499999999999
 21
0.0
 31
0.0
  0
LINE
  5
3F4
330
18
100
AcDbEntity
  8
1
  6
CONTINUOUS
 62
     4
100
AcDbLine
 10
9.224999999999994
 20
-46.375
 30
0.0
 11
9.224999999999994
 21
0.0
 31
0.0
  0
LINE
  5
3F5
330
18
100
AcDbEntity
  8
1
  6
CONTINUOUS
 62
     4
100
AcDbLine
 10
12.97499999999999
 20
-46.375
 30
0.0
 11
14.33172999999999
 21
-48.725
 31
0.0
  0
ARC
  5
3F6
330
18
100
AcDbEntity
  8
1
  6
CONTINUOUS
 62
     4
100
AcDbCircle
 10
12.22499999999999
 20
-46.25
 30
0.0
 40
0.75
100
AcDbArc
 50
0.0
 51
90.0
  0
LINE
  5
3F7
330
18
100
AcDbEntity
  8
SK3
  6
HIDDEN
 62
     1
100
AcDbLine
 10
3.200000000000002
 20
-35.29999999999999
 30
0.0
 11
19.04999999999999
 21
-35.29999999999999
 31
0.0
  0
LINE
  5
3F8
330
18
100
AcDbEntity
  8
1
  6
CONTINUOUS
 62
     4
100
AcDbLine
 10
9.224999999999994
 20
-46.375
 30
0.0
 11
7.868269999999995
 21
-48.725
 31
0.0
  0
LINE
  5
3F9
330
18
100
AcDbEntity
  8
1
  6
CONTINUOUS
 62
     4
100
AcDbLine
 10
4.0
 20
-48.725
 30
0.0
 11
7.868269999999995
 21
-48.725
 31
0.0
  0
ARC
  5
3FA
330
18
100
AcDbEntity
  8
1
  6
CONTINUOUS
 62
     4
100
AcDbCircle
 10
4.0
 20
-47.92499999999999
 30
0.0
 40
0.8000000000000024
100
AcDbArc
 50
180.0
 51
269.9999999999997
  0
LINE
  5
3FB
330
18
100
AcDbEntity
  8
1
  6
CONTINUOUS
 62
     4
100
AcDbLine
 10
9.974999999999994
 20
-45.49999999999999
 30
0.0
 11
12.22499999999999
 21
-45.49999999999999
 31
0.0
  0
ARC
  5
3FC
330
18
100
AcDbEntity
  8
1
  6
CONTINUOUS
 62
     4
100
AcDbCircle
 10
9.974999999999994
 20
-46.25
 30
0.0
 40
0.75
100
AcDbArc
 50
90.0000000235031
 51
180.0000000235031
  0
ARC
  5
3FD
330
18
100
AcDbEntity
  8
1
  6
CONTINUOUS
 62
     4
100
AcDbCircle
 10
2.399999999999991
 20
-35.45
 30
0.0
 40
0.8000000000000024
100
AcDbArc
 50
0.0
 51
89.99999999999975
  0
LINE
  5
3FE
330
18
100
AcDbEntity
  8
1
  6
CONTINUOUS
 62
     4
100
AcDbLine
 10
0.603669999999994
 20
-34.64999999999999
 30
0.0
 11
2.399999999999991
 21
-34.64999999999999
 31
0.0
  0
ARC
  5
3FF
330
18
100
AcDbEntity
  8
1
  6
CONTINUOUS
 62
     4
100
AcDbCircle
 10
0.6036393090150938
 20
-35.44999462144558
 30
0.0
 40
0.7999855478990954
100
AcDbArc
 50
89.99751641920186
 51
138.9859621731986
  0
ARC
  5
400
330
18
100
AcDbEntity
  8
1
  6
CONTINUOUS
 62
     4
100
AcDbCircle
 10
18.25
 20
-47.92499999999999
 30
0.0
 40
0.8000000000000042
100
AcDbArc
 50
270.0000000000001
 51
0.0
  0
LINE
  5
401
330
18
100
AcDbEntity
  8
1
  6
CONTINUOUS
 62
     4
100
AcDbLine
 10
14.33172999999999
 20
-48.725
 30
0.0
 11
18.25
 21
-48.725
 31
0.0
  0
LINE
  5
402
330
18
100
AcDbEntity
  8
1
  6
CONTINUOUS
 62
     4
100
AcDbLine
 10
12.97499999999999
 20
33.97812999999999
 30
0.0
 11
14.33172999999999
 21
38.61419999999999
 31
0.0
  0
LINE
  5
403
330
18
100
AcDbEntity
  8
1
  6
CONTINUOUS
 62
     4
100
AcDbLine
 10
3.200000000000002
 20
30.0
 30
0.0
 11
19.04999999999999
 21
30.0
 31
0.0
  0
LINE
  5
404
330
18
100
AcDbEntity
  8
SK3
  6
HIDDEN
 62
     1
100
AcDbLine
 10
3.200000000000002
 20
37.5
 30
0.0
 11
19.04999999999999
 21
37.5
 31
0.0
  0
LINE
  5
405
330
18
100
AcDbEntity
  8
1
  6
CONTINUOUS
 62
     4
100
AcDbLine
 10
12.97499999999999
 20
30.0
 30
0.0
 11
12.97499999999999
 21
0.0
 31
0.0
  0
LINE
  5
406
330
18
100
AcDbEntity
  8
1
  6
CONTINUOUS
 62
     4
100
AcDbLine
 10
7.868269999999995
 20
30.0
 30
0.0
 11
7.868269999999995
 21
0.0
 31
0.0
  0
LINE
  5
407
330
18
100
AcDbEntity
  8
1
  6
CONTINUOUS
 62
     4
100
AcDbLine
 10
0.0
 20
34.92499999999999
 30
0.0
 11
0.0
 21
0.0
 31
0.0
  0
LINE
  5
408
330
18
100
AcDbEntity
  8
1
  6
CONTINUOUS
 62
     4
100
AcDbLine
 10
9.224999999999994
 20
30.0
 30
0.0
 11
9.224999999999994
 21
0.0
 31
0.0
  0
LINE
  5
409
330
18
100
AcDbEntity
  8
SK3
100
AcDbLine
 10
-40.1
 20
10.5
 30
0.0
 11
-40.1
 21
-10.5
 31
0.0
  0
LINE
  5
40A
330
18
100
AcDbEntity
  8
SK3
100
AcDbLine
 10
-40.1
 20
-10.5
 30
0.0
 11
-36.9245619047619
 21
-5.0
 31
0.0
  0
LINE
  5
40B
330
18
100
AcDbEntity
  8
SK3
100
AcDbLine
 10
-36.92510591714285
 20
5.001000000000001
 30
0.0
 11
-40.09993
 21
10.5
 31
0.0
  0
LINE
  5
40C
330
18
100
AcDbEntity
  8
1
  6
CONTINUOUS
 62
     4
100
AcDbLine
 10
7.868269999999995
 20
38.61419999999999
 30
0.0
 11
9.224999999999994
 21
33.97812999999999
 31
0.0
  0
LINE
  5
40D
330
18
100
AcDbEntity
  8
1
  6
CONTINUOUS
 62
     4
100
AcDbLine
 10
0.603669999999994
 20
34.65
 30
0.0
 11
2.399999999999991
 21
34.65
 31
0.0
  0
ARC
  5
40E
330
18
100
AcDbEntity
  8
1
  6
CONTINUOUS
 62
     4
100
AcDbCircle
 10
0.6036393090150938
 20
35.44999462144557
 30
0.0
 40
0.7999855478990883
100
AcDbArc
 50
221.014037850304
 51
270.0024836043012
  0
ARC
  5
40F
330
18
100
AcDbEntity
  8
1
  6
CONTINUOUS
 62
     4
100
AcDbCircle
 10
2.399999999999991
 20
35.45
 30
0.0
 40
0.8000000000000024
100
AcDbArc
 50
270.0000000235033
 51
0.0000000235031287
  0
LINE
  5
410
330
18
100
AcDbEntity
  8
1
  6
CONTINUOUS
 62
     4
100
AcDbLine
 10
9.224999999999994
 20
33.97812999999999
 30
0.0
 11
12.97499999999999
 21
33.97812999999999
 31
0.0
  0
LINE
  5
411
330
18
100
AcDbEntity
  8
1
  6
CONTINUOUS
 62
     4
100
AcDbLine
 10
3.200000000000002
 20
38.61419999999999
 30
0.0
 11
7.868269999999995
 21
38.61419999999999
 31
0.0
  0
LINE
  5
412
330
18
100
AcDbEntity
  8
1
  6
CONTINUOUS
 62
     4
100
AcDbLine
 10
14.33172999999999
 20
30.0
 30
0.0
 11
14.33172999999999
 21
0.0
 31
0.0
  0
LINE
  5
413
330
18
100
AcDbEntity
  8
1
  6
CONTINUOUS
 62
     4
100
AcDbLine
 10
14.33172999999999
 20
38.61419999999999
 30
0.0
 11
19.04999999999999
 21
38.61419999999999
 31
0.0
  0
LINE
  5
414
330
18
100
AcDbEntity
  8
SK2
100
AcDbLine
 10
4.570000000000002
 20
60.0
 30
0.0
 11
14.47999999999999
 21
60.0
 31
0.0
  0
LINE
  5
415
330
18
100
AcDbEntity
  8
1
  6
CONTINUOUS
 62
     4
100
AcDbLine
 10
12.97499999999999
 20
46.375
 30
0.0
 11
14.33172999999999
 21
48.72499999999999
 31
0.0
  0
ARC
  5
416
330
18
100
AcDbEntity
  8
1
  6
CONTINUOUS
 62
     4
100
AcDbCircle
 10
12.22499999999999
 20
46.25
 30
0.0
 40
0.75
100
AcDbArc
 50
270.0000000235031
 51
0.0000000235031287
  0
LINE
  5
417
330
18
100
AcDbEntity
  8
1
  6
CONTINUOUS
 62
     4
100
AcDbLine
 10
4.0
 20
48.72499999999999
 30
0.0
 11
7.868269999999995
 21
48.72499999999999
 31
0.0
  0
ARC
  5
418
330
18
100
AcDbEntity
  8
1
  6
CONTINUOUS
 62
     4
100
AcDbCircle
 10
4.0
 20
47.92499999999999
 30
0.0
 40
0.8000000000000024
100
AcDbArc
 50
90.00000002350338
 51
180.0000000235031
  0
ARC
  5
419
330
18
100
AcDbEntity
  8
1
  6
CONTINUOUS
 62
     4
100
AcDbCircle
 10
9.974999999999994
 20
46.25
 30
0.0
 40
0.75
100
AcDbArc
 50
180.0
 51
270.0
  0
LINE
  5
41A
330
18
100
AcDbEntity
  8
1
  6
CONTINUOUS
 62
     4
100
AcDbLine
 10
9.224999999999994
 20
46.375
 30
0.0
 11
7.868269999999995
 21
48.72499999999999
 31
0.0
  0
LINE
  5
41B
330
18
100
AcDbEntity
  8
1
  6
CONTINUOUS
 62
     4
100
AcDbLine
 10
9.974999999999994
 20
45.49999999999999
 30
0.0
 11
12.22499999999999
 21
45.49999999999999
 31
0.0
  0
SOLID
  5
41C
330
18
100
AcDbEntity
  8
SK2
100
AcDbTrace
 10
4.570000000000002
 20
60.76166666666667
 30
0.0
 11
4.570000000000002
 21
59.23833333333333
 31
0.0
 12
0.0000000000000015
 22
60.0
 32
0.0
 13
0.0000000000000015
 23
60.0
 33
0.0
  0
LINE
  5
41D
330
18
100
AcDbEntity
  8
SK2
100
AcDbLine
 10
19.04999999999999
 20
47.92499999999999
 30
0.0
 11
19.04999999999999
 21
65.0
 31
0.0
  0
ARC
  5
41E
330
18
100
AcDbEntity
  8
1
  6
CONTINUOUS
 62
     4
100
AcDbCircle
 10
18.25
 20
47.92499999999999
 30
0.0
 40
0.8000000000000042
100
AcDbArc
 50
0.0000000235031287
 51
90.00000002350295
  0
LINE
  5
41F
330
18
100
AcDbEntity
  8
1
  6
CONTINUOUS
 62
     4
100
AcDbLine
 10
14.33172999999999
 20
48.72499999999999
 30
0.0
 11
18.25
 21
48.72499999999999
 31
0.0
  0
SOLID
  5
420
330
18
100
AcDbEntity
  8
SK2
100
AcDbTrace
 10
14.47999999999999
 20
60.76166666666667
 30
0.0
 11
14.47999999999999
 21
59.23833333333333
 31
0.0
 12
19.04999999999999
 22
60.0
 32
0.0
 13
19.04999999999999
 23
60.0
 33
0.0
  0
LINE
  5
421
330
18
100
AcDbEntity
  8
SK2
100
AcDbLine
 10
19.04999999999999
 20
60.0
 30
0.0
 11
45.6295238095238
 21
60.0
 31
0.0
  0
LINE
  5
423
330
18
100
AcDbEntity
  8
SK3
100
AcDbLine
 10
118.9999999999943
 20
6.001000000000001
 30
0.0
 11
118.9999999999943
 21
-6.0
 31
0.0
  0
LINE
  5
424
330
18
100
AcDbEntity
  8
SK3
100
AcDbLine
 10
-36.92510591714285
 20
5.001000000000001
 30
0.0
 11
-36.9245619047619
 21
-5.0
 31
0.0
  0
LINE
  5
427
330
18
100
AcDbEntity
  8
SK3
100
AcDbLine
 10
194.9999999999943
 20
-16.002
 30
0.0
 11
145.9999999999943
 21
-16.002
 31
0.0
  0
POLYLINE
  5
428
330
18
100
AcDbEntity
  8
SK3
100
AcDb2dPolyline
 66
     1
 10
0.0
 20
0.0
 30
0.0
  0
VERTEX
  5
4D8
330
428
100
AcDbEntity
  8
SK3
100
AcDbVertex
100
AcDb2dVertex
 10
139.9699999999943
 20
-15.789
 30
0.0
  0
VERTEX
  5
4D9
330
428
100
AcDbEntity
  8
SK3
100
AcDbVertex
100
AcDb2dVertex
 10
139.4459999999943
 20
-12.278
 30
0.0
  0
VERTEX
  5
4DA
330
428
100
AcDbEntity
  8
SK3
100
AcDbVertex
100
AcDb2dVertex
 10
139.9979999999943
 20
-8.501999999999998
 30
0.0
  0
SEQEND
  5
4DB
330
428
100
AcDbEntity
  8
SK3
  0
ARC
  5
429
330
18
100
AcDbEntity
  8
SK3
100
AcDbCircle
 10
140.5629999999943
 20
-15.7
 30
0.0
 40
0.6
100
AcDbArc
 50
188.5361179999999
 51
270.0
  0
LINE
  5
42A
330
18
100
AcDbEntity
  8
SK3
100
AcDbLine
 10
144.8809999999942
 20
-16.301
 30
0.0
 11
140.5649999999943
 21
-16.301
 31
0.0
  0
LINE
  5
42B
330
18
100
AcDbEntity
  8
SK3
100
AcDbLine
 10
145.9999999999943
 20
-16.002
 30
0.0
 11
144.8819999999943
 21
-16.301
 31
0.0
  0
LINE
  5
42C
330
18
100
AcDbEntity
  8
SK3
100
AcDbLine
 10
199.3149999999943
 20
-16.378
 30
0.0
 11
194.9999999999943
 21
-16.002
 31
0.0
  0
ARC
  5
42D
330
18
100
AcDbEntity
  8
SK3
100
AcDbCircle
 10
199.2489999999943
 20
-17.124
 30
0.0
 40
0.75
100
AcDbArc
 50
359.9996969999999
 51
85.02752700000019
  0
LINE
  5
42E
330
18
100
AcDbEntity
  8
SK2
100
AcDbLine
 10
194.9999999999943
 20
16.002
 30
0.0
 11
220.0
 21
16.00199999999999
 31
0.0
  0
LINE
  5
42F
330
18
100
AcDbEntity
  8
SK2
100
AcDbLine
 10
194.9999999999943
 20
-16.002
 30
0.0
 11
220.0
 21
-16.002
 31
0.0
  0
LINE
  5
430
330
18
100
AcDbEntity
  8
SK2
100
AcDbLine
 10
215.0
 20
11.43199999999999
 30
0.0
 11
215.0
 21
-11.432
 31
0.0
  0
SOLID
  5
431
330
18
100
AcDbEntity
  8
SK2
100
AcDbTrace
 10
214.2383333333333
 20
11.43199999999999
 30
0.0
 11
215.7616666666666
 21
11.43199999999999
 31
0.0
 12
215.0
 22
16.00199999999999
 32
0.0
 13
215.0
 23
16.00199999999999
 33
0.0
  0
SOLID
  5
432
330
18
100
AcDbEntity
  8
SK2
100
AcDbTrace
 10
214.2383333333333
 20
-11.432
 30
0.0
 11
215.7616666666666
 21
-11.432
 31
0.0
 12
215.0
 22
-16.002
 32
0.0
 13
215.0
 23
-16.002
 33
0.0
  0
ARC
  5
486
330
18
100
AcDbEntity
  8
1
  6
CONTINUOUS
 62
     4
100
AcDbCircle
 10
27.05
 20
38.29591213389122
 30
0.0
 40
8.0
100
AcDbArc
 50
180.0
 51
260.7343139999999
  0
ARC
  5
487
330
18
100
AcDbEntity
  8
1
  6
CONTINUOUS
 62
     4
100
AcDbCircle
 10
74.05
 20
326.4959121338912
 30
0.0
 40
300.0
100
AcDbArc
 50
260.7374570000001
 51
270.0
  0
ARC
  5
488
330
18
100
AcDbEntity
  8
1
  6
CONTINUOUS
 62
     4
100
AcDbCircle
 10
27.05
 20
-38.29591213389122
 30
0.0
 40
8.0
100
AcDbArc
 50
99.26568600000003
 51
180.0
  0
ARC
  5
489
330
18
100
AcDbEntity
  8
1
  6
CONTINUOUS
 62
     4
100
AcDbCircle
 10
74.05
 20
-326.4959121338912
 30
0.0
 40
300.0
100
AcDbArc
 50
90.00000000000003
 51
99.26254299999984
  0
LINE
  5
48B
330
18
100
AcDbEntity
  8
2
100
AcDbLine
 10
0.0000111588630337
 20
34.9250089709832
 30
0.0
 11
0.0000111588630365
 21
80.0
 31
0.0
  0
LINE
  5
48C
330
18
100
AcDbEntity
  8
2
100
AcDbLine
 10
199.9999999999998
 20
21.08999945894793
 30
0.0
 11
199.9999999999998
 21
80.0
 31
0.0
  0
LINE
  5
48D
330
18
100
AcDbEntity
  8
2
100
AcDbLine
 10
4.570011158863036
 20
75.0
 30
0.0
 11
195.4299999999998
 21
75.0
 31
0.0
  0
SOLID
  5
48E
330
18
100
AcDbEntity
  8
2
100
AcDbTrace
 10
4.570011158863036
 20
75.76166666666667
 30
0.0
 11
4.570011158863036
 21
74.23833333333333
 31
0.0
 12
0.0000111588630362
 22
75.0
 32
0.0
 13
0.0000111588630362
 23
75.0
 33
0.0
  0
SOLID
  5
48F
330
18
100
AcDbEntity
  8
2
100
AcDbTrace
 10
195.4299999999998
 20
75.76166666666667
 30
0.0
 11
195.4299999999998
 21
74.23833333333333
 31
0.0
 12
199.9999999999998
 22
75.0
 32
0.0
 13
199.9999999999998
 23
75.0
 33
0.0
  0
LINE
  5
491
330
18
100
AcDbEntity
  8
SK2
100
AcDbLine
 10
0.0
 20
-34.92499999999999
 30
0.0
 11
-14.95000000000001
 21
-34.92499999999999
 31
0.0
  0
LINE
  5
492
330
18
100
AcDbEntity
  8
SK2
100
AcDbLine
 10
0.0
 20
34.92499999999999
 30
0.0
 11
-14.95
 21
34.92499999999999
 31
0.0
  0
LINE
  5
493
330
18
100
AcDbEntity
  8
SK2
100
AcDbLine
 10
-9.950000000000017
 20
-30.35499999999999
 30
0.0
 11
-9.950000000000002
 21
30.355
 31
0.0
  0
SOLID
  5
494
330
18
100
AcDbEntity
  8
SK2
100
AcDbTrace
 10
-10.71166666666668
 20
-30.35499999999999
 30
0.0
 11
-9.18833333333335
 21
-30.35499999999999
 31
0.0
 12
-9.950000000000017
 22
-34.92499999999999
 32
0.0
 13
-9.950000000000017
 23
-34.92499999999999
 33
0.0
  0
SOLID
  5
495
330
18
100
AcDbEntity
  8
SK2
100
AcDbTrace
 10
-10.71166666666667
 20
30.355
 30
0.0
 11
-9.188333333333336
 21
30.355
 31
0.0
 12
-9.950000000000002
 22
34.92499999999999
 32
0.0
 13
-9.950000000000002
 23
34.92499999999999
 33
0.0
  0
LINE
  5
497
330
18
100
AcDbEntity
  8
SK2
100
AcDbLine
 10
-89.56127
 20
-12.0
 30
0.0
 11
-121.95
 21
-11.99999999999999
 31
0.0
  0
LINE
  5
498
330
18
100
AcDbEntity
  8
SK2
100
AcDbLine
 10
-89.56127
 20
12.0
 30
0.0
 11
-121.95
 21
12.00000000000001
 31
0.0
  0
LINE
  5
499
330
18
100
AcDbEntity
  8
SK2
100
AcDbLine
 10
-116.9499999999999
 20
-7.429999999999991
 30
0.0
 11
-116.9499999999999
 21
7.430000000000007
 31
0.0
  0
SOLID
  5
49A
330
18
100
AcDbEntity
  8
SK2
100
AcDbTrace
 10
-117.7116666666666
 20
-7.429999999999991
 30
0.0
 11
-116.1883333333333
 21
-7.429999999999991
 31
0.0
 12
-116.9499999999999
 22
-11.99999999999999
 32
0.0
 13
-116.9499999999999
 23
-11.99999999999999
 33
0.0
  0
SOLID
  5
49B
330
18
100
AcDbEntity
  8
SK2
100
AcDbTrace
 10
-117.7116666666666
 20
7.430000000000007
 30
0.0
 11
-116.1883333333333
 21
7.430000000000007
 31
0.0
 12
-116.9499999999999
 22
12.00000000000001
 32
0.0
 13
-116.9499999999999
 23
12.00000000000001
 33
0.0
  0
LINE
  5
49D
330
18
100
AcDbEntity
  8
SK2
100
AcDbLine
 10
4.0
 20
-48.725
 30
0.0
 11
-136.9499999999999
 21
-48.72499999999996
 31
0.0
  0
LINE
  5
49E
330
18
100
AcDbEntity
  8
SK2
100
AcDbLine
 10
4.0
 20
48.72499999999999
 30
0.0
 11
-136.9499999999999
 21
48.72500000000003
 31
0.0
  0
LINE
  5
49F
330
18
100
AcDbEntity
  8
SK2
100
AcDbLine
 10
-131.9499999999999
 20
-44.15499999999997
 30
0.0
 11
-131.9499999999999
 21
44.15500000000003
 31
0.0
  0
SOLID
  5
4A0
330
18
100
AcDbEntity
  8
SK2
100
AcDbTrace
 10
-132.7116666666666
 20
-44.15499999999997
 30
0.0
 11
-131.1883333333333
 21
-44.15499999999997
 31
0.0
 12
-131.9499999999999
 22
-48.72499999999996
 32
0.0
 13
-131.9499999999999
 23
-48.72499999999996
 33
0.0
  0
SOLID
  5
4A1
330
18
100
AcDbEntity
  8
SK2
100
AcDbTrace
 10
-132.7116666666666
 20
44.15500000000003
 30
0.0
 11
-131.1883333333333
 21
44.15500000000003
 31
0.0
 12
-131.9499999999999
 22
48.72500000000003
 32
0.0
 13
-131.9499999999999
 23
48.72500000000003
 33
0.0
  0
LINE
  5
4A3
330
18
100
AcDbEntity
  8
SK2
100
AcDbLine
 10
0.0
 20
34.92499999999999
 30
0.0
 11
0.0000000000000028
 21
80.0
 31
0.0
  0
LINE
  5
4A4
330
18
100
AcDbEntity
  8
SK2
100
AcDbLine
 10
-101.5999951748075
 20
18.16264950710383
 30
0.0
 11
-101.5999951748075
 21
80.0
 31
0.0
  0
LINE
  5
4A5
330
18
100
AcDbEntity
  8
SK2
100
AcDbLine
 10
-4.569999999999997
 20
75.0
 30
0.0
 11
-97.02999517480751
 21
75.0
 31
0.0
  0
SOLID
  5
4A6
330
18
100
AcDbEntity
  8
SK2
100
AcDbTrace
 10
-4.569999999999997
 20
75.76166666666667
 30
0.0
 11
-4.569999999999997
 21
74.23833333333333
 31
0.0
 12
0.0000000000000025
 22
75.0
 32
0.0
 13
0.0000000000000025
 23
75.0
 33
0.0
  0
SOLID
  5
4A7
330
18
100
AcDbEntity
  8
SK2
100
AcDbTrace
 10
-97.02999517480751
 20
75.76166666666667
 30
0.0
 11
-97.02999517480751
 21
74.23833333333333
 31
0.0
 12
-101.5999951748075
 22
75.0
 32
0.0
 13
-101.5999951748075
 23
75.0
 33
0.0
  0
ARC
  5
4A9
330
18
100
AcDbEntity
  8
SK2
100
AcDbCircle
 10
142.83
 20
26.50000000000001
 30
0.0
 40
29.51278912963537
100
AcDbArc
 50
337.7551167259685
 51
346.6361486228357
  0
ARC
  5
4AA
330
18
100
AcDbEntity
  8
SK2
100
AcDbCircle
 10
142.83
 20
26.50000000000001
 30
0.0
 40
29.51278912963537
100
AcDbArc
 50
8.881031896867174
 51
17.76206379373433
  0
SOLID
  5
4AB
330
18
100
AcDbEntity
  8
SK2
100
AcDbTrace
 10
170.7911907504383
 20
19.79673163852075
 30
0.0
 11
172.2960868352132
 21
19.56044321630414
 31
0.0
 12
172.2525040594756
 22
24.19327568173714
 32
0.0
 13
172.2525040594756
 23
24.19327568173714
 33
0.0
  0
SOLID
  5
4AC
330
18
100
AcDbEntity
  8
SK2
100
AcDbTrace
 10
172.7483415040294
 20
31.11525333895493
 30
0.0
 11
171.22958083332
 21
30.99731068530139
 31
0.0
 12
172.3427891296353
 22
26.50000000000002
 32
0.0
 13
172.3427891296353
 23
26.50000000000002
 33
0.0
  0
LINE
  5
4AE
330
18
100
AcDbEntity
  8
SK2
100
AcDbLine
 10
142.0
 20
-21.08
 30
0.0
 11
142.0
 21
-38.50600476474885
 31
0.0
  0
LINE
  5
4AF
330
18
100
AcDbEntity
  8
SK2
100
AcDbLine
 10
152.0
 20
-21.08
 30
0.0
 11
152.0
 21
-38.50600476474885
 31
0.0
  0
LINE
  5
4B0
330
18
100
AcDbEntity
  8
SK2
100
AcDbLine
 10
137.43
 20
-33.50600476474885
 30
0.0
 11
132.86
 21
-33.50600476474885
 31
0.0
  0
LINE
  5
4B1
330
18
100
AcDbEntity
  8
SK2
100
AcDbLine
 10
156.5699999999999
 20
-33.50600476474885
 30
0.0
 11
172.2685714285714
 21
-33.50600476474885
 31
0.0
  0
SOLID
  5
4B2
330
18
100
AcDbEntity
  8
SK2
100
AcDbTrace
 10
137.43
 20
-32.74433809808218
 30
0.0
 11
137.43
 21
-34.26767143141552
 31
0.0
 12
142.0
 22
-33.50600476474885
 32
0.0
 13
142.0
 23
-33.50600476474885
 33
0.0
  0
SOLID
  5
4B3
330
18
100
AcDbEntity
  8
SK2
100
AcDbTrace
 10
156.5699999999999
 20
-32.74433809808218
 30
0.0
 11
156.5699999999999
 21
-34.26767143141552
 31
0.0
 12
152.0
 22
-33.50600476474885
 32
0.0
 13
152.0
 23
-33.50600476474885
 33
0.0
  0
LINE
  5
4B5
330
18
100
AcDbEntity
  8
SK2
100
AcDbLine
 10
142.0
 20
-21.08
 30
0.0
 11
142.0
 21
-50.0
 31
0.0
  0
LINE
  5
4B6
330
18
100
AcDbEntity
  8
SK2
100
AcDbLine
 10
199.9989999999829
 20
-21.57499523525113
 30
0.0
 11
199.9989999999829
 21
-50.0
 31
0.0
  0
LINE
  5
4B7
330
18
100
AcDbEntity
  8
SK2
100
AcDbLine
 10
146.57
 20
-45.0
 30
0.0
 11
195.4289999999829
 21
-45.0
 31
0.0
  0
SOLID
  5
4B8
330
18
100
AcDbEntity
  8
SK2
100
AcDbTrace
 10
146.57
 20
-44.23833333333333
 30
0.0
 11
146.57
 21
-45.76166666666667
 31
0.0
 12
142.0
 22
-45.0
 32
0.0
 13
142.0
 23
-45.0
 33
0.0
  0
SOLID
  5
4B9
330
18
100
AcDbEntity
  8
SK2
100
AcDbTrace
 10
195.4289999999829
 20
-44.23833333333333
 30
0.0
 11
195.4289999999829
 21
-45.76166666666667
 31
0.0
 12
199.9989999999829
 22
-45.0
 32
0.0
 13
199.9989999999829
 23
-45.0
 33
0.0
  0
TEXT
  5
4BB
330
18
100
AcDbEntity
  8
SK2
100
AcDbText
 10
167.2999761904676
 20
-42.7
 30
0.0
 40
4.57
  1
58
  7
SIMPLEX
100
AcDbText
  0
TEXT
  5
4BC
330
18
100
AcDbEntity
  8
SK2
100
AcDbText
 10
163.44
 20
-31.20600476474885
 30
0.0
 40
4.57
  1
10
  7
SIMPLEX
100
AcDbText
  0
TEXT
  5
4BD
330
18
100
AcDbEntity
  8
SK2
100
AcDbText
 10
172.3414328852016
 20
39.75341086800807
 30
0.0
 40
4.57
  1
4.5°
 50
283.720158370661
  7
SIMPLEX
100
AcDbText
  0
TEXT
  5
4BE
330
18
100
AcDbEntity
  8
SK2
100
AcDbText
 10
-58.96071187311804
 20
77.3
 30
0.0
 40
4.57
  1
101.6
  7
SIMPLEX
100
AcDbText
  0
TEXT
  5
4BF
330
18
100
AcDbEntity
  8
SK2
100
AcDbText
 10
-134.25
 20
-11.20738095238093
 30
0.0
 40
4.57
  1
%%c
 50
90.0
  7
SIMPLEX
100
AcDbText
  0
TEXT
  5
4C0
330
18
100
AcDbEntity
  8
SK2
100
AcDbText
 10
-134.25
 20
-7.072619047619034
 30
0.0
 40
4.57
  1
97.45
 50
90.0
  7
SIMPLEX
100
AcDbText
  0
TEXT
  5
4C1
330
18
100
AcDbEntity
  8
SK2
100
AcDbText
 10
-119.25
 20
-6.419761904761915
 30
0.0
 40
4.57
  1
M24
 50
90.0
  7
SIMPLEX
100
AcDbText
  0
TEXT
  5
4C2
330
18
100
AcDbEntity
  8
SK2
100
AcDbText
 10
-12.25000000000001
 20
-11.20738095238095
 30
0.0
 40
4.57
  1
%%c
 50
90.0
  7
SIMPLEX
100
AcDbText
  0
TEXT
  5
4C3
330
18
100
AcDbEntity
  8
SK2
100
AcDbText
 10
-12.25000000000001
 20
-7.072619047619046
 30
0.0
 40
4.57
  1
69.85
 50
90.0
  7
SIMPLEX
100
AcDbText
  0
TEXT
  5
4C4
330
18
100
AcDbEntity
  8
2
100
AcDbText
 10
94.12429129371716
 20
77.3
 30
0.0
 40
4.57
  1
200
  7
SIMPLEX
100
AcDbText
  0
TEXT
  5
4C5
330
18
100
AcDbEntity
  8
SK2
100
AcDbText
 10
212.7
 20
-5.766904761904748
 30
0.0
 40
4.57
  1
%%c
 50
90.0
  7
SIMPLEX
100
AcDbText
  0
TEXT
  5
4C6
330
18
100
AcDbEntity
  8
SK2
100
AcDbText
 10
212.7
 20
-1.632142857142843
 30
0.0
 40
4.57
  1
32
 50
90.0
  7
SIMPLEX
100
AcDbText
  0
TEXT
  5
4C7
330
18
100
AcDbEntity
  8
SK2
100
AcDbText
 10
29.07547619047619
 20
62.30000000000001
 30
0.0
 40
4.57
  1
19.1
  7
SIMPLEX
100
AcDbText
  0
TEXT
  5
4C8
330
18
100
AcDbEntity
  8
SK2
100
AcDbText
 10
227.7
 20
-5.875714285714271
 30
0.0
 40
4.57
  1
%%c
 50
90.0
  7
SIMPLEX
100
AcDbText
  0
TEXT
  5
4C9
330
18
100
AcDbEntity
  8
SK2
100
AcDbText
 10
227.7
 20
-1.740952380952366
 30
0.0
 40
4.57
  1
44
 50
90.0
  7
SIMPLEX
100
AcDbText
  0
TEXT
  5
4CA
330
18
100
AcDbEntity
  8
SK2
100
AcDbText
 10
242.7
 20
-5.766904761904767
 30
0.0
 40
4.57
  1
%%c
 50
90.0
  7
SIMPLEX
100
AcDbText
  0
TEXT
  5
4CB
330
18
100
AcDbEntity
  8
SK2
100
AcDbText
 10
242.7
 20
-1.632142857142862
 30
0.0
 40
4.57
  1
53
 50
90.0
  7
SIMPLEX
100
AcDbText
  0
ENDSEC
  0
SECTION
  2
OBJECTS
  0
DICTIONARY
  5
C
330
0
100
AcDbDictionary
  3
ACAD_GROUP
350
D
  3
ACAD_LAYOUT
350
301
  3
ACAD_MLINESTYLE
350
E
  3
ACAD_PLOTSETTINGS
350
302
1001
ACAD
1000
TREAT_AS_HARD
1070
     0
  0
DICTIONARY
  5
4CD
330
18
100
AcDbDictionary
  3
ACAD_LAYOUTSELFREF
350
4CE
  0
DICTIONARY
  5
4CF
330
338
100
AcDbDictionary
  3
ACAD_LAYOUTSELFREF
350
4D0
  0
DICTIONARY
  5
D
102
{ACAD_REACTORS
330
C
102
}
330
C
100
AcDbDictionary
1001
ACAD
1000
TREAT_AS_HARD
1070
     0
  0
DICTIONARY
  5
301
102
{ACAD_REACTORS
330
C
102
}
330
C
100
AcDbDictionary
1001
ACAD
1000
TREAT_AS_HARD
1070
     0
  0
DICTIONARY
  5
E
102
{ACAD_REACTORS
330
C
102
}
330
C
100
AcDbDictionary
  3
STANDARD
350
1B
1001
ACAD
1000
TREAT_AS_HARD
1070
     0
  0
DICTIONARY
  5
302
102
{ACAD_REACTORS
330
C
102
}
330
C
100
AcDbDictionary
1001
ACAD
1000
TREAT_AS_HARD
1070
     0
  0
XRECORD
  5
4CE
102
{ACAD_REACTORS
330
4CD
102
}
330
4CD
100
AcDbXrecord
340
18
  0
XRECORD
  5
4D0
102
{ACAD_REACTORS
330
4CF
102
}
330
4CF
100
AcDbXrecord
340
338
  0
MLINESTYLE
  5
1B
102
{ACAD_REACTORS
330
E
102
}
330
E
100
AcDbMlineStyle
  2
STANDARD
 70
     0
  3

 62
     0
 51
90.0
 52
90.0
 71
     2
 49
0.5
 62
   256
  6
BYLAYER
 49
-0.5
 62
   256
  6
BYLAYER
  0
ENDSEC
  0
EOF
