  0
SECTION
  2
HEADER
  9
$ACADVER
  1
AC1012
  9
$DWGCODEPAGE
  3
ANSI_1252
  9
$INSBASE
 10
0.0
 20
0.0
 30
0.0
  9
$EXTMIN
 10
-138.8490736769151
 20
-50.00732307788837
 30
-0.0015258207003583
  9
$EXTMAX
 10
125.0348979961534
 20
81.8743904422438
 30
0.0000000349246037
  9
$LIMMIN
 10
-170.0
 20
-170.0
  9
$LIMMAX
 10
519.0
 20
260.0
  9
$ORTHOMODE
 70
     0
  9
$REGENMODE
 70
     1
  9
$FILLMODE
 70
     1
  9
$QTEXTMODE
 70
     0
  9
$MIRRTEXT
 70
     0
  9
$DRAGMODE
 70
     2
  9
$LTSCALE
 40
15.0
  9
$OSMODE
 70
     0
  9
$ATTMODE
 70
     1
  9
$TEXTSIZE
 40
4.57
  9
$TRACEWID
 40
0.05
  9
$TEXTSTYLE
  7
SIMPLEX
  9
$CLAYER
  8
SK2
  9
$CELTYPE
  6
BYLAYER
  9
$CECOLOR
 62
   256
  9
$CELTSCALE
 40
1.0
  9
$DELOBJ
 70
     1
  9
$DISPSILH
 70
     0
  9
$DIMSCALE
 40
0.0
  9
$DIMASZ
 40
4.57
  9
$DIMEXO
 40
0.0
  9
$DIMDLI
 40
0.38
  9
$DIMRND
 40
0.0
  9
$DIMDLE
 40
0.0
  9
$DIMEXE
 40
5.0
  9
$DIMTP
 40
0.0
  9
$DIMTM
 40
0.0
  9
$DIMTXT
 40
4.57
  9
$DIMCEN
 40
0.09
  9
$DIMTSZ
 40
0.0
  9
$DIMTOL
 70
     0
  9
$DIMLIM
 70
     0
  9
$DIMTIH
 70
     0
  9
$DIMTOH
 70
     0
  9
$DIMSE1
 70
     0
  9
$DIMSE2
 70
     0
  9
$DIMTAD
 70
     1
  9
$DIMZIN
 70
     8
  9
$DIMBLK
  1

  9
$DIMASO
 70
     1
  9
$DIMSHO
 70
     1
  9
$DIMPOST
  1

  9
$DIMAPOST
  1

  9
$DIMALT
 70
     0
  9
$DIMALTD
 70
     2
  9
$DIMALTF
 40
25.4
  9
$DIMLFAC
 40
1.0
  9
$DIMTOFL
 70
     0
  9
$DIMTVP
 40
0.0
  9
$DIMTIX
 70
     0
  9
$DIMSOXD
 70
     0
  9
$DIMSAH
 70
     0
  9
$DIMBLK1
  1

  9
$DIMBLK2
  1

  9
$DIMSTYLE
  2
STANDARD
  9
$DIMCLRD
 70
     0
  9
$DIMCLRE
 70
     0
  9
$DIMCLRT
 70
     0
  9
$DIMTFAC
 40
1.0
  9
$DIMGAP
 40
2.299999999999999
  9
$DIMJUST
 70
     0
  9
$DIMSD1
 70
     0
  9
$DIMSD2
 70
     0
  9
$DIMTOLJ
 70
     1
  9
$DIMTZIN
 70
     0
  9
$DIMALTZ
 70
     0
  9
$DIMALTTZ
 70
     0
  9
$DIMFIT
 70
     3
  9
$DIMUPT
 70
     0
  9
$DIMUNIT
 70
     2
  9
$DIMDEC
 70
     2
  9
$DIMTDEC
 70
     4
  9
$DIMALTU
 70
     2
  9
$DIMALTTD
 70
     2
  9
$DIMTXSTY
  7
SIMPLEX
  9
$DIMAUNIT
 70
     0
  9
$LUNITS
 70
     2
  9
$LUPREC
 70
     2
  9
$SKETCHINC
 40
0.1
  9
$FILLETRAD
 40
0.0
  9
$AUNITS
 70
     0
  9
$AUPREC
 70
     0
  9
$MENU
  1
c:\tdm21\cad\caduti13\tdm13
  9
$ELEVATION
 40
0.0
  9
$PELEVATION
 40
0.0
  9
$THICKNESS
 40
0.0
  9
$LIMCHECK
 70
     0
  9
$BLIPMODE
 70
     0
  9
$CHAMFERA
 40
0.0
  9
$CHAMFERB
 40
0.0
  9
$CHAMFERC
 40
0.0
  9
$CHAMFERD
 40
0.0
  9
$SKPOLY
 70
     0
  9
$TDCREATE
 40
2452488.855693981
  9
$TDUPDATE
 40
2452488.855693981
  9
$TDINDWG
 40
0.0014233796
  9
$TDUSRTIMER
 40
0.0014233796
  9
$USRTIMER
 70
     1
  9
$ANGBASE
 50
0.0
  9
$ANGDIR
 70
     0
  9
$PDMODE
 70
     1
  9
$PDSIZE
 40
0.0
  9
$PLINEWID
 40
0.0
  9
$COORDS
 70
     1
  9
$SPLFRAME
 70
     0
  9
$SPLINETYPE
 70
     6
  9
$SPLINESEGS
 70
     8
  9
$ATTDIA
 70
     0
  9
$ATTREQ
 70
     1
  9
$HANDLING
 70
  4097
  9
$HANDSEED
  5
662
  9
$SURFTAB1
 70
     6
  9
$SURFTAB2
 70
     6
  9
$SURFTYPE
 70
     6
  9
$SURFU
 70
     6
  9
$SURFV
 70
     6
  9
$UCSNAME
  2

  9
$UCSORG
 10
0.0
 20
0.0
 30
0.0
  9
$UCSXDIR
 10
1.0
 20
0.0
 30
0.0
  9
$UCSYDIR
 10
0.0
 20
1.0
 30
0.0
  9
$PUCSNAME
  2

  9
$PUCSORG
 10
0.0
 20
0.0
 30
0.0
  9
$PUCSXDIR
 10
1.0
 20
0.0
 30
0.0
  9
$PUCSYDIR
 10
0.0
 20
1.0
 30
0.0
  9
$USERI1
 70
     0
  9
$USERI2
 70
     0
  9
$USERI3
 70
     0
  9
$USERI4
 70
     0
  9
$USERI5
 70
     0
  9
$USERR1
 40
0.0
  9
$USERR2
 40
0.0
  9
$USERR3
 40
0.0
  9
$USERR4
 40
0.0
  9
$USERR5
 40
0.0
  9
$WORLDVIEW
 70
     1
  9
$SHADEDGE
 70
     3
  9
$SHADEDIF
 70
    70
  9
$TILEMODE
 70
     1
  9
$MAXACTVP
 70
    16
  9
$PINSBASE
 10
0.0
 20
0.0
 30
0.0
  9
$PLIMCHECK
 70
     0
  9
$PEXTMIN
 10
0.0
 20
0.0
 30
0.0
  9
$PEXTMAX
 10
0.0
 20
0.0
 30
0.0
  9
$PLIMMIN
 10
0.0
 20
0.0
  9
$PLIMMAX
 10
12.0
 20
9.0
  9
$UNITMODE
 70
     0
  9
$VISRETAIN
 70
     0
  9
$PLINEGEN
 70
     0
  9
$PSLTSCALE
 70
     1
  9
$TREEDEPTH
 70
  3020
  9
$PICKSTYLE
 70
     1
  9
$CMLSTYLE
  2
STANDARD
  9
$CMLJUST
 70
     0
  9
$CMLSCALE
 40
1.0
  9
$SAVEIMAGES
 70
     1
  0
ENDSEC
  0
SECTION
  2
CLASSES
  0
CLASS
  1
ACDBDICTIONARYWDFLT
  2
AcDbDictionaryWithDefault
  3
AutoCAD 2000
 90
    32768
280
     0
281
     0
  0
CLASS
  1
ACDBPLACEHOLDER
  2
AcDbPlaceHolder
  3
AutoCAD 2000
 90
    32768
280
     0
281
     0
  0
CLASS
  1
LAYOUT
  2
AcDbLayout
  3
AutoCAD 2000
 90
    32768
280
     0
281
     0
  0
CLASS
  1
LONG_TRANSACTION
  2
AcDbLongTransaction
  3
AutoCAD 2000
 90
    32768
280
     0
281
     0
  0
CLASS
  1
LWPOLYLINE
  2
AcDbPolyline
  3
AutoCAD 2000
 90
    32768
280
     0
281
     1
  0
CLASS
  1
HATCH
  2
AcDbHatch
  3
AutoCAD 2000
 90
    32768
280
     0
281
     1
  0
CLASS
  1
XRECORD
  2
AcDbXrecord
  3
AutoCAD 2000
 90
    32768
280
     0
281
     0
  0
ENDSEC
  0
SECTION
  2
TABLES
  0
TABLE
  2
VPORT
  5
8
330
0
100
AcDbSymbolTable
 70
     4
  0
VPORT
  5
657
330
8
100
AcDbSymbolTableRecord
100
AcDbViewportTableRecord
  2
*ACTIVE
 70
     0
 10
0.0
 20
0.0
 11
1.0
 21
1.0
 12
-6.907087840380897
 22
15.93353368217771
 13
0.0
 23
0.0
 14
5.0
 24
5.0
 15
5.0
 25
5.0
 16
0.0
 26
0.0
 36
1.0
 17
0.0
 27
0.0
 37
0.0
 40
141.8817135201321
 41
2.184713375796178
 42
50.0
 43
0.0
 44
0.0
 50
0.0
 51
0.0
 71
     0
 72
   100
 73
     1
 74
     1
 75
     0
 76
     0
 77
     0
 78
     0
  0
ENDTAB
  0
TABLE
  2
LTYPE
  5
5
330
0
100
AcDbSymbolTable
 70
     3
  0
LTYPE
  5
12
330
5
100
AcDbSymbolTableRecord
100
AcDbLinetypeTableRecord
  2
BYBLOCK
 70
     0
  3

 72
    65
 73
     0
 40
0.0
  0
LTYPE
  5
13
330
5
100
AcDbSymbolTableRecord
100
AcDbLinetypeTableRecord
  2
BYLAYER
 70
     0
  3

 72
    65
 73
     0
 40
0.0
  0
LTYPE
  5
14
330
5
100
AcDbSymbolTableRecord
100
AcDbLinetypeTableRecord
  2
CONTINUOUS
 70
     0
  3
Solid line
 72
    65
 73
     0
 40
0.0
  0
LTYPE
  5
1F
330
5
100
AcDbSymbolTableRecord
100
AcDbLinetypeTableRecord
  2
CENTER
 70
     0
  3
____ . ____ . ____
 72
    65
 73
     4
 40
1.5
 49
1.0
 74
     0
 49
-0.25
 74
     0
 49
0.0
 74
     0
 49
-0.25
 74
     0
  0
LTYPE
  5
20
330
5
100
AcDbSymbolTableRecord
100
AcDbLinetypeTableRecord
  2
HIDDEN
 70
     0
  3
_ _ _ _ _ _ _ _ _ _ _ _ _ _ _ _ _ _ _ _ _ _ _
 72
    65
 73
     2
 40
0.375
 49
0.25
 74
     0
 49
-0.125
 74
     0
  0
ENDTAB
  0
TABLE
  2
LAYER
  5
2
330
0
100
AcDbSymbolTable
 70
    14
  0
LAYER
  5
F
330
2
100
AcDbSymbolTableRecord
100
AcDbLayerTableRecord
  2
0
 70
     0
 62
     7
  6
CONTINUOUS
  0
LAYER
  5
23
330
2
100
AcDbSymbolTableRecord
100
AcDbLayerTableRecord
  2
1
 70
     0
 62
     4
  6
CONTINUOUS
  0
LAYER
  5
24
330
2
100
AcDbSymbolTableRecord
100
AcDbLayerTableRecord
  2
SK1
 70
     0
 62
     4
  6
CONTINUOUS
  0
LAYER
  5
25
330
2
100
AcDbSymbolTableRecord
100
AcDbLayerTableRecord
  2
2
 70
     0
 62
     7
  6
CONTINUOUS
  0
LAYER
  5
26
330
2
100
AcDbSymbolTableRecord
100
AcDbLayerTableRecord
  2
2L
 70
     0
 62
     7
  6
CONTINUOUS
  0
LAYER
  5
27
330
2
100
AcDbSymbolTableRecord
100
AcDbLayerTableRecord
  2
SK2
 70
     0
 62
     7
  6
CONTINUOUS
  0
LAYER
  5
28
330
2
100
AcDbSymbolTableRecord
100
AcDbLayerTableRecord
  2
3
 70
     0
 62
     1
  6
HIDDEN
  0
LAYER
  5
29
330
2
100
AcDbSymbolTableRecord
100
AcDbLayerTableRecord
  2
SK3
 70
     0
 62
     1
  6
HIDDEN
  0
LAYER
  5
2A
330
2
100
AcDbSymbolTableRecord
100
AcDbLayerTableRecord
  2
4
 70
     0
 62
    -2
  6
CENTER
  0
LAYER
  5
2B
330
2
100
AcDbSymbolTableRecord
100
AcDbLayerTableRecord
  2
SK4
 70
     0
 62
     2
  6
CENTER
  0
LAYER
  5
2C
330
2
100
AcDbSymbolTableRecord
100
AcDbLayerTableRecord
  2
5
 70
     0
 62
    -7
  6
CONTINUOUS
  0
LAYER
  5
2D
330
2
100
AcDbSymbolTableRecord
100
AcDbLayerTableRecord
  2
6
 70
     0
 62
     5
  6
CONTINUOUS
  0
LAYER
  5
2E
330
2
100
AcDbSymbolTableRecord
100
AcDbLayerTableRecord
  2
SK6
 70
     0
 62
     5
  6
CONTINUOUS
  0
LAYER
  5
2F
330
2
100
AcDbSymbolTableRecord
100
AcDbLayerTableRecord
  2
DEFPOINTS
 70
     0
 62
     7
  6
CONTINUOUS
  0
ENDTAB
  0
TABLE
  2
STYLE
  5
3
330
0
100
AcDbSymbolTable
 70
     3
  0
STYLE
  5
10
330
3
100
AcDbSymbolTableRecord
100
AcDbTextStyleTableRecord
  2
STANDARD
 70
     0
 40
0.0
 41
1.0
 50
0.0
 71
     0
 42
5.0
  3
txt
  4

  0
STYLE
  5
1D
330
3
100
AcDbSymbolTableRecord
100
AcDbTextStyleTableRecord
  2
TXT
 70
     0
 40
8.0
 41
1.0
 50
0.0
 71
     0
 42
8.0
  3
txt
  4

  0
STYLE
  5
1E
330
3
100
AcDbSymbolTableRecord
100
AcDbTextStyleTableRecord
  2
SIMPLEX
 70
     0
 40
0.0
 41
1.0
 50
0.0
 71
     0
 42
4.57
  3
simplex
  4

  0
ENDTAB
  0
TABLE
  2
VIEW
  5
6
330
0
100
AcDbSymbolTable
 70
     0
  0
ENDTAB
  0
TABLE
  2
UCS
  5
7
330
0
100
AcDbSymbolTable
 70
     0
  0
ENDTAB
  0
TABLE
  2
APPID
  5
9
330
0
100
AcDbSymbolTable
 70
     1
  0
APPID
  5
11
330
9
100
AcDbSymbolTableRecord
100
AcDbRegAppTableRecord
  2
ACAD
 70
     0
  0
ENDTAB
  0
TABLE
  2
DIMSTYLE
  5
A
330
0
100
AcDbSymbolTable
 70
     1
  0
DIMSTYLE
105
3F
102
{ACAD_REACTORS
330
3A8
330
3A9
330
3F7
330
3F6
330
532
330
525
330
51C
330
515
330
43D
330
41E
330
41D
330
401
102
}
330
A
100
AcDbSymbolTableRecord
100
AcDbDimStyleTableRecord
  2
STANDARD
 70
     0
  3

  4

  5

  6

  7

 40
0.0
 41
4.57
 42
0.0
 43
0.38
 44
5.0
 45
0.0
 46
0.0
 47
0.0
 48
0.0
140
4.57
141
0.09
142
0.0
143
25.4
144
1.0
145
0.0
146
1.0
147
2.299999999999999
 71
     0
 72
     0
 73
     0
 74
     0
 75
     0
 76
     0
 77
     1
 78
     8
170
     0
171
     2
172
     0
173
     0
174
     0
175
     0
176
     0
177
     0
178
     0
270
     2
271
     2
272
     4
273
     2
274
     2
340
1E
275
     0
280
     0
281
     0
282
     0
283
     1
284
     0
285
     0
286
     0
287
     3
288
     0
  0
ENDTAB
  0
TABLE
  2
BLOCK_RECORD
  5
1
330
0
100
AcDbSymbolTable
 70
    17
  0
BLOCK_RECORD
  5
18
102
{ACAD_XDICTIONARY
360
658
102
}
330
1
100
AcDbSymbolTableRecord
100
AcDbBlockTableRecord
  2
*MODEL_SPACE
  0
BLOCK_RECORD
  5
338
102
{ACAD_XDICTIONARY
360
65A
102
}
330
1
100
AcDbSymbolTableRecord
100
AcDbBlockTableRecord
  2
*PAPER_SPACE
  0
BLOCK_RECORD
  5
345
330
1
100
AcDbSymbolTableRecord
100
AcDbBlockTableRecord
  2
*D0
  0
BLOCK_RECORD
  5
351
330
1
100
AcDbSymbolTableRecord
100
AcDbBlockTableRecord
  2
*D1
  0
BLOCK_RECORD
  5
35E
330
1
100
AcDbSymbolTableRecord
100
AcDbBlockTableRecord
  2
*D2
  0
BLOCK_RECORD
  5
36A
330
1
100
AcDbSymbolTableRecord
100
AcDbBlockTableRecord
  2
*D3
  0
BLOCK_RECORD
  5
376
330
1
100
AcDbSymbolTableRecord
100
AcDbBlockTableRecord
  2
*D4
  0
BLOCK_RECORD
  5
382
330
1
100
AcDbSymbolTableRecord
100
AcDbBlockTableRecord
  2
*D5
  0
BLOCK_RECORD
  5
38E
330
1
100
AcDbSymbolTableRecord
100
AcDbBlockTableRecord
  2
*D6
  0
BLOCK_RECORD
  5
39B
330
1
100
AcDbSymbolTableRecord
100
AcDbBlockTableRecord
  2
*D7
  0
BLOCK_RECORD
  5
48A
330
1
100
AcDbSymbolTableRecord
100
AcDbBlockTableRecord
  2
*D8
  0
BLOCK_RECORD
  5
496
330
1
100
AcDbSymbolTableRecord
100
AcDbBlockTableRecord
  2
*D9
  0
BLOCK_RECORD
  5
4A2
330
1
100
AcDbSymbolTableRecord
100
AcDbBlockTableRecord
  2
*D10
  0
BLOCK_RECORD
  5
4AE
330
1
100
AcDbSymbolTableRecord
100
AcDbBlockTableRecord
  2
*D11
  0
BLOCK_RECORD
  5
56A
330
1
100
AcDbSymbolTableRecord
100
AcDbBlockTableRecord
  2
*D13
  0
BLOCK_RECORD
  5
576
330
1
100
AcDbSymbolTableRecord
100
AcDbBlockTableRecord
  2
*D14
  0
BLOCK_RECORD
  5
582
330
1
100
AcDbSymbolTableRecord
100
AcDbBlockTableRecord
  2
*D15
  0
BLOCK_RECORD
  5
58E
330
1
100
AcDbSymbolTableRecord
100
AcDbBlockTableRecord
  2
*D16
  0
ENDTAB
  0
ENDSEC
  0
SECTION
  2
BLOCKS
  0
BLOCK
  5
32
330
18
100
AcDbEntity
  8
0
100
AcDbBlockBegin
  2
*MODEL_SPACE
 70
     0
 10
0.0
 20
0.0
 30
0.0
  3
*MODEL_SPACE
  1

  0
ENDBLK
  5
33
330
18
100
AcDbEntity
  8
0
100
AcDbBlockEnd
  0
BLOCK
  5
339
330
338
100
AcDbEntity
 67
     1
  8
0
100
AcDbBlockBegin
  2
*PAPER_SPACE
 70
     0
 10
0.0
 20
0.0
 30
0.0
  3
*PAPER_SPACE
  1

  0
ENDBLK
  5
33A
330
338
100
AcDbEntity
 67
     1
  8
0
100
AcDbBlockEnd
  0
BLOCK
  5
34F
330
345
100
AcDbEntity
  8
0
100
AcDbBlockBegin
  2
*D0
 70
     1
 10
0.0
 20
0.0
 30
0.0
  3
*D0
  1

  0
LINE
  5
43E
330
345
100
AcDbEntity
  8
SK2
 62
     0
100
AcDbLine
 10
4.000000000328171
 20
-31.75
 30
0.0
 11
-103.9499999999999
 21
-31.74999999999997
 31
0.0
  0
LINE
  5
43F
330
345
100
AcDbEntity
  8
SK2
 62
     0
100
AcDbLine
 10
4.0
 20
31.75
 30
0.0
 11
-103.9499999999999
 21
31.75000000000002
 31
0.0
  0
LINE
  5
440
330
345
100
AcDbEntity
  8
SK2
 62
     0
100
AcDbLine
 10
-98.95000000000001
 20
-27.17999999999997
 30
0.0
 11
-98.95000000000001
 21
27.18000000000003
 31
0.0
  0
SOLID
  5
441
330
345
100
AcDbEntity
  8
SK2
 62
     0
100
AcDbTrace
 10
-99.71166666666668
 20
-27.17999999999997
 30
0.0
 11
-98.18833333333333
 21
-27.17999999999997
 31
0.0
 12
-98.95000000000001
 22
-31.74999999999997
 32
0.0
 13
-98.95000000000001
 23
-31.74999999999997
 33
0.0
  0
SOLID
  5
442
330
345
100
AcDbEntity
  8
SK2
 62
     0
100
AcDbTrace
 10
-99.71166666666668
 20
27.18000000000003
 30
0.0
 11
-98.18833333333333
 21
27.18000000000003
 31
0.0
 12
-98.95000000000001
 22
31.75000000000002
 32
0.0
 13
-98.95000000000001
 23
31.75000000000002
 33
0.0
  0
MTEXT
  5
443
330
345
100
AcDbEntity
  8
SK2
 62
     0
100
AcDbMText
 10
-103.5349999999999
 20
0.0000000000000137
 30
0.0
 40
4.57
 41
0.0
 71
     5
 72
     1
  1
\A1;%%C63.5
  7
SIMPLEX
 11
0.0000000000000001
 21
1.0
 31
0.0
1001
ACAD
1000
MTEXTBEGIN
1070
    73
1070
     1
1070
    44
1040
1.0
1070
    74
1070
     0
1000
MTEXTEND
  0
POINT
  5
444
330
345
100
AcDbEntity
  8
DEFPOINTS
 62
     0
100
AcDbPoint
 10
4.000000000328171
 20
-31.75
 30
0.0
  0
POINT
  5
445
330
345
100
AcDbEntity
  8
DEFPOINTS
 62
     0
100
AcDbPoint
 10
4.0
 20
31.75
 30
0.0
  0
POINT
  5
446
330
345
100
AcDbEntity
  8
DEFPOINTS
 62
     0
100
AcDbPoint
 10
-98.95000000000001
 20
31.75000000000002
 30
0.0
  0
ENDBLK
  5
350
330
345
100
AcDbEntity
  8
0
100
AcDbBlockEnd
  0
BLOCK
  5
35C
330
351
100
AcDbEntity
  8
0
100
AcDbBlockBegin
  2
*D1
 70
     1
 10
0.0
 20
0.0
 30
0.0
  3
*D1
  1

  0
LINE
  5
447
330
351
100
AcDbEntity
  8
SK2
 62
     0
100
AcDbLine
 10
-59.51133
 20
-7.999999999999999
 30
0.0
 11
-88.95000000000001
 21
-7.999999999999991
 31
0.0
  0
LINE
  5
448
330
351
100
AcDbEntity
  8
SK2
 62
     0
100
AcDbLine
 10
-59.51133
 20
8.0
 30
0.0
 11
-88.95000000000001
 21
8.000000000000008
 31
0.0
  0
LINE
  5
449
330
351
100
AcDbEntity
  8
SK2
 62
     0
100
AcDbLine
 10
-83.95000000000001
 20
-3.429999999999991
 30
0.0
 11
-83.95000000000001
 21
3.430000000000006
 31
0.0
  0
LINE
  5
44A
330
351
100
AcDbEntity
  8
SK2
 62
     0
100
AcDbLine
 10
-83.95000000000001
 20
8.000000000000007
 30
0.0
 11
-83.95000000000001
 21
28.70380952380953
 31
0.0
  0
SOLID
  5
44B
330
351
100
AcDbEntity
  8
SK2
 62
     0
100
AcDbTrace
 10
-84.71166666666666
 20
-3.429999999999991
 30
0.0
 11
-83.18833333333333
 21
-3.429999999999991
 31
0.0
 12
-83.95000000000001
 22
-7.999999999999992
 32
0.0
 13
-83.95000000000001
 23
-7.999999999999992
 33
0.0
  0
SOLID
  5
44C
330
351
100
AcDbEntity
  8
SK2
 62
     0
100
AcDbTrace
 10
-84.71166666666666
 20
3.430000000000006
 30
0.0
 11
-83.18833333333333
 21
3.430000000000006
 31
0.0
 12
-83.95000000000001
 22
8.000000000000007
 32
0.0
 13
-83.95000000000001
 23
8.000000000000007
 33
0.0
  0
MTEXT
  5
44D
330
351
100
AcDbEntity
  8
SK2
 62
     0
100
AcDbMText
 10
-88.535
 20
20.63690476190476
 30
0.0
 40
4.57
 41
0.0
 71
     5
 72
     1
  1
\A1;M16
  7
SIMPLEX
 11
0.0000000000000001
 21
1.0
 31
0.0
1001
ACAD
1000
MTEXTBEGIN
1070
    73
1070
     1
1070
    44
1040
1.0
1070
    74
1070
     0
1000
MTEXTEND
  0
POINT
  5
44E
330
351
100
AcDbEntity
  8
DEFPOINTS
 62
     0
100
AcDbPoint
 10
-59.51133
 20
-7.999999999999999
 30
0.0
  0
POINT
  5
44F
330
351
100
AcDbEntity
  8
DEFPOINTS
 62
     0
100
AcDbPoint
 10
-59.51133
 20
8.0
 30
0.0
  0
POINT
  5
450
330
351
100
AcDbEntity
  8
DEFPOINTS
 62
     0
100
AcDbPoint
 10
-83.95000000000001
 20
8.000000000000007
 30
0.0
  0
ENDBLK
  5
35D
330
351
100
AcDbEntity
  8
0
100
AcDbBlockEnd
  0
BLOCK
  5
368
330
35E
100
AcDbEntity
  8
0
100
AcDbBlockBegin
  2
*D2
 70
     1
 10
0.0
 20
0.0
 30
0.0
  3
*D2
  1

  0
LINE
  5
451
330
35E
100
AcDbEntity
  8
SK2
 62
     0
100
AcDbLine
 10
0.0
 20
22.225
 30
0.0
 11
0.0000000000000035
 21
80.0
 31
0.0
  0
LINE
  5
452
330
35E
100
AcDbEntity
  8
SK2
 62
     0
100
AcDbLine
 10
-68.25
 20
11.45313
 30
0.0
 11
-68.25
 21
80.0
 31
0.0
  0
LINE
  5
453
330
35E
100
AcDbEntity
  8
SK2
 62
     0
100
AcDbLine
 10
-4.569999999999996
 20
75.0
 30
0.0
 11
-63.68
 21
75.0
 31
0.0
  0
SOLID
  5
454
330
35E
100
AcDbEntity
  8
SK2
 62
     0
100
AcDbTrace
 10
-4.569999999999996
 20
75.76166666666667
 30
0.0
 11
-4.569999999999996
 21
74.23833333333333
 31
0.0
 12
0.0000000000000032
 22
75.0
 32
0.0
 13
0.0000000000000032
 23
75.0
 33
0.0
  0
SOLID
  5
455
330
35E
100
AcDbEntity
  8
SK2
 62
     0
100
AcDbTrace
 10
-63.68
 20
75.76166666666667
 30
0.0
 11
-63.68
 21
74.23833333333333
 31
0.0
 12
-68.25
 22
75.0
 32
0.0
 13
-68.25
 23
75.0
 33
0.0
  0
MTEXT
  5
456
330
35E
100
AcDbEntity
  8
SK2
 62
     0
100
AcDbMText
 10
-34.125
 20
79.58499999999999
 30
0.0
 40
4.57
 41
0.0
 71
     5
 72
     1
  1
\A1;68.25
  7
SIMPLEX
1001
ACAD
1000
MTEXTBEGIN
1070
    73
1070
     1
1070
    44
1040
1.0
1070
    74
1070
     0
1000
MTEXTEND
  0
POINT
  5
457
330
35E
100
AcDbEntity
  8
DEFPOINTS
 62
     0
100
AcDbPoint
 10
0.0
 20
22.225
 30
0.0
  0
POINT
  5
458
330
35E
100
AcDbEntity
  8
DEFPOINTS
 62
     0
100
AcDbPoint
 10
-68.25
 20
11.45313
 30
0.0
  0
POINT
  5
459
330
35E
100
AcDbEntity
  8
DEFPOINTS
 62
     0
100
AcDbPoint
 10
-68.25
 20
75.0
 30
0.0
  0
ENDBLK
  5
369
330
35E
100
AcDbEntity
  8
0
100
AcDbBlockEnd
  0
BLOCK
  5
374
330
36A
100
AcDbEntity
  8
0
100
AcDbBlockBegin
  2
*D3
 70
     1
 10
0.0
 20
0.0
 30
0.0
  3
*D3
  1

  0
LINE
  5
45A
330
36A
100
AcDbEntity
  8
SK2
 62
     0
100
AcDbLine
 10
0.0
 20
22.225
 30
0.0
 11
-10.94999999999999
 21
22.225
 31
0.0
  0
LINE
  5
45B
330
36A
100
AcDbEntity
  8
SK2
 62
     0
100
AcDbLine
 10
0.0
 20
-22.225
 30
0.0
 11
-10.95
 21
-22.22499999999999
 31
0.0
  0
LINE
  5
45C
330
36A
100
AcDbEntity
  8
SK2
 62
     0
100
AcDbLine
 10
-5.949999999999993
 20
17.655
 30
0.0
 11
-5.950000000000001
 21
-17.655
 31
0.0
  0
SOLID
  5
45D
330
36A
100
AcDbEntity
  8
SK2
 62
     0
100
AcDbTrace
 10
-6.71166666666666
 20
17.655
 30
0.0
 11
-5.188333333333327
 21
17.655
 31
0.0
 12
-5.949999999999992
 22
22.225
 32
0.0
 13
-5.949999999999992
 23
22.225
 33
0.0
  0
SOLID
  5
45E
330
36A
100
AcDbEntity
  8
SK2
 62
     0
100
AcDbTrace
 10
-6.711666666666667
 20
-17.655
 30
0.0
 11
-5.188333333333334
 21
-17.655
 31
0.0
 12
-5.950000000000002
 22
-22.225
 32
0.0
 13
-5.950000000000002
 23
-22.225
 33
0.0
  0
MTEXT
  5
45F
330
36A
100
AcDbEntity
  8
SK2
 62
     0
100
AcDbMText
 10
-10.53499999999999
 20
0.0000000000000009
 30
0.0
 40
4.57
 41
0.0
 71
     5
 72
     1
  1
\A1;%%C44.45
  7
SIMPLEX
 11
0.0000000000000001
 21
1.0
 31
0.0
1001
ACAD
1000
MTEXTBEGIN
1070
    73
1070
     1
1070
    44
1040
1.0
1070
    74
1070
     0
1000
MTEXTEND
  0
POINT
  5
460
330
36A
100
AcDbEntity
  8
DEFPOINTS
 62
     0
100
AcDbPoint
 10
0.0
 20
22.225
 30
0.0
  0
POINT
  5
461
330
36A
100
AcDbEntity
  8
DEFPOINTS
 62
     0
100
AcDbPoint
 10
0.0
 20
-22.225
 30
0.0
  0
POINT
  5
462
330
36A
100
AcDbEntity
  8
DEFPOINTS
 62
     0
100
AcDbPoint
 10
-5.950000000000002
 20
-22.225
 30
0.0
  0
ENDBLK
  5
375
330
36A
100
AcDbEntity
  8
0
100
AcDbBlockEnd
  0
BLOCK
  5
380
330
376
100
AcDbEntity
  8
0
100
AcDbBlockBegin
  2
*D4
 70
     1
 10
0.0
 20
0.0
 30
0.0
  3
*D4
  1

  0
LINE
  5
60C
330
376
100
AcDbEntity
  8
2
 62
     0
100
AcDbLine
 10
0.0
 20
34.92499999999999
 30
0.0
 11
0.0000000000000028
 21
80.0
 31
0.0
  0
LINE
  5
60D
330
376
100
AcDbEntity
  8
2
 62
     0
100
AcDbLine
 10
79.99999999999999
 20
9.560000000000002
 30
0.0
 11
79.99999999999999
 21
80.0
 31
0.0
  0
LINE
  5
60E
330
376
100
AcDbEntity
  8
2
 62
     0
100
AcDbLine
 10
4.570000000000002
 20
75.0
 30
0.0
 11
75.42999999999998
 21
75.0
 31
0.0
  0
SOLID
  5
60F
330
376
100
AcDbEntity
  8
2
 62
     0
100
AcDbTrace
 10
4.570000000000002
 20
75.76166666666667
 30
0.0
 11
4.570000000000002
 21
74.23833333333333
 31
0.0
 12
0.0000000000000025
 22
75.0
 32
0.0
 13
0.0000000000000025
 23
75.0
 33
0.0
  0
SOLID
  5
610
330
376
100
AcDbEntity
  8
2
 62
     0
100
AcDbTrace
 10
75.42999999999998
 20
75.76166666666667
 30
0.0
 11
75.42999999999998
 21
74.23833333333333
 31
0.0
 12
79.99999999999999
 22
75.0
 32
0.0
 13
79.99999999999999
 23
75.0
 33
0.0
  0
MTEXT
  5
611
330
376
100
AcDbEntity
  8
2
 62
     0
100
AcDbMText
 10
39.99999999999999
 20
79.58499999999999
 30
0.0
 40
4.57
 41
0.0
 71
     5
 72
     1
  1
\A1;80
  7
SIMPLEX
1001
ACAD
1000
MTEXTBEGIN
1070
    73
1070
     1
1070
    44
1040
1.0
1070
    74
1070
     0
1000
MTEXTEND
  0
POINT
  5
612
330
376
100
AcDbEntity
  8
DEFPOINTS
 62
     0
100
AcDbPoint
 10
0.0
 20
34.92499999999999
 30
0.0
  0
POINT
  5
613
330
376
100
AcDbEntity
  8
DEFPOINTS
 62
     0
100
AcDbPoint
 10
79.99999999999999
 20
9.560000000000002
 30
0.0
  0
POINT
  5
614
330
376
100
AcDbEntity
  8
DEFPOINTS
 62
     0
100
AcDbPoint
 10
79.99999999999999
 20
75.0
 30
0.0
  0
ENDBLK
  5
381
330
376
100
AcDbEntity
  8
0
100
AcDbBlockEnd
  0
BLOCK
  5
38C
330
382
100
AcDbEntity
  8
0
100
AcDbBlockBegin
  2
*D5
 70
     1
 10
0.0
 20
0.0
 30
0.0
  3
*D5
  1

  0
LINE
  5
46C
330
382
100
AcDbEntity
  8
SK2
 62
     0
100
AcDbLine
 10
29.99999999999433
 20
-17.57399523525114
 30
0.0
 11
29.99999999999432
 21
-50.0
 31
0.0
  0
LINE
  5
46D
330
382
100
AcDbEntity
  8
SK2
 62
     0
100
AcDbLine
 10
79.99999999999433
 20
-17.57399523525114
 30
0.0
 11
79.99999999999433
 21
-50.0
 31
0.0
  0
LINE
  5
46E
330
382
100
AcDbEntity
  8
SK2
 62
     0
100
AcDbLine
 10
34.56999999999433
 20
-45.0
 30
0.0
 11
75.42999999999432
 21
-45.0
 31
0.0
  0
SOLID
  5
46F
330
382
100
AcDbEntity
  8
SK2
 62
     0
100
AcDbTrace
 10
34.56999999999433
 20
-44.23833333333333
 30
0.0
 11
34.56999999999433
 21
-45.76166666666667
 31
0.0
 12
29.99999999999433
 22
-45.0
 32
0.0
 13
29.99999999999433
 23
-45.0
 33
0.0
  0
SOLID
  5
470
330
382
100
AcDbEntity
  8
SK2
 62
     0
100
AcDbTrace
 10
75.42999999999432
 20
-44.23833333333333
 30
0.0
 11
75.42999999999432
 21
-45.76166666666667
 31
0.0
 12
79.99999999999433
 22
-45.0
 32
0.0
 13
79.99999999999433
 23
-45.0
 33
0.0
  0
MTEXT
  5
471
330
382
100
AcDbEntity
  8
SK2
 62
     0
100
AcDbMText
 10
54.99999999999433
 20
-40.415
 30
0.0
 40
4.57
 41
0.0
 71
     5
 72
     1
  1
\A1;50
  7
SIMPLEX
1001
ACAD
1000
MTEXTBEGIN
1070
    73
1070
     1
1070
    44
1040
1.0
1070
    74
1070
     0
1000
MTEXTEND
  0
POINT
  5
472
330
382
100
AcDbEntity
  8
DEFPOINTS
 62
     0
100
AcDbPoint
 10
29.99999999999433
 20
-17.57399523525114
 30
0.0
  0
POINT
  5
473
330
382
100
AcDbEntity
  8
DEFPOINTS
 62
     0
100
AcDbPoint
 10
79.99999999999433
 20
-17.57399523525114
 30
0.0
  0
POINT
  5
474
330
382
100
AcDbEntity
  8
DEFPOINTS
 62
     0
100
AcDbPoint
 10
79.99999999999433
 20
-45.0
 30
0.0
  0
ENDBLK
  5
38D
330
382
100
AcDbEntity
  8
0
100
AcDbBlockEnd
  0
BLOCK
  5
399
330
38E
100
AcDbEntity
  8
0
100
AcDbBlockBegin
  2
*D6
 70
     1
 10
0.0
 20
0.0
 30
0.0
  3
*D6
  1

  0
LINE
  5
475
330
38E
100
AcDbEntity
  8
SK2
 62
     0
100
AcDbLine
 10
29.99999999999433
 20
-17.57399523525114
 30
0.0
 11
29.99999999999433
 21
-35.0
 31
0.0
  0
LINE
  5
476
330
38E
100
AcDbEntity
  8
SK2
 62
     0
100
AcDbLine
 10
39.99999999999433
 20
-17.57399523525114
 30
0.0
 11
39.99999999999433
 21
-35.0
 31
0.0
  0
LINE
  5
477
330
38E
100
AcDbEntity
  8
SK2
 62
     0
100
AcDbLine
 10
25.42999999999433
 20
-30.0
 30
0.0
 11
20.85999999999433
 21
-30.0
 31
0.0
  0
LINE
  5
478
330
38E
100
AcDbEntity
  8
SK2
 62
     0
100
AcDbLine
 10
44.56999999999433
 20
-30.0
 30
0.0
 11
60.26857142856576
 21
-30.0
 31
0.0
  0
SOLID
  5
479
330
38E
100
AcDbEntity
  8
SK2
 62
     0
100
AcDbTrace
 10
25.42999999999433
 20
-29.23833333333333
 30
0.0
 11
25.42999999999433
 21
-30.76166666666666
 31
0.0
 12
29.99999999999433
 22
-30.0
 32
0.0
 13
29.99999999999433
 23
-30.0
 33
0.0
  0
SOLID
  5
47A
330
38E
100
AcDbEntity
  8
SK2
 62
     0
100
AcDbTrace
 10
44.56999999999433
 20
-29.23833333333333
 30
0.0
 11
44.56999999999433
 21
-30.76166666666666
 31
0.0
 12
39.99999999999433
 22
-30.0
 32
0.0
 13
39.99999999999433
 23
-30.0
 33
0.0
  0
MTEXT
  5
47B
330
38E
100
AcDbEntity
  8
SK2
 62
     0
100
AcDbMText
 10
54.70428571428005
 20
-25.415
 30
0.0
 40
4.57
 41
0.0
 71
     5
 72
     1
  1
\A1;10
  7
SIMPLEX
1001
ACAD
1000
MTEXTBEGIN
1070
    73
1070
     1
1070
    44
1040
1.0
1070
    74
1070
     0
1000
MTEXTEND
  0
POINT
  5
47C
330
38E
100
AcDbEntity
  8
DEFPOINTS
 62
     0
100
AcDbPoint
 10
29.99999999999433
 20
-17.57399523525114
 30
0.0
  0
POINT
  5
47D
330
38E
100
AcDbEntity
  8
DEFPOINTS
 62
     0
100
AcDbPoint
 10
39.99999999999433
 20
-17.57399523525114
 30
0.0
  0
POINT
  5
47E
330
38E
100
AcDbEntity
  8
DEFPOINTS
 62
     0
100
AcDbPoint
 10
39.99999999999433
 20
-30.0
 30
0.0
  0
ENDBLK
  5
39A
330
38E
100
AcDbEntity
  8
0
100
AcDbBlockEnd
  0
BLOCK
  5
3A6
330
39B
100
AcDbEntity
  8
0
100
AcDbBlockBegin
  2
*D7
 70
     1
 10
0.0
 20
0.0
 30
0.0
  3
*D7
  1

  0
ARC
  5
47F
330
39B
100
AcDbEntity
  8
SK2
 62
     0
100
AcDbCircle
 10
22.81999999999998
 20
20.99999999999999
 30
0.0
 40
29.70354547582355
100
AcDbArc
 50
337.8717913610447
 51
346.6956758556298
  0
ARC
  5
480
330
39B
100
AcDbEntity
  8
SK2
 62
     0
100
AcDbCircle
 10
22.81999999999998
 20
20.99999999999999
 30
0.0
 40
29.70354547582355
100
AcDbArc
 50
8.823884494585017
 51
17.64776898917005
  0
SOLID
  5
481
330
39B
100
AcDbEntity
  8
SK2
 62
     0
100
AcDbTrace
 10
50.97383534997701
 20
14.2822632627343
 30
0.0
 11
52.47885886783947
 21
14.04678788158939
 31
0.0
 12
52.43277325234297
 22
18.67959612574924
 32
0.0
 13
52.43277325234297
 23
18.67959612574924
 33
0.0
  0
SOLID
  5
482
330
39B
100
AcDbEntity
  8
SK2
 62
     0
100
AcDbTrace
 10
52.93139945036548
 20
25.61505051397721
 30
0.0
 11
51.41258014991114
 21
25.4978652887488
 31
0.0
 12
52.52354547582354
 22
20.99999999999999
 32
0.0
 13
52.52354547582354
 23
20.99999999999999
 33
0.0
  0
MTEXT
  5
483
330
39B
100
AcDbEntity
  8
SK2
 62
     0
100
AcDbMText
 10
55.58035393715984
 20
31.12242859987831
 30
0.0
 40
4.57
 41
0.0
 71
     5
 72
     1
  1
\A1;4.5°
  7
SIMPLEX
 11
0.2952131231992773
 21
-0.9554314271003066
 31
0.0
1001
ACAD
1000
MTEXTBEGIN
1070
    73
1070
     1
1070
    44
1040
1.0
1070
    74
1070
     0
1000
MTEXTEND
  0
POINT
  5
484
330
39B
100
AcDbEntity
  8
DEFPOINTS
 62
     0
100
AcDbPoint
 10
52.48319084170447
 20
19.45218769776906
 30
0.0
  0
POINT
  5
485
330
39B
100
AcDbEntity
  8
DEFPOINTS
 62
     0
100
AcDbPoint
 10
22.81999999999998
 20
20.99999999999999
 30
0.0
  0
POINT
  5
486
330
39B
100
AcDbEntity
  8
DEFPOINTS
 62
     0
100
AcDbPoint
 10
79.09999999999996
 20
16.58999999999999
 30
0.0
  0
POINT
  5
487
330
39B
100
AcDbEntity
  8
DEFPOINTS
 62
     0
100
AcDbPoint
 10
22.81999999999998
 20
20.99999999999999
 30
0.0
  0
POINT
  5
488
330
39B
100
AcDbEntity
  8
DEFPOINTS
 62
     0
100
AcDbPoint
 10
124.9999999999999
 20
20.99999999999996
 30
0.0
  0
ENDBLK
  5
3A7
330
39B
100
AcDbEntity
  8
0
100
AcDbBlockEnd
  0
BLOCK
  5
494
330
48A
100
AcDbEntity
  8
0
100
AcDbBlockBegin
  2
*D8
 70
     1
 10
0.0
 20
0.0
 30
0.0
  3
*D8
  1

  0
LINE
  5
48B
330
48A
100
AcDbEntity
  8
SK2
 62
     0
100
AcDbLine
 10
4.0
 20
-48.725
 30
0.0
 11
-136.9499999999999
 21
-48.72499999999996
 31
0.0
  0
LINE
  5
48C
330
48A
100
AcDbEntity
  8
SK2
 62
     0
100
AcDbLine
 10
4.0
 20
48.72499999999999
 30
0.0
 11
-136.9499999999999
 21
48.72500000000003
 31
0.0
  0
LINE
  5
48D
330
48A
100
AcDbEntity
  8
SK2
 62
     0
100
AcDbLine
 10
-131.9499999999999
 20
-44.15499999999997
 30
0.0
 11
-131.9499999999999
 21
44.15500000000003
 31
0.0
  0
SOLID
  5
48E
330
48A
100
AcDbEntity
  8
SK2
 62
     0
100
AcDbTrace
 10
-132.7116666666666
 20
-44.15499999999997
 30
0.0
 11
-131.1883333333333
 21
-44.15499999999997
 31
0.0
 12
-131.9499999999999
 22
-48.72499999999996
 32
0.0
 13
-131.9499999999999
 23
-48.72499999999996
 33
0.0
  0
SOLID
  5
48F
330
48A
100
AcDbEntity
  8
SK2
 62
     0
100
AcDbTrace
 10
-132.7116666666666
 20
44.15500000000003
 30
0.0
 11
-131.1883333333333
 21
44.15500000000003
 31
0.0
 12
-131.9499999999999
 22
48.72500000000003
 32
0.0
 13
-131.9499999999999
 23
48.72500000000003
 33
0.0
  0
MTEXT
  5
490
330
48A
100
AcDbEntity
  8
SK2
 62
     0
100
AcDbMText
 10
-136.535
 20
0.0000000000000122
 30
0.0
 40
4.57
 41
0.0
 71
     5
 72
     1
  1
\A1;%%C97.45
  7
SIMPLEX
 11
0.0000000000000001
 21
1.0
 31
0.0
1001
ACAD
1000
MTEXTBEGIN
1070
    73
1070
     1
1070
    44
1040
1.0
1070
    74
1070
     0
1000
MTEXTEND
  0
POINT
  5
491
330
48A
100
AcDbEntity
  8
DEFPOINTS
 62
     0
100
AcDbPoint
 10
4.0
 20
-48.725
 30
0.0
  0
POINT
  5
492
330
48A
100
AcDbEntity
  8
DEFPOINTS
 62
     0
100
AcDbPoint
 10
4.0
 20
48.72499999999999
 30
0.0
  0
POINT
  5
493
330
48A
100
AcDbEntity
  8
DEFPOINTS
 62
     0
100
AcDbPoint
 10
-131.9499999999999
 20
48.72500000000003
 30
0.0
  0
ENDBLK
  5
495
330
48A
100
AcDbEntity
  8
0
100
AcDbBlockEnd
  0
BLOCK
  5
4A0
330
496
100
AcDbEntity
  8
0
100
AcDbBlockBegin
  2
*D9
 70
     1
 10
0.0
 20
0.0
 30
0.0
  3
*D9
  1

  0
LINE
  5
497
330
496
100
AcDbEntity
  8
SK2
 62
     0
100
AcDbLine
 10
-89.56127
 20
-12.0
 30
0.0
 11
-121.95
 21
-11.99999999999999
 31
0.0
  0
LINE
  5
498
330
496
100
AcDbEntity
  8
SK2
 62
     0
100
AcDbLine
 10
-89.56127
 20
12.0
 30
0.0
 11
-121.95
 21
12.00000000000001
 31
0.0
  0
LINE
  5
499
330
496
100
AcDbEntity
  8
SK2
 62
     0
100
AcDbLine
 10
-116.9499999999999
 20
-7.429999999999991
 30
0.0
 11
-116.9499999999999
 21
7.430000000000007
 31
0.0
  0
SOLID
  5
49A
330
496
100
AcDbEntity
  8
SK2
 62
     0
100
AcDbTrace
 10
-117.7116666666666
 20
-7.429999999999991
 30
0.0
 11
-116.1883333333333
 21
-7.429999999999991
 31
0.0
 12
-116.9499999999999
 22
-11.99999999999999
 32
0.0
 13
-116.9499999999999
 23
-11.99999999999999
 33
0.0
  0
SOLID
  5
49B
330
496
100
AcDbEntity
  8
SK2
 62
     0
100
AcDbTrace
 10
-117.7116666666666
 20
7.430000000000007
 30
0.0
 11
-116.1883333333333
 21
7.430000000000007
 31
0.0
 12
-116.9499999999999
 22
12.00000000000001
 32
0.0
 13
-116.9499999999999
 23
12.00000000000001
 33
0.0
  0
MTEXT
  5
49C
330
496
100
AcDbEntity
  8
SK2
 62
     0
100
AcDbMText
 10
-121.5349999999999
 20
-0.00000000000001
 30
0.0
 40
4.57
 41
0.0
 71
     5
 72
     1
  1
\A1;M24
  7
SIMPLEX
 11
0.0000000000000001
 21
1.0
 31
0.0
1001
ACAD
1000
MTEXTBEGIN
1070
    73
1070
     1
1070
    44
1040
1.0
1070
    74
1070
     0
1000
MTEXTEND
  0
POINT
  5
49D
330
496
100
AcDbEntity
  8
DEFPOINTS
 62
     0
100
AcDbPoint
 10
-89.56127
 20
-12.0
 30
0.0
  0
POINT
  5
49E
330
496
100
AcDbEntity
  8
DEFPOINTS
 62
     0
100
AcDbPoint
 10
-89.56127
 20
12.0
 30
0.0
  0
POINT
  5
49F
330
496
100
AcDbEntity
  8
DEFPOINTS
 62
     0
100
AcDbPoint
 10
-116.9499999999999
 20
12.00000000000001
 30
0.0
  0
ENDBLK
  5
4A1
330
496
100
AcDbEntity
  8
0
100
AcDbBlockEnd
  0
BLOCK
  5
4AC
330
4A2
100
AcDbEntity
  8
0
100
AcDbBlockBegin
  2
*D10
 70
     1
 10
0.0
 20
0.0
 30
0.0
  3
*D10
  1

  0
LINE
  5
4A3
330
4A2
100
AcDbEntity
  8
SK2
 62
     0
100
AcDbLine
 10
0.0
 20
-34.92499999999999
 30
0.0
 11
-14.95000000000001
 21
-34.92499999999999
 31
0.0
  0
LINE
  5
4A4
330
4A2
100
AcDbEntity
  8
SK2
 62
     0
100
AcDbLine
 10
0.0
 20
34.92499999999999
 30
0.0
 11
-14.95
 21
34.92499999999999
 31
0.0
  0
LINE
  5
4A5
330
4A2
100
AcDbEntity
  8
SK2
 62
     0
100
AcDbLine
 10
-9.950000000000017
 20
-30.35499999999999
 30
0.0
 11
-9.950000000000002
 21
30.355
 31
0.0
  0
SOLID
  5
4A6
330
4A2
100
AcDbEntity
  8
SK2
 62
     0
100
AcDbTrace
 10
-10.71166666666668
 20
-30.35499999999999
 30
0.0
 11
-9.18833333333335
 21
-30.35499999999999
 31
0.0
 12
-9.950000000000017
 22
-34.92499999999999
 32
0.0
 13
-9.950000000000017
 23
-34.92499999999999
 33
0.0
  0
SOLID
  5
4A7
330
4A2
100
AcDbEntity
  8
SK2
 62
     0
100
AcDbTrace
 10
-10.71166666666667
 20
30.355
 30
0.0
 11
-9.188333333333336
 21
30.355
 31
0.0
 12
-9.950000000000002
 22
34.92499999999999
 32
0.0
 13
-9.950000000000002
 23
34.92499999999999
 33
0.0
  0
MTEXT
  5
4A8
330
4A2
100
AcDbEntity
  8
SK2
 62
     0
100
AcDbMText
 10
-14.53500000000001
 20
0.0000000000000012
 30
0.0
 40
4.57
 41
0.0
 71
     5
 72
     1
  1
\A1;%%C69.85
  7
SIMPLEX
 11
0.0000000000000001
 21
1.0
 31
0.0
1001
ACAD
1000
MTEXTBEGIN
1070
    73
1070
     1
1070
    44
1040
1.0
1070
    74
1070
     0
1000
MTEXTEND
  0
POINT
  5
4A9
330
4A2
100
AcDbEntity
  8
DEFPOINTS
 62
     0
100
AcDbPoint
 10
0.0
 20
-34.92499999999999
 30
0.0
  0
POINT
  5
4AA
330
4A2
100
AcDbEntity
  8
DEFPOINTS
 62
     0
100
AcDbPoint
 10
0.0
 20
34.92499999999999
 30
0.0
  0
POINT
  5
4AB
330
4A2
100
AcDbEntity
  8
DEFPOINTS
 62
     0
100
AcDbPoint
 10
-9.950000000000002
 20
34.92499999999999
 30
0.0
  0
ENDBLK
  5
4AD
330
4A2
100
AcDbEntity
  8
0
100
AcDbBlockEnd
  0
BLOCK
  5
4B8
330
4AE
100
AcDbEntity
  8
0
100
AcDbBlockBegin
  2
*D11
 70
     1
 10
0.0
 20
0.0
 30
0.0
  3
*D11
  1

  0
LINE
  5
4AF
330
4AE
100
AcDbEntity
  8
SK2
 62
     0
100
AcDbLine
 10
0.0
 20
34.92499999999999
 30
0.0
 11
0.0000000000000028
 21
80.0
 31
0.0
  0
LINE
  5
4B0
330
4AE
100
AcDbEntity
  8
SK2
 62
     0
100
AcDbLine
 10
-101.5999951748075
 20
18.16264950710383
 30
0.0
 11
-101.5999951748075
 21
80.0
 31
0.0
  0
LINE
  5
4B1
330
4AE
100
AcDbEntity
  8
SK2
 62
     0
100
AcDbLine
 10
-4.569999999999997
 20
75.0
 30
0.0
 11
-97.02999517480751
 21
75.0
 31
0.0
  0
SOLID
  5
4B2
330
4AE
100
AcDbEntity
  8
SK2
 62
     0
100
AcDbTrace
 10
-4.569999999999997
 20
75.76166666666667
 30
0.0
 11
-4.569999999999997
 21
74.23833333333333
 31
0.0
 12
0.0000000000000025
 22
75.0
 32
0.0
 13
0.0000000000000025
 23
75.0
 33
0.0
  0
SOLID
  5
4B3
330
4AE
100
AcDbEntity
  8
SK2
 62
     0
100
AcDbTrace
 10
-97.02999517480751
 20
75.76166666666667
 30
0.0
 11
-97.02999517480751
 21
74.23833333333333
 31
0.0
 12
-101.5999951748075
 22
75.0
 32
0.0
 13
-101.5999951748075
 23
75.0
 33
0.0
  0
MTEXT
  5
4B4
330
4AE
100
AcDbEntity
  8
SK2
 62
     0
100
AcDbMText
 10
-50.79999758740375
 20
79.58499999999999
 30
0.0
 40
4.57
 41
0.0
 71
     5
 72
     1
  1
\A1;101.6
  7
SIMPLEX
1001
ACAD
1000
MTEXTBEGIN
1070
    73
1070
     1
1070
    44
1040
1.0
1070
    74
1070
     0
1000
MTEXTEND
  0
POINT
  5
4B5
330
4AE
100
AcDbEntity
  8
DEFPOINTS
 62
     0
100
AcDbPoint
 10
0.0
 20
34.92499999999999
 30
0.0
  0
POINT
  5
4B6
330
4AE
100
AcDbEntity
  8
DEFPOINTS
 62
     0
100
AcDbPoint
 10
-101.5999951748075
 20
18.16264950710383
 30
0.0
  0
POINT
  5
4B7
330
4AE
100
AcDbEntity
  8
DEFPOINTS
 62
     0
100
AcDbPoint
 10
-101.5999951748075
 20
75.0
 30
0.0
  0
ENDBLK
  5
4B9
330
4AE
100
AcDbEntity
  8
0
100
AcDbBlockEnd
  0
BLOCK
  5
574
330
56A
100
AcDbEntity
  8
0
100
AcDbBlockBegin
  2
*D13
 70
     1
 10
0.0
 20
0.0
 30
0.0
  3
*D13
  1

  0
LINE
  5
59A
330
56A
100
AcDbEntity
  8
SK2
 62
     0
100
AcDbLine
 10
0.0
 20
34.92499999999999
 30
0.0
 11
0.0000000000000028
 21
80.0
 31
0.0
  0
LINE
  5
59B
330
56A
100
AcDbEntity
  8
SK2
 62
     0
100
AcDbLine
 10
-101.5999951748075
 20
18.16264950710383
 30
0.0
 11
-101.5999951748075
 21
80.0
 31
0.0
  0
LINE
  5
59C
330
56A
100
AcDbEntity
  8
SK2
 62
     0
100
AcDbLine
 10
-4.569999999999997
 20
75.0
 30
0.0
 11
-97.02999517480751
 21
75.0
 31
0.0
  0
SOLID
  5
59D
330
56A
100
AcDbEntity
  8
SK2
 62
     0
100
AcDbTrace
 10
-4.569999999999997
 20
75.76166666666667
 30
0.0
 11
-4.569999999999997
 21
74.23833333333333
 31
0.0
 12
0.0000000000000025
 22
75.0
 32
0.0
 13
0.0000000000000025
 23
75.0
 33
0.0
  0
SOLID
  5
59E
330
56A
100
AcDbEntity
  8
SK2
 62
     0
100
AcDbTrace
 10
-97.02999517480751
 20
75.76166666666667
 30
0.0
 11
-97.02999517480751
 21
74.23833333333333
 31
0.0
 12
-101.5999951748075
 22
75.0
 32
0.0
 13
-101.5999951748075
 23
75.0
 33
0.0
  0
MTEXT
  5
59F
330
56A
100
AcDbEntity
  8
SK2
 62
     0
100
AcDbMText
 10
-50.79999758740375
 20
79.58499999999999
 30
0.0
 40
4.57
 41
0.0
 71
     5
 72
     1
  1
\A1;101.6
  7
SIMPLEX
1001
ACAD
1000
MTEXTBEGIN
1070
    73
1070
     1
1070
    44
1040
1.0
1070
    74
1070
     0
1000
MTEXTEND
  0
POINT
  5
5A0
330
56A
100
AcDbEntity
  8
DEFPOINTS
 62
     0
100
AcDbPoint
 10
0.0
 20
34.92499999999999
 30
0.0
  0
POINT
  5
5A1
330
56A
100
AcDbEntity
  8
DEFPOINTS
 62
     0
100
AcDbPoint
 10
-101.5999951748075
 20
18.16264950710383
 30
0.0
  0
POINT
  5
5A2
330
56A
100
AcDbEntity
  8
DEFPOINTS
 62
     0
100
AcDbPoint
 10
-101.5999951748075
 20
75.0
 30
0.0
  0
ENDBLK
  5
575
330
56A
100
AcDbEntity
  8
0
100
AcDbBlockEnd
  0
BLOCK
  5
580
330
576
100
AcDbEntity
  8
0
100
AcDbBlockBegin
  2
*D14
 70
     1
 10
0.0
 20
0.0
 30
0.0
  3
*D14
  1

  0
LINE
  5
5A3
330
576
100
AcDbEntity
  8
SK2
 62
     0
100
AcDbLine
 10
4.0
 20
-48.725
 30
0.0
 11
-136.9499999999999
 21
-48.72499999999996
 31
0.0
  0
LINE
  5
5A4
330
576
100
AcDbEntity
  8
SK2
 62
     0
100
AcDbLine
 10
4.0
 20
48.72499999999999
 30
0.0
 11
-136.9499999999999
 21
48.72500000000003
 31
0.0
  0
LINE
  5
5A5
330
576
100
AcDbEntity
  8
SK2
 62
     0
100
AcDbLine
 10
-131.9499999999999
 20
-44.15499999999997
 30
0.0
 11
-131.9499999999999
 21
44.15500000000003
 31
0.0
  0
SOLID
  5
5A6
330
576
100
AcDbEntity
  8
SK2
 62
     0
100
AcDbTrace
 10
-132.7116666666666
 20
-44.15499999999997
 30
0.0
 11
-131.1883333333333
 21
-44.15499999999997
 31
0.0
 12
-131.9499999999999
 22
-48.72499999999996
 32
0.0
 13
-131.9499999999999
 23
-48.72499999999996
 33
0.0
  0
SOLID
  5
5A7
330
576
100
AcDbEntity
  8
SK2
 62
     0
100
AcDbTrace
 10
-132.7116666666666
 20
44.15500000000003
 30
0.0
 11
-131.1883333333333
 21
44.15500000000003
 31
0.0
 12
-131.9499999999999
 22
48.72500000000003
 32
0.0
 13
-131.9499999999999
 23
48.72500000000003
 33
0.0
  0
MTEXT
  5
5A8
330
576
100
AcDbEntity
  8
SK2
 62
     0
100
AcDbMText
 10
-136.535
 20
0.0000000000000122
 30
0.0
 40
4.57
 41
0.0
 71
     5
 72
     1
  1
\A1;%%C97.45
  7
SIMPLEX
 11
0.0000000000000001
 21
1.0
 31
0.0
1001
ACAD
1000
MTEXTBEGIN
1070
    73
1070
     1
1070
    44
1040
1.0
1070
    74
1070
     0
1000
MTEXTEND
  0
POINT
  5
5A9
330
576
100
AcDbEntity
  8
DEFPOINTS
 62
     0
100
AcDbPoint
 10
4.0
 20
-48.725
 30
0.0
  0
POINT
  5
5AA
330
576
100
AcDbEntity
  8
DEFPOINTS
 62
     0
100
AcDbPoint
 10
4.0
 20
48.72499999999999
 30
0.0
  0
POINT
  5
5AB
330
576
100
AcDbEntity
  8
DEFPOINTS
 62
     0
100
AcDbPoint
 10
-131.9499999999999
 20
48.72500000000003
 30
0.0
  0
ENDBLK
  5
581
330
576
100
AcDbEntity
  8
0
100
AcDbBlockEnd
  0
BLOCK
  5
58C
330
582
100
AcDbEntity
  8
0
100
AcDbBlockBegin
  2
*D15
 70
     1
 10
0.0
 20
0.0
 30
0.0
  3
*D15
  1

  0
LINE
  5
5AC
330
582
100
AcDbEntity
  8
SK2
 62
     0
100
AcDbLine
 10
-89.56127
 20
-12.0
 30
0.0
 11
-121.95
 21
-11.99999999999999
 31
0.0
  0
LINE
  5
5AD
330
582
100
AcDbEntity
  8
SK2
 62
     0
100
AcDbLine
 10
-89.56127
 20
12.0
 30
0.0
 11
-121.95
 21
12.00000000000001
 31
0.0
  0
LINE
  5
5AE
330
582
100
AcDbEntity
  8
SK2
 62
     0
100
AcDbLine
 10
-116.9499999999999
 20
-7.429999999999991
 30
0.0
 11
-116.9499999999999
 21
7.430000000000007
 31
0.0
  0
SOLID
  5
5AF
330
582
100
AcDbEntity
  8
SK2
 62
     0
100
AcDbTrace
 10
-117.7116666666666
 20
-7.429999999999991
 30
0.0
 11
-116.1883333333333
 21
-7.429999999999991
 31
0.0
 12
-116.9499999999999
 22
-11.99999999999999
 32
0.0
 13
-116.9499999999999
 23
-11.99999999999999
 33
0.0
  0
SOLID
  5
5B0
330
582
100
AcDbEntity
  8
SK2
 62
     0
100
AcDbTrace
 10
-117.7116666666666
 20
7.430000000000007
 30
0.0
 11
-116.1883333333333
 21
7.430000000000007
 31
0.0
 12
-116.9499999999999
 22
12.00000000000001
 32
0.0
 13
-116.9499999999999
 23
12.00000000000001
 33
0.0
  0
MTEXT
  5
5B1
330
582
100
AcDbEntity
  8
SK2
 62
     0
100
AcDbMText
 10
-121.5349999999999
 20
-0.00000000000001
 30
0.0
 40
4.57
 41
0.0
 71
     5
 72
     1
  1
\A1;M24
  7
SIMPLEX
 11
0.0000000000000001
 21
1.0
 31
0.0
1001
ACAD
1000
MTEXTBEGIN
1070
    73
1070
     1
1070
    44
1040
1.0
1070
    74
1070
     0
1000
MTEXTEND
  0
POINT
  5
5B2
330
582
100
AcDbEntity
  8
DEFPOINTS
 62
     0
100
AcDbPoint
 10
-89.56127
 20
-12.0
 30
0.0
  0
POINT
  5
5B3
330
582
100
AcDbEntity
  8
DEFPOINTS
 62
     0
100
AcDbPoint
 10
-89.56127
 20
12.0
 30
0.0
  0
POINT
  5
5B4
330
582
100
AcDbEntity
  8
DEFPOINTS
 62
     0
100
AcDbPoint
 10
-116.9499999999999
 20
12.00000000000001
 30
0.0
  0
ENDBLK
  5
58D
330
582
100
AcDbEntity
  8
0
100
AcDbBlockEnd
  0
BLOCK
  5
598
330
58E
100
AcDbEntity
  8
0
100
AcDbBlockBegin
  2
*D16
 70
     1
 10
0.0
 20
0.0
 30
0.0
  3
*D16
  1

  0
LINE
  5
5B5
330
58E
100
AcDbEntity
  8
SK2
 62
     0
100
AcDbLine
 10
0.0
 20
-34.92499999999999
 30
0.0
 11
-14.95000000000001
 21
-34.92499999999999
 31
0.0
  0
LINE
  5
5B6
330
58E
100
AcDbEntity
  8
SK2
 62
     0
100
AcDbLine
 10
0.0
 20
34.92499999999999
 30
0.0
 11
-14.95
 21
34.92499999999999
 31
0.0
  0
LINE
  5
5B7
330
58E
100
AcDbEntity
  8
SK2
 62
     0
100
AcDbLine
 10
-9.950000000000017
 20
-30.35499999999999
 30
0.0
 11
-9.950000000000002
 21
30.355
 31
0.0
  0
SOLID
  5
5B8
330
58E
100
AcDbEntity
  8
SK2
 62
     0
100
AcDbTrace
 10
-10.71166666666668
 20
-30.35499999999999
 30
0.0
 11
-9.18833333333335
 21
-30.35499999999999
 31
0.0
 12
-9.950000000000017
 22
-34.92499999999999
 32
0.0
 13
-9.950000000000017
 23
-34.92499999999999
 33
0.0
  0
SOLID
  5
5B9
330
58E
100
AcDbEntity
  8
SK2
 62
     0
100
AcDbTrace
 10
-10.71166666666667
 20
30.355
 30
0.0
 11
-9.188333333333336
 21
30.355
 31
0.0
 12
-9.950000000000002
 22
34.92499999999999
 32
0.0
 13
-9.950000000000002
 23
34.92499999999999
 33
0.0
  0
MTEXT
  5
5BA
330
58E
100
AcDbEntity
  8
SK2
 62
     0
100
AcDbMText
 10
-14.53500000000001
 20
0.0000000000000012
 30
0.0
 40
4.57
 41
0.0
 71
     5
 72
     1
  1
\A1;%%C69.85
  7
SIMPLEX
 11
0.0000000000000001
 21
1.0
 31
0.0
1001
ACAD
1000
MTEXTBEGIN
1070
    73
1070
     1
1070
    44
1040
1.0
1070
    74
1070
     0
1000
MTEXTEND
  0
POINT
  5
5BB
330
58E
100
AcDbEntity
  8
DEFPOINTS
 62
     0
100
AcDbPoint
 10
0.0
 20
-34.92499999999999
 30
0.0
  0
POINT
  5
5BC
330
58E
100
AcDbEntity
  8
DEFPOINTS
 62
     0
100
AcDbPoint
 10
0.0
 20
34.92499999999999
 30
0.0
  0
POINT
  5
5BD
330
58E
100
AcDbEntity
  8
DEFPOINTS
 62
     0
100
AcDbPoint
 10
-9.950000000000002
 20
34.92499999999999
 30
0.0
  0
ENDBLK
  5
599
330
58E
100
AcDbEntity
  8
0
100
AcDbBlockEnd
  0
ENDSEC
  0
SECTION
  2
ENTITIES
  0
LINE
  5
3AC
330
18
100
AcDbEntity
  8
SK4
100
AcDbLine
 10
-70.08027
 20
0.0
 30
0.0
 11
82.48346404995846
 21
0.0
 31
0.0
  0
LINE
  5
3F9
330
18
100
AcDbEntity
  8
4
100
AcDbLine
 10
-68.24999999999999
 20
0.0
 30
0.0
 11
79.99999999999999
 21
0.0
 31
0.0
  0
LINE
  5
402
330
18
100
AcDbEntity
  8
SK3
100
AcDbLine
 10
76.00099999999999
 20
-9.0
 30
0.0
 11
35.00099999999999
 21
-9.0
 31
0.0
  0
LINE
  5
403
330
18
100
AcDbEntity
  8
SK3
100
AcDbLine
 10
76.00099999999999
 20
9.001999999999998
 30
0.0
 11
35.00099999999999
 21
9.001999999999998
 31
0.0
  0
LINE
  5
404
330
18
100
AcDbEntity
  8
SK3
100
AcDbLine
 10
27.26799999999999
 20
-6.0
 30
0.0
 11
10.00099999999999
 21
-6.0
 31
0.0
  0
LINE
  5
405
330
18
100
AcDbEntity
  8
SK3
100
AcDbLine
 10
27.26799999999999
 20
6.001000000000001
 30
0.0
 11
10.00099999999999
 21
6.001000000000001
 31
0.0
  0
LINE
  5
407
330
18
100
AcDbEntity
  8
SK3
100
AcDbLine
 10
27.26799999999999
 20
6.001000000000001
 30
0.0
 11
27.26799999999999
 21
-5.998999999999998
 31
0.0
  0
LINE
  5
408
330
18
100
AcDbEntity
  8
SK3
100
AcDbLine
 10
28.99999999999999
 20
-9.0
 30
0.0
 11
26.69099999999999
 21
-5.0
 31
0.0
  0
LINE
  5
409
330
18
100
AcDbEntity
  8
SK3
100
AcDbLine
 10
29.17399999999999
 20
8.607000000000002
 30
0.0
 11
29.17399999999999
 21
-8.652999999999998
 31
0.0
  0
LINE
  5
40A
330
18
100
AcDbEntity
  8
SK3
100
AcDbLine
 10
33.88099999999999
 20
8.746000000000005
 30
0.0
 11
33.88099999999999
 21
-8.687999999999998
 31
0.0
  0
LINE
  5
40B
330
18
100
AcDbEntity
  8
SK3
100
AcDbLine
 10
35.00099999999999
 20
9.001000000000001
 30
0.0
 11
35.00099999999999
 21
-8.998999999999998
 31
0.0
  0
LINE
  5
40C
330
18
100
AcDbEntity
  8
SK3
100
AcDbLine
 10
33.80099999999999
 20
-9.298999999999995
 30
0.0
 11
29.51999999999999
 21
-9.298999999999995
 31
0.0
  0
ARC
  5
40D
330
18
100
AcDbEntity
  8
SK3
100
AcDbCircle
 10
29.51999999999999
 20
-8.698999999999998
 30
0.0
 40
0.6
100
AcDbArc
 50
209.9812930000003
 51
269.9987180000001
  0
ARC
  5
40E
330
18
100
AcDbEntity
  8
SK3
100
AcDbCircle
 10
33.80099999999999
 20
-8.698999999999998
 30
0.0
 40
0.6
100
AcDbArc
 50
270.0
 51
284.9616089999997
  0
LINE
  5
40F
330
18
100
AcDbEntity
  8
SK3
100
AcDbLine
 10
35.00099999999999
 20
-9.0
 30
0.0
 11
33.95799999999999
 21
-9.277999999999998
 31
0.0
  0
LINE
  5
410
330
18
100
AcDbEntity
  8
SK3
100
AcDbLine
 10
33.80099999999999
 20
9.301000000000005
 30
0.0
 11
29.51999999999999
 21
9.301000000000005
 31
0.0
  0
LINE
  5
411
330
18
100
AcDbEntity
  8
SK3
100
AcDbLine
 10
26.69099999999999
 20
5.001000000000001
 30
0.0
 11
26.69099999999999
 21
-4.998999999999998
 31
0.0
  0
LINE
  5
412
330
18
100
AcDbEntity
  8
SK3
100
AcDbLine
 10
28.99999999999999
 20
9.001000000000001
 30
0.0
 11
26.69
 21
5.001000000000001
 31
0.0
  0
ARC
  5
413
330
18
100
AcDbEntity
  8
SK3
100
AcDbCircle
 10
29.51999999999999
 20
8.699999999999999
 30
0.0
 40
0.6
100
AcDbArc
 50
90.0
 51
150.0174259999998
  0
ARC
  5
414
330
18
100
AcDbEntity
  8
SK3
100
AcDbCircle
 10
33.80099999999999
 20
8.699999999999999
 30
0.0
 40
0.6
100
AcDbArc
 50
75.03839900000015
 51
90.0
  0
LINE
  5
415
330
18
100
AcDbEntity
  8
SK3
100
AcDbLine
 10
33.95699999999999
 20
9.281000000000002
 30
0.0
 11
35.00099999999999
 21
9.001999999999998
 31
0.0
  0
LINE
  5
416
330
18
100
AcDbEntity
  8
SK3
100
AcDbLine
 10
76.0
 20
9.001000000000001
 30
0.0
 11
76.0
 21
-8.998999999999998
 31
0.0
  0
LINE
  5
417
330
18
100
AcDbEntity
  8
SK3
100
AcDbLine
 10
79.31599999999999
 20
-9.288999999999997
 30
0.0
 11
76.00099999999999
 21
-9.0
 31
0.0
  0
ARC
  5
418
330
18
100
AcDbEntity
  8
SK3
100
AcDbCircle
 10
79.25
 20
-10.036
 30
0.0
 40
0.75
100
AcDbArc
 50
0.0
 51
85.02784000000032
  0
LINE
  5
419
330
18
100
AcDbEntity
  8
SK3
100
AcDbLine
 10
79.31599999999999
 20
9.289999999999995
 30
0.0
 11
76.00099999999999
 21
9.001999999999998
 31
0.0
  0
ARC
  5
41A
330
18
100
AcDbEntity
  8
SK3
100
AcDbCircle
 10
79.25
 20
10.038
 30
0.0
 40
0.75
100
AcDbArc
 50
274.9724729999998
 51
0.0003030000000036
  0
LINE
  5
41B
330
18
100
AcDbEntity
  8
SK3
100
AcDbLine
 10
-36.92568326285714
 20
5.001999999999999
 30
0.0
 11
26.69099999999999
 21
5.001999999999998
 31
0.0
  0
LINE
  5
41C
330
18
100
AcDbEntity
  8
SK3
100
AcDbLine
 10
-36.9245619047619
 20
-5.0
 30
0.0
 11
26.69099999999999
 21
-5.0
 31
0.0
  0
ARC
  5
420
330
18
100
AcDbEntity
  8
1
  6
CONTINUOUS
 62
     4
100
AcDbCircle
 10
20.04999999999996
 20
22.0
 30
0.0
 40
1.0
100
AcDbArc
 50
180.0000149999998
 51
270.0
  0
LINE
  5
421
330
18
100
AcDbEntity
  8
1
  6
CONTINUOUS
 62
     4
100
AcDbLine
 10
22.81999999999999
 20
21.0
 30
0.0
 11
22.81999999999999
 21
-21.0
 31
0.0
  0
POLYLINE
  5
422
330
18
100
AcDbEntity
  8
1
  6
CONTINUOUS
 62
     4
100
AcDb2dPolyline
 66
     1
 10
0.0
 20
0.0
 30
0.0
  0
VERTEX
  5
65C
330
422
100
AcDbEntity
  8
1
  6
CONTINUOUS
 62
     4
100
AcDbVertex
100
AcDb2dVertex
 10
79.99999999999999
 20
-15.6
 30
0.0
  0
VERTEX
  5
65D
330
422
100
AcDbEntity
  8
1
  6
CONTINUOUS
 62
     4
100
AcDbVertex
100
AcDb2dVertex
 10
79.99999999999999
 20
15.6
 30
0.0
  0
SEQEND
  5
65E
330
422
100
AcDbEntity
  8
1
  6
CONTINUOUS
 62
     4
  0
ARC
  5
423
330
18
100
AcDbEntity
  8
1
  6
CONTINUOUS
 62
     4
100
AcDbCircle
 10
78.99999999999998
 20
-15.6
 30
0.0
 40
1.0
100
AcDbArc
 50
275.7390439999996
 51
0.0
  0
POLYLINE
  5
424
330
18
100
AcDbEntity
  8
1
  6
CONTINUOUS
 62
     4
100
AcDb2dPolyline
 66
     1
 10
0.0
 20
0.0
 30
0.0
  0
VERTEX
  5
65F
330
424
100
AcDbEntity
  8
1
  6
CONTINUOUS
 62
     4
100
AcDbVertex
100
AcDb2dVertex
 10
79.99999999999999
 20
-15.6
 30
0.0
  0
VERTEX
  5
660
330
424
100
AcDbEntity
  8
1
  6
CONTINUOUS
 62
     4
100
AcDbVertex
100
AcDb2dVertex
 10
79.99999999999999
 20
-15.60999999999999
 30
0.0
  0
SEQEND
  5
661
330
424
100
AcDbEntity
  8
1
  6
CONTINUOUS
 62
     4
  0
ARC
  5
425
330
18
100
AcDbEntity
  8
1
  6
CONTINUOUS
 62
     4
100
AcDbCircle
 10
78.99999999999998
 20
15.6
 30
0.0
 40
1.0
100
AcDbArc
 50
0.0000030000001391
 51
84.26096300000034
  0
ARC
  5
426
330
18
100
AcDbEntity
  8
1
  6
CONTINUOUS
 62
     4
100
AcDbCircle
 10
20.04999999999996
 20
-22.0
 30
0.0
 40
1.0
100
AcDbArc
 50
90.00000000000003
 51
179.9999850000001
  0
LINE
  5
427
330
18
100
AcDbEntity
  8
1
  6
CONTINUOUS
 62
     4
100
AcDbLine
 10
79.1
 20
-16.59
 30
0.0
 11
22.81999999999999
 21
-21.0
 31
0.0
  0
LINE
  5
428
330
18
100
AcDbEntity
  8
1
  6
CONTINUOUS
 62
     4
100
AcDbLine
 10
22.81999999999999
 20
-21.0
 30
0.0
 11
20.04999999999996
 21
-21.0
 31
0.0
  0
LINE
  5
429
330
18
100
AcDbEntity
  8
1
  6
CONTINUOUS
 62
     4
100
AcDbLine
 10
79.1
 20
16.59
 30
0.0
 11
22.81999999999999
 21
21.0
 31
0.0
  0
LINE
  5
42A
330
18
100
AcDbEntity
  8
1
  6
CONTINUOUS
 62
     4
100
AcDbLine
 10
22.81999999999999
 20
21.0
 30
0.0
 11
20.04999999999996
 21
21.0
 31
0.0
  0
LINE
  5
42B
330
18
100
AcDbEntity
  8
SK2
100
AcDbLine
 10
76.00099999999999
 20
9.001999999999998
 30
0.0
 11
100.0
 21
9.001999999999991
 31
0.0
  0
LINE
  5
42C
330
18
100
AcDbEntity
  8
SK2
100
AcDbLine
 10
76.0
 20
-8.998999999999998
 30
0.0
 11
100.0
 21
-8.999000000000005
 31
0.0
  0
LINE
  5
42D
330
18
100
AcDbEntity
  8
SK2
100
AcDbLine
 10
95.0
 20
4.431999999999993
 30
0.0
 11
95.0
 21
-4.429000000000003
 31
0.0
  0
SOLID
  5
42E
330
18
100
AcDbEntity
  8
SK2
100
AcDbTrace
 10
94.23833333333332
 20
4.431999999999993
 30
0.0
 11
95.76166666666667
 21
4.431999999999993
 31
0.0
 12
95.0
 22
9.001999999999993
 32
0.0
 13
95.0
 23
9.001999999999993
 33
0.0
  0
SOLID
  5
42F
330
18
100
AcDbEntity
  8
SK2
100
AcDbTrace
 10
94.23833333333332
 20
-4.429000000000003
 30
0.0
 11
95.76166666666667
 21
-4.429000000000003
 31
0.0
 12
95.0
 22
-8.999000000000004
 32
0.0
 13
95.0
 23
-8.999000000000004
 33
0.0
  0
LINE
  5
431
330
18
100
AcDbEntity
  8
SK2
100
AcDbLine
 10
80.71281904963143
 20
16.50199999999999
 30
0.0
 11
110.0
 21
16.50199999999999
 31
0.0
  0
LINE
  5
432
330
18
100
AcDbEntity
  8
SK2
100
AcDbLine
 10
80.71281904963143
 20
-16.50199999999999
 30
0.0
 11
110.0
 21
-16.502
 31
0.0
  0
LINE
  5
433
330
18
100
AcDbEntity
  8
SK2
100
AcDbLine
 10
105.0
 20
11.93199999999999
 30
0.0
 11
105.0
 21
-11.932
 31
0.0
  0
SOLID
  5
434
330
18
100
AcDbEntity
  8
SK2
100
AcDbTrace
 10
104.2383333333333
 20
11.93199999999999
 30
0.0
 11
105.7616666666666
 21
11.93199999999999
 31
0.0
 12
105.0
 22
16.50199999999999
 32
0.0
 13
105.0
 23
16.50199999999999
 33
0.0
  0
SOLID
  5
435
330
18
100
AcDbEntity
  8
SK2
100
AcDbTrace
 10
104.2383333333333
 20
-11.932
 30
0.0
 11
105.7616666666666
 21
-11.932
 31
0.0
 12
105.0
 22
-16.502
 32
0.0
 13
105.0
 23
-16.502
 33
0.0
  0
LINE
  5
437
330
18
100
AcDbEntity
  8
SK2
100
AcDbLine
 10
22.81999999999999
 20
21.0
 30
0.0
 11
125.0
 21
20.99999999999996
 31
0.0
  0
LINE
  5
438
330
18
100
AcDbEntity
  8
SK2
100
AcDbLine
 10
22.81999999999999
 20
-21.0
 30
0.0
 11
125.0
 21
-21.00000000000003
 31
0.0
  0
LINE
  5
439
330
18
100
AcDbEntity
  8
SK2
100
AcDbLine
 10
120.0
 20
16.42999999999997
 30
0.0
 11
120.0
 21
-16.43000000000002
 31
0.0
  0
SOLID
  5
43A
330
18
100
AcDbEntity
  8
SK2
100
AcDbTrace
 10
119.2383333333333
 20
16.42999999999997
 30
0.0
 11
120.7616666666666
 21
16.42999999999996
 31
0.0
 12
120.0
 22
20.99999999999997
 32
0.0
 13
120.0
 23
20.99999999999997
 33
0.0
  0
SOLID
  5
43B
330
18
100
AcDbEntity
  8
SK2
100
AcDbTrace
 10
119.2383333333333
 20
-16.43000000000002
 30
0.0
 11
120.7616666666666
 21
-16.43000000000003
 31
0.0
 12
120.0
 22
-21.00000000000002
 32
0.0
 13
120.0
 23
-21.00000000000002
 33
0.0
  0
LINE
  5
489
330
18
100
AcDbEntity
  8
SK3
100
AcDbLine
 10
10.00099999999999
 20
6.001000000000001
 30
0.0
 11
10.00099999999999
 21
-6.0
 31
0.0
  0
LINE
  5
514
330
18
100
AcDbEntity
  8
SK2
100
AcDbLine
 10
0.0
 20
34.92499999999999
 30
0.0
 11
0.0000000000000018
 21
65.0
 31
0.0
  0
LINE
  5
516
330
18
100
AcDbEntity
  8
1
  6
CONTINUOUS
 62
     4
100
AcDbLine
 10
14.33172999999999
 20
48.72499999999999
 30
0.0
 11
14.33172999999999
 21
38.61419999999999
 31
0.0
  0
LINE
  5
517
330
18
100
AcDbEntity
  8
1
  6
CONTINUOUS
 62
     4
100
AcDbLine
 10
7.868269999999995
 20
48.72499999999999
 30
0.0
 11
7.868269999999995
 21
38.61419999999999
 31
0.0
  0
LINE
  5
518
330
18
100
AcDbEntity
  8
1
  6
CONTINUOUS
 62
     4
100
AcDbLine
 10
9.224999999999994
 20
46.375
 30
0.0
 11
9.224999999999994
 21
33.97812999999999
 31
0.0
  0
LINE
  5
519
330
18
100
AcDbEntity
  8
1
  6
CONTINUOUS
 62
     4
100
AcDbLine
 10
12.97499999999999
 20
46.375
 30
0.0
 11
12.97499999999999
 21
33.97812999999999
 31
0.0
  0
LINE
  5
51A
330
18
100
AcDbEntity
  8
1
  6
CONTINUOUS
 62
     4
100
AcDbLine
 10
19.04999999999999
 20
-0.38673
 30
0.0
 11
19.04999999999999
 21
47.92499999999999
 31
0.0
  0
LINE
  5
51B
330
18
100
AcDbEntity
  8
1
  6
CONTINUOUS
 62
     4
100
AcDbLine
 10
3.200000000000002
 20
47.92499999999999
 30
0.0
 11
3.200000000000002
 21
0.0
 31
0.0
  0
LINE
  5
51D
330
18
100
AcDbEntity
  8
SK2
100
AcDbLine
 10
0.0
 20
34.92499999999999
 30
0.0
 11
0.000005258863064
 21
65.0
 31
0.0
  0
TEXT
  5
51E
330
18
100
AcDbEntity
  8
6
100
AcDbText
 10
-77.95
 20
16.0
 30
0.0
 40
3.5
  1
SK50 DIN69871A
  7
SIMPLEX
100
AcDbText
  0
LINE
  5
51F
330
18
100
AcDbEntity
  8
1
  6
CONTINUOUS
 62
     4
100
AcDbLine
 10
-99.67466999999999
 20
20.38899999999999
 30
0.0
 11
0.0
 21
34.92499999999999
 31
0.0
  0
LINE
  5
520
330
18
100
AcDbEntity
  8
1
  6
CONTINUOUS
 62
     4
100
AcDbLine
 10
-99.67466999999999
 20
-20.38899999999999
 30
0.0
 11
0.0
 21
-34.92499999999999
 31
0.0
  0
LINE
  5
521
330
18
100
AcDbEntity
  8
SK3
100
AcDbLine
 10
-88.6922
 20
10.5
 30
0.0
 11
-40.1
 21
10.5
 31
0.0
  0
LINE
  5
522
330
18
100
AcDbEntity
  8
SK3
100
AcDbLine
 10
-88.6922
 20
-10.5
 30
0.0
 11
-40.1
 21
-10.5
 31
0.0
  0
LINE
  5
523
330
18
100
AcDbEntity
  8
SK3
100
AcDbLine
 10
-89.85000000000001
 20
12.50526999999999
 30
0.0
 11
-100.35
 21
12.50526999999999
 31
0.0
  0
LINE
  5
524
330
18
100
AcDbEntity
  8
SK3
100
AcDbLine
 10
-89.85000000000001
 20
-12.50526999999999
 30
0.0
 11
-100.35
 21
-12.50526999999999
 31
0.0
  0
LINE
  5
526
330
18
100
AcDbEntity
  8
1
  6
CONTINUOUS
 62
     4
100
AcDbLine
 10
-101.6
 20
18.16259999999999
 30
0.0
 11
-101.6
 21
-18.16259999999999
 31
0.0
  0
ARC
  5
527
330
18
100
AcDbEntity
  8
1
  6
CONTINUOUS
 62
     4
100
AcDbCircle
 10
-99.35005410604937
 20
-18.16257705409053
 30
0.0
 40
2.249945253796061
100
AcDbArc
 50
179.9999748940505
 51
261.7046462976919
  0
ARC
  5
528
330
18
100
AcDbEntity
  8
SK3
100
AcDbCircle
 10
-100.35
 20
-13.75526999999999
 30
0.0
 40
1.25
100
AcDbArc
 50
90.0000000235031
 51
180.0000000235032
  0
ARC
  5
529
330
18
100
AcDbEntity
  8
1
  6
CONTINUOUS
 62
     4
100
AcDbCircle
 10
-99.34999193400109
 20
18.1625857567404
 30
0.0
 40
2.250003241709553
100
AcDbArc
 50
98.29651376075354
 51
179.9983766126642
  0
ARC
  5
52A
330
18
100
AcDbEntity
  8
SK3
100
AcDbCircle
 10
-100.35
 20
13.75526999999999
 30
0.0
 40
1.25
100
AcDbArc
 50
179.9999999999999
 51
270.0
  0
LINE
  5
52B
330
18
100
AcDbEntity
  8
SK3
100
AcDbLine
 10
-54.6
 20
12.0
 30
0.0
 11
-54.6
 21
-12.0
 31
0.0
  0
LINE
  5
52C
330
18
100
AcDbEntity
  8
SK3
100
AcDbLine
 10
-89.85000000000001
 20
12.50533
 30
0.0
 11
-89.85000000000001
 21
-12.50526999999999
 31
0.0
  0
LINE
  5
52D
330
18
100
AcDbEntity
  8
SK3
100
AcDbLine
 10
-89.85000000000001
 20
12.50533
 30
0.0
 11
-88.6922
 21
10.5
 31
0.0
  0
LINE
  5
52E
330
18
100
AcDbEntity
  8
SK3
100
AcDbLine
 10
-89.56127
 20
-12.0
 30
0.0
 11
-54.6
 21
-12.0
 31
0.0
  0
LINE
  5
52F
330
18
100
AcDbEntity
  8
SK3
100
AcDbLine
 10
-88.6922
 20
10.5
 30
0.0
 11
-88.6922
 21
-10.5
 31
0.0
  0
LINE
  5
530
330
18
100
AcDbEntity
  8
SK3
100
AcDbLine
 10
-89.85000000000001
 20
-12.50533
 30
0.0
 11
-88.6922
 21
-10.5
 31
0.0
  0
LINE
  5
531
330
18
100
AcDbEntity
  8
SK3
100
AcDbLine
 10
-89.56127
 20
12.0
 30
0.0
 11
-54.6
 21
12.0
 31
0.0
  0
LINE
  5
533
330
18
100
AcDbEntity
  8
1
  6
CONTINUOUS
 62
     4
100
AcDbLine
 10
14.33172999999999
 20
-48.725
 30
0.0
 11
14.33172999999999
 21
0.0
 31
0.0
  0
LINE
  5
534
330
18
100
AcDbEntity
  8
1
  6
CONTINUOUS
 62
     4
100
AcDbLine
 10
7.868269999999995
 20
-48.725
 30
0.0
 11
7.868269999999995
 21
0.0
 31
0.0
  0
LINE
  5
535
330
18
100
AcDbEntity
  8
1
  6
CONTINUOUS
 62
     4
100
AcDbLine
 10
0.0
 20
-34.92499999999999
 30
0.0
 11
0.0
 21
0.0
 31
0.0
  0
LINE
  5
536
330
18
100
AcDbEntity
  8
1
  6
CONTINUOUS
 62
     4
100
AcDbLine
 10
19.04999999999999
 20
-0.2518000000000029
 30
0.0
 11
19.04999999999999
 21
-47.92499999999999
 31
0.0
  0
LINE
  5
537
330
18
100
AcDbEntity
  8
1
  6
CONTINUOUS
 62
     4
100
AcDbLine
 10
3.200000000000002
 20
-47.92499999999999
 30
0.0
 11
3.200000000000002
 21
0.0
 31
0.0
  0
LINE
  5
538
330
18
100
AcDbEntity
  8
1
  6
CONTINUOUS
 62
     4
100
AcDbLine
 10
12.97499999999999
 20
-46.375
 30
0.0
 11
12.97499999999999
 21
0.0
 31
0.0
  0
LINE
  5
539
330
18
100
AcDbEntity
  8
1
  6
CONTINUOUS
 62
     4
100
AcDbLine
 10
9.224999999999994
 20
-46.375
 30
0.0
 11
9.224999999999994
 21
0.0
 31
0.0
  0
LINE
  5
53A
330
18
100
AcDbEntity
  8
1
  6
CONTINUOUS
 62
     4
100
AcDbLine
 10
12.97499999999999
 20
-46.375
 30
0.0
 11
14.33172999999999
 21
-48.725
 31
0.0
  0
ARC
  5
53B
330
18
100
AcDbEntity
  8
1
  6
CONTINUOUS
 62
     4
100
AcDbCircle
 10
12.22499999999999
 20
-46.25
 30
0.0
 40
0.75
100
AcDbArc
 50
0.0
 51
90.0
  0
LINE
  5
53C
330
18
100
AcDbEntity
  8
SK3
  6
HIDDEN
 62
     1
100
AcDbLine
 10
3.200000000000002
 20
-35.29999999999999
 30
0.0
 11
19.04999999999999
 21
-35.29999999999999
 31
0.0
  0
LINE
  5
53D
330
18
100
AcDbEntity
  8
1
  6
CONTINUOUS
 62
     4
100
AcDbLine
 10
9.224999999999994
 20
-46.375
 30
0.0
 11
7.868269999999995
 21
-48.725
 31
0.0
  0
LINE
  5
53E
330
18
100
AcDbEntity
  8
1
  6
CONTINUOUS
 62
     4
100
AcDbLine
 10
4.0
 20
-48.725
 30
0.0
 11
7.868269999999995
 21
-48.725
 31
0.0
  0
ARC
  5
53F
330
18
100
AcDbEntity
  8
1
  6
CONTINUOUS
 62
     4
100
AcDbCircle
 10
4.0
 20
-47.92499999999999
 30
0.0
 40
0.8000000000000024
100
AcDbArc
 50
180.0
 51
269.9999999999997
  0
LINE
  5
540
330
18
100
AcDbEntity
  8
1
  6
CONTINUOUS
 62
     4
100
AcDbLine
 10
9.974999999999994
 20
-45.49999999999999
 30
0.0
 11
12.22499999999999
 21
-45.49999999999999
 31
0.0
  0
ARC
  5
541
330
18
100
AcDbEntity
  8
1
  6
CONTINUOUS
 62
     4
100
AcDbCircle
 10
9.974999999999994
 20
-46.25
 30
0.0
 40
0.75
100
AcDbArc
 50
90.0000000235031
 51
180.0000000235031
  0
ARC
  5
542
330
18
100
AcDbEntity
  8
1
  6
CONTINUOUS
 62
     4
100
AcDbCircle
 10
2.399999999999991
 20
-35.45
 30
0.0
 40
0.8000000000000024
100
AcDbArc
 50
0.0
 51
89.99999999999975
  0
LINE
  5
543
330
18
100
AcDbEntity
  8
1
  6
CONTINUOUS
 62
     4
100
AcDbLine
 10
0.603669999999994
 20
-34.64999999999999
 30
0.0
 11
2.399999999999991
 21
-34.64999999999999
 31
0.0
  0
ARC
  5
544
330
18
100
AcDbEntity
  8
1
  6
CONTINUOUS
 62
     4
100
AcDbCircle
 10
0.6036393090150938
 20
-35.44999462144558
 30
0.0
 40
0.7999855478990954
100
AcDbArc
 50
89.99751641920186
 51
138.9859621731986
  0
ARC
  5
545
330
18
100
AcDbEntity
  8
1
  6
CONTINUOUS
 62
     4
100
AcDbCircle
 10
18.25
 20
-47.92499999999999
 30
0.0
 40
0.8000000000000042
100
AcDbArc
 50
270.0000000000001
 51
0.0
  0
LINE
  5
546
330
18
100
AcDbEntity
  8
1
  6
CONTINUOUS
 62
     4
100
AcDbLine
 10
14.33172999999999
 20
-48.725
 30
0.0
 11
18.25
 21
-48.725
 31
0.0
  0
LINE
  5
547
330
18
100
AcDbEntity
  8
4
  6
CENTER
 62
     2
100
AcDbLine
 10
-6.950000000000002
 20
0.0
 30
0.0
 11
19.04999999999999
 21
0.0
 31
0.0
  0
LINE
  5
548
330
18
100
AcDbEntity
  8
1
  6
CONTINUOUS
 62
     4
100
AcDbLine
 10
12.97499999999999
 20
33.97812999999999
 30
0.0
 11
14.33172999999999
 21
38.61419999999999
 31
0.0
  0
LINE
  5
549
330
18
100
AcDbEntity
  8
1
  6
CONTINUOUS
 62
     4
100
AcDbLine
 10
3.200000000000002
 20
30.0
 30
0.0
 11
19.04999999999999
 21
30.0
 31
0.0
  0
LINE
  5
54A
330
18
100
AcDbEntity
  8
SK3
  6
HIDDEN
 62
     1
100
AcDbLine
 10
3.200000000000002
 20
37.5
 30
0.0
 11
19.04999999999999
 21
37.5
 31
0.0
  0
LINE
  5
54B
330
18
100
AcDbEntity
  8
1
  6
CONTINUOUS
 62
     4
100
AcDbLine
 10
12.97499999999999
 20
30.0
 30
0.0
 11
12.97499999999999
 21
0.0
 31
0.0
  0
LINE
  5
54C
330
18
100
AcDbEntity
  8
1
  6
CONTINUOUS
 62
     4
100
AcDbLine
 10
7.868269999999995
 20
30.0
 30
0.0
 11
7.868269999999995
 21
0.0
 31
0.0
  0
LINE
  5
54D
330
18
100
AcDbEntity
  8
1
  6
CONTINUOUS
 62
     4
100
AcDbLine
 10
0.0
 20
34.92499999999999
 30
0.0
 11
0.0
 21
0.0
 31
0.0
  0
LINE
  5
54E
330
18
100
AcDbEntity
  8
1
  6
CONTINUOUS
 62
     4
100
AcDbLine
 10
9.224999999999994
 20
30.0
 30
0.0
 11
9.224999999999994
 21
0.0
 31
0.0
  0
LINE
  5
54F
330
18
100
AcDbEntity
  8
SK3
100
AcDbLine
 10
-40.1
 20
10.5
 30
0.0
 11
-40.1
 21
-10.5
 31
0.0
  0
LINE
  5
550
330
18
100
AcDbEntity
  8
SK3
100
AcDbLine
 10
-40.1
 20
-10.5
 30
0.0
 11
-36.92456190476191
 21
-5.0
 31
0.0
  0
LINE
  5
552
330
18
100
AcDbEntity
  8
SK3
100
AcDbLine
 10
-36.92568326285714
 20
5.001999999999998
 30
0.0
 11
-40.09993
 21
10.5
 31
0.0
  0
LINE
  5
553
330
18
100
AcDbEntity
  8
1
  6
CONTINUOUS
 62
     4
100
AcDbLine
 10
7.868269999999995
 20
38.61419999999999
 30
0.0
 11
9.224999999999994
 21
33.97812999999999
 31
0.0
  0
LINE
  5
554
330
18
100
AcDbEntity
  8
1
  6
CONTINUOUS
 62
     4
100
AcDbLine
 10
0.603669999999994
 20
34.65
 30
0.0
 11
2.399999999999991
 21
34.65
 31
0.0
  0
ARC
  5
555
330
18
100
AcDbEntity
  8
1
  6
CONTINUOUS
 62
     4
100
AcDbCircle
 10
0.6036393090150938
 20
35.44999462144557
 30
0.0
 40
0.7999855478990883
100
AcDbArc
 50
221.014037850304
 51
270.0024836043012
  0
ARC
  5
556
330
18
100
AcDbEntity
  8
1
  6
CONTINUOUS
 62
     4
100
AcDbCircle
 10
2.399999999999991
 20
35.45
 30
0.0
 40
0.8000000000000024
100
AcDbArc
 50
270.0000000235033
 51
0.0000000235031287
  0
LINE
  5
557
330
18
100
AcDbEntity
  8
1
  6
CONTINUOUS
 62
     4
100
AcDbLine
 10
9.224999999999994
 20
33.97812999999999
 30
0.0
 11
12.97499999999999
 21
33.97812999999999
 31
0.0
  0
LINE
  5
558
330
18
100
AcDbEntity
  8
1
  6
CONTINUOUS
 62
     4
100
AcDbLine
 10
3.200000000000002
 20
38.61419999999999
 30
0.0
 11
7.868269999999995
 21
38.61419999999999
 31
0.0
  0
LINE
  5
559
330
18
100
AcDbEntity
  8
1
  6
CONTINUOUS
 62
     4
100
AcDbLine
 10
14.33172999999999
 20
30.0
 30
0.0
 11
14.33172999999999
 21
0.0
 31
0.0
  0
LINE
  5
55A
330
18
100
AcDbEntity
  8
1
  6
CONTINUOUS
 62
     4
100
AcDbLine
 10
14.33172999999999
 20
38.61419999999999
 30
0.0
 11
19.04999999999999
 21
38.61419999999999
 31
0.0
  0
LINE
  5
55B
330
18
100
AcDbEntity
  8
SK2
100
AcDbLine
 10
4.570000000000002
 20
60.0
 30
0.0
 11
14.47999999999999
 21
60.0
 31
0.0
  0
LINE
  5
55C
330
18
100
AcDbEntity
  8
1
  6
CONTINUOUS
 62
     4
100
AcDbLine
 10
12.97499999999999
 20
46.375
 30
0.0
 11
14.33172999999999
 21
48.72499999999999
 31
0.0
  0
ARC
  5
55D
330
18
100
AcDbEntity
  8
1
  6
CONTINUOUS
 62
     4
100
AcDbCircle
 10
12.22499999999999
 20
46.25
 30
0.0
 40
0.75
100
AcDbArc
 50
270.0000000235031
 51
0.0000000235031287
  0
LINE
  5
55E
330
18
100
AcDbEntity
  8
1
  6
CONTINUOUS
 62
     4
100
AcDbLine
 10
4.0
 20
48.72499999999999
 30
0.0
 11
7.868269999999995
 21
48.72499999999999
 31
0.0
  0
ARC
  5
55F
330
18
100
AcDbEntity
  8
1
  6
CONTINUOUS
 62
     4
100
AcDbCircle
 10
4.0
 20
47.92499999999999
 30
0.0
 40
0.8000000000000024
100
AcDbArc
 50
90.00000002350338
 51
180.0000000235031
  0
ARC
  5
560
330
18
100
AcDbEntity
  8
1
  6
CONTINUOUS
 62
     4
100
AcDbCircle
 10
9.974999999999994
 20
46.25
 30
0.0
 40
0.75
100
AcDbArc
 50
180.0
 51
270.0
  0
LINE
  5
561
330
18
100
AcDbEntity
  8
1
  6
CONTINUOUS
 62
     4
100
AcDbLine
 10
9.224999999999994
 20
46.375
 30
0.0
 11
7.868269999999995
 21
48.72499999999999
 31
0.0
  0
LINE
  5
562
330
18
100
AcDbEntity
  8
1
  6
CONTINUOUS
 62
     4
100
AcDbLine
 10
9.974999999999994
 20
45.49999999999999
 30
0.0
 11
12.22499999999999
 21
45.49999999999999
 31
0.0
  0
SOLID
  5
563
330
18
100
AcDbEntity
  8
SK2
100
AcDbTrace
 10
4.570000000000002
 20
60.76166666666667
 30
0.0
 11
4.570000000000002
 21
59.23833333333333
 31
0.0
 12
0.0000000000000015
 22
60.0
 32
0.0
 13
0.0000000000000015
 23
60.0
 33
0.0
  0
LINE
  5
564
330
18
100
AcDbEntity
  8
SK2
100
AcDbLine
 10
19.04999999999999
 20
47.92499999999999
 30
0.0
 11
19.04999999999999
 21
65.0
 31
0.0
  0
ARC
  5
565
330
18
100
AcDbEntity
  8
1
  6
CONTINUOUS
 62
     4
100
AcDbCircle
 10
18.25
 20
47.92499999999999
 30
0.0
 40
0.8000000000000042
100
AcDbArc
 50
0.0000000235031287
 51
90.00000002350295
  0
LINE
  5
566
330
18
100
AcDbEntity
  8
1
  6
CONTINUOUS
 62
     4
100
AcDbLine
 10
14.33172999999999
 20
48.72499999999999
 30
0.0
 11
18.25
 21
48.72499999999999
 31
0.0
  0
SOLID
  5
567
330
18
100
AcDbEntity
  8
SK2
100
AcDbTrace
 10
14.47999999999999
 20
60.76166666666667
 30
0.0
 11
14.47999999999999
 21
59.23833333333333
 31
0.0
 12
19.04999999999999
 22
60.0
 32
0.0
 13
19.04999999999999
 23
60.0
 33
0.0
  0
LINE
  5
568
330
18
100
AcDbEntity
  8
SK2
100
AcDbLine
 10
19.04999999999999
 20
60.0
 30
0.0
 11
45.6295238095238
 21
60.0
 31
0.0
  0
LINE
  5
5BE
330
18
100
AcDbEntity
  8
SK3
100
AcDbLine
 10
-36.92568326285714
 20
5.001999999999999
 30
0.0
 11
-36.92456190476191
 21
-5.0
 31
0.0
  0
LINE
  5
616
330
18
100
AcDbEntity
  8
SK2
100
AcDbLine
 10
0.0
 20
-34.92499999999999
 30
0.0
 11
-14.95000000000001
 21
-34.92499999999999
 31
0.0
  0
LINE
  5
617
330
18
100
AcDbEntity
  8
SK2
100
AcDbLine
 10
0.0
 20
34.92499999999999
 30
0.0
 11
-14.95
 21
34.92499999999999
 31
0.0
  0
LINE
  5
618
330
18
100
AcDbEntity
  8
SK2
100
AcDbLine
 10
-9.950000000000017
 20
-30.35499999999999
 30
0.0
 11
-9.950000000000002
 21
30.355
 31
0.0
  0
SOLID
  5
619
330
18
100
AcDbEntity
  8
SK2
100
AcDbTrace
 10
-10.71166666666668
 20
-30.35499999999999
 30
0.0
 11
-9.18833333333335
 21
-30.35499999999999
 31
0.0
 12
-9.950000000000017
 22
-34.92499999999999
 32
0.0
 13
-9.950000000000017
 23
-34.92499999999999
 33
0.0
  0
SOLID
  5
61A
330
18
100
AcDbEntity
  8
SK2
100
AcDbTrace
 10
-10.71166666666667
 20
30.355
 30
0.0
 11
-9.188333333333336
 21
30.355
 31
0.0
 12
-9.950000000000002
 22
34.92499999999999
 32
0.0
 13
-9.950000000000002
 23
34.92499999999999
 33
0.0
  0
LINE
  5
61C
330
18
100
AcDbEntity
  8
SK2
100
AcDbLine
 10
-89.56127
 20
-12.0
 30
0.0
 11
-121.95
 21
-11.99999999999999
 31
0.0
  0
LINE
  5
61D
330
18
100
AcDbEntity
  8
SK2
100
AcDbLine
 10
-89.56127
 20
12.0
 30
0.0
 11
-121.95
 21
12.00000000000001
 31
0.0
  0
LINE
  5
61E
330
18
100
AcDbEntity
  8
SK2
100
AcDbLine
 10
-116.9499999999999
 20
-7.429999999999991
 30
0.0
 11
-116.9499999999999
 21
7.430000000000007
 31
0.0
  0
SOLID
  5
61F
330
18
100
AcDbEntity
  8
SK2
100
AcDbTrace
 10
-117.7116666666666
 20
-7.429999999999991
 30
0.0
 11
-116.1883333333333
 21
-7.429999999999991
 31
0.0
 12
-116.9499999999999
 22
-11.99999999999999
 32
0.0
 13
-116.9499999999999
 23
-11.99999999999999
 33
0.0
  0
SOLID
  5
620
330
18
100
AcDbEntity
  8
SK2
100
AcDbTrace
 10
-117.7116666666666
 20
7.430000000000007
 30
0.0
 11
-116.1883333333333
 21
7.430000000000007
 31
0.0
 12
-116.9499999999999
 22
12.00000000000001
 32
0.0
 13
-116.9499999999999
 23
12.00000000000001
 33
0.0
  0
LINE
  5
622
330
18
100
AcDbEntity
  8
SK2
100
AcDbLine
 10
4.0
 20
-48.725
 30
0.0
 11
-136.9499999999999
 21
-48.72499999999996
 31
0.0
  0
LINE
  5
623
330
18
100
AcDbEntity
  8
SK2
100
AcDbLine
 10
4.0
 20
48.72499999999999
 30
0.0
 11
-136.9499999999999
 21
48.72500000000003
 31
0.0
  0
LINE
  5
624
330
18
100
AcDbEntity
  8
SK2
100
AcDbLine
 10
-131.9499999999999
 20
-44.15499999999997
 30
0.0
 11
-131.9499999999999
 21
44.15500000000003
 31
0.0
  0
SOLID
  5
625
330
18
100
AcDbEntity
  8
SK2
100
AcDbTrace
 10
-132.7116666666666
 20
-44.15499999999997
 30
0.0
 11
-131.1883333333333
 21
-44.15499999999997
 31
0.0
 12
-131.9499999999999
 22
-48.72499999999996
 32
0.0
 13
-131.9499999999999
 23
-48.72499999999996
 33
0.0
  0
SOLID
  5
626
330
18
100
AcDbEntity
  8
SK2
100
AcDbTrace
 10
-132.7116666666666
 20
44.15500000000003
 30
0.0
 11
-131.1883333333333
 21
44.15500000000003
 31
0.0
 12
-131.9499999999999
 22
48.72500000000003
 32
0.0
 13
-131.9499999999999
 23
48.72500000000003
 33
0.0
  0
LINE
  5
628
330
18
100
AcDbEntity
  8
SK2
100
AcDbLine
 10
0.0
 20
34.92499999999999
 30
0.0
 11
0.0000000000000028
 21
80.0
 31
0.0
  0
LINE
  5
629
330
18
100
AcDbEntity
  8
SK2
100
AcDbLine
 10
-101.5999951748075
 20
18.16264950710383
 30
0.0
 11
-101.5999951748075
 21
80.0
 31
0.0
  0
LINE
  5
62A
330
18
100
AcDbEntity
  8
SK2
100
AcDbLine
 10
-4.569999999999997
 20
75.0
 30
0.0
 11
-97.02999517480751
 21
75.0
 31
0.0
  0
SOLID
  5
62B
330
18
100
AcDbEntity
  8
SK2
100
AcDbTrace
 10
-4.569999999999997
 20
75.76166666666667
 30
0.0
 11
-4.569999999999997
 21
74.23833333333333
 31
0.0
 12
0.0000000000000025
 22
75.0
 32
0.0
 13
0.0000000000000025
 23
75.0
 33
0.0
  0
SOLID
  5
62C
330
18
100
AcDbEntity
  8
SK2
100
AcDbTrace
 10
-97.02999517480751
 20
75.76166666666667
 30
0.0
 11
-97.02999517480751
 21
74.23833333333333
 31
0.0
 12
-101.5999951748075
 22
75.0
 32
0.0
 13
-101.5999951748075
 23
75.0
 33
0.0
  0
ARC
  5
62E
330
18
100
AcDbEntity
  8
SK2
100
AcDbCircle
 10
22.81999999999998
 20
20.99999999999999
 30
0.0
 40
29.70354547582355
100
AcDbArc
 50
337.8717913610447
 51
346.6956758556298
  0
ARC
  5
62F
330
18
100
AcDbEntity
  8
SK2
100
AcDbCircle
 10
22.81999999999998
 20
20.99999999999999
 30
0.0
 40
29.70354547582355
100
AcDbArc
 50
8.823884494585017
 51
17.64776898917005
  0
SOLID
  5
630
330
18
100
AcDbEntity
  8
SK2
100
AcDbTrace
 10
50.97383534997701
 20
14.2822632627343
 30
0.0
 11
52.47885886783947
 21
14.04678788158939
 31
0.0
 12
52.43277325234297
 22
18.67959612574924
 32
0.0
 13
52.43277325234297
 23
18.67959612574924
 33
0.0
  0
SOLID
  5
631
330
18
100
AcDbEntity
  8
SK2
100
AcDbTrace
 10
52.93139945036548
 20
25.61505051397721
 30
0.0
 11
51.41258014991114
 21
25.4978652887488
 31
0.0
 12
52.52354547582354
 22
20.99999999999999
 32
0.0
 13
52.52354547582354
 23
20.99999999999999
 33
0.0
  0
LINE
  5
633
330
18
100
AcDbEntity
  8
SK2
100
AcDbLine
 10
29.99999999999433
 20
-17.57399523525114
 30
0.0
 11
29.99999999999433
 21
-35.0
 31
0.0
  0
LINE
  5
634
330
18
100
AcDbEntity
  8
SK2
100
AcDbLine
 10
39.99999999999433
 20
-17.57399523525114
 30
0.0
 11
39.99999999999433
 21
-35.0
 31
0.0
  0
LINE
  5
635
330
18
100
AcDbEntity
  8
SK2
100
AcDbLine
 10
25.42999999999433
 20
-30.0
 30
0.0
 11
20.85999999999433
 21
-30.0
 31
0.0
  0
LINE
  5
636
330
18
100
AcDbEntity
  8
SK2
100
AcDbLine
 10
44.56999999999433
 20
-30.0
 30
0.0
 11
60.26857142856576
 21
-30.0
 31
0.0
  0
SOLID
  5
637
330
18
100
AcDbEntity
  8
SK2
100
AcDbTrace
 10
25.42999999999433
 20
-29.23833333333333
 30
0.0
 11
25.42999999999433
 21
-30.76166666666666
 31
0.0
 12
29.99999999999433
 22
-30.0
 32
0.0
 13
29.99999999999433
 23
-30.0
 33
0.0
  0
SOLID
  5
638
330
18
100
AcDbEntity
  8
SK2
100
AcDbTrace
 10
44.56999999999433
 20
-29.23833333333333
 30
0.0
 11
44.56999999999433
 21
-30.76166666666666
 31
0.0
 12
39.99999999999433
 22
-30.0
 32
0.0
 13
39.99999999999433
 23
-30.0
 33
0.0
  0
LINE
  5
63A
330
18
100
AcDbEntity
  8
SK2
100
AcDbLine
 10
29.99999999999433
 20
-17.57399523525114
 30
0.0
 11
29.99999999999432
 21
-50.0
 31
0.0
  0
LINE
  5
63B
330
18
100
AcDbEntity
  8
SK2
100
AcDbLine
 10
79.99999999999433
 20
-17.57399523525114
 30
0.0
 11
79.99999999999433
 21
-50.0
 31
0.0
  0
LINE
  5
63C
330
18
100
AcDbEntity
  8
SK2
100
AcDbLine
 10
34.56999999999433
 20
-45.0
 30
0.0
 11
75.42999999999432
 21
-45.0
 31
0.0
  0
SOLID
  5
63D
330
18
100
AcDbEntity
  8
SK2
100
AcDbTrace
 10
34.56999999999433
 20
-44.23833333333333
 30
0.0
 11
34.56999999999433
 21
-45.76166666666667
 31
0.0
 12
29.99999999999433
 22
-45.0
 32
0.0
 13
29.99999999999433
 23
-45.0
 33
0.0
  0
SOLID
  5
63E
330
18
100
AcDbEntity
  8
SK2
100
AcDbTrace
 10
75.42999999999432
 20
-44.23833333333333
 30
0.0
 11
75.42999999999432
 21
-45.76166666666667
 31
0.0
 12
79.99999999999433
 22
-45.0
 32
0.0
 13
79.99999999999433
 23
-45.0
 33
0.0
  0
LINE
  5
640
330
18
100
AcDbEntity
  8
2
100
AcDbLine
 10
0.0
 20
34.92499999999999
 30
0.0
 11
0.0000000000000028
 21
80.0
 31
0.0
  0
LINE
  5
641
330
18
100
AcDbEntity
  8
2
100
AcDbLine
 10
79.99999999999999
 20
9.560000000000002
 30
0.0
 11
79.99999999999999
 21
80.0
 31
0.0
  0
LINE
  5
642
330
18
100
AcDbEntity
  8
2
100
AcDbLine
 10
4.570000000000002
 20
75.0
 30
0.0
 11
75.42999999999998
 21
75.0
 31
0.0
  0
SOLID
  5
643
330
18
100
AcDbEntity
  8
2
100
AcDbTrace
 10
4.570000000000002
 20
75.76166666666667
 30
0.0
 11
4.570000000000002
 21
74.23833333333333
 31
0.0
 12
0.0000000000000025
 22
75.0
 32
0.0
 13
0.0000000000000025
 23
75.0
 33
0.0
  0
SOLID
  5
644
330
18
100
AcDbEntity
  8
2
100
AcDbTrace
 10
75.42999999999998
 20
75.76166666666667
 30
0.0
 11
75.42999999999998
 21
74.23833333333333
 31
0.0
 12
79.99999999999999
 22
75.0
 32
0.0
 13
79.99999999999999
 23
75.0
 33
0.0
  0
TEXT
  5
646
330
18
100
AcDbEntity
  8
2
100
AcDbText
 10
36.30047619047618
 20
77.3
 30
0.0
 40
4.57
  1
80
  7
SIMPLEX
100
AcDbText
  0
TEXT
  5
647
330
18
100
AcDbEntity
  8
SK2
100
AcDbText
 10
51.30047619047052
 20
-42.7
 30
0.0
 40
4.57
  1
50
  7
SIMPLEX
100
AcDbText
  0
TEXT
  5
648
330
18
100
AcDbEntity
  8
SK2
100
AcDbText
 10
51.43999999999433
 20
-27.7
 30
0.0
 40
4.57
  1
10
  7
SIMPLEX
100
AcDbText
  0
TEXT
  5
649
330
18
100
AcDbEntity
  8
SK2
100
AcDbText
 10
51.66260516092331
 20
36.06170869860162
 30
0.0
 40
4.57
  1
4.5°
 50
287.1703176077301
  7
SIMPLEX
100
AcDbText
  0
TEXT
  5
64A
330
18
100
AcDbEntity
  8
SK2
100
AcDbText
 10
-58.96071187311804
 20
77.3
 30
0.0
 40
4.57
  1
101.6
  7
SIMPLEX
100
AcDbText
  0
TEXT
  5
64B
330
18
100
AcDbEntity
  8
SK2
100
AcDbText
 10
-134.25
 20
-11.20738095238093
 30
0.0
 40
4.57
  1
%%c
 50
90.0
  7
SIMPLEX
100
AcDbText
  0
TEXT
  5
64C
330
18
100
AcDbEntity
  8
SK2
100
AcDbText
 10
-134.25
 20
-7.072619047619034
 30
0.0
 40
4.57
  1
97.45
 50
90.0
  7
SIMPLEX
100
AcDbText
  0
TEXT
  5
64D
330
18
100
AcDbEntity
  8
SK2
100
AcDbText
 10
-119.25
 20
-6.419761904761915
 30
0.0
 40
4.57
  1
M24
 50
90.0
  7
SIMPLEX
100
AcDbText
  0
TEXT
  5
64E
330
18
100
AcDbEntity
  8
SK2
100
AcDbText
 10
-12.25000000000001
 20
-11.20738095238095
 30
0.0
 40
4.57
  1
%%c
 50
90.0
  7
SIMPLEX
100
AcDbText
  0
TEXT
  5
64F
330
18
100
AcDbEntity
  8
SK2
100
AcDbText
 10
-12.25000000000001
 20
-7.072619047619046
 30
0.0
 40
4.57
  1
69.85
 50
90.0
  7
SIMPLEX
100
AcDbText
  0
TEXT
  5
650
330
18
100
AcDbEntity
  8
SK2
100
AcDbText
 10
29.07547619047619
 20
62.30000000000001
 30
0.0
 40
4.57
  1
19.1
  7
SIMPLEX
100
AcDbText
  0
TEXT
  5
651
330
18
100
AcDbEntity
  8
SK2
100
AcDbText
 10
117.7
 20
-5.766904761904774
 30
0.0
 40
4.57
  1
%%c
 50
90.0
  7
SIMPLEX
100
AcDbText
  0
TEXT
  5
652
330
18
100
AcDbEntity
  8
SK2
100
AcDbText
 10
117.7
 20
-1.632142857142869
 30
0.0
 40
4.57
  1
42
 50
90.0
  7
SIMPLEX
100
AcDbText
  0
TEXT
  5
653
330
18
100
AcDbEntity
  8
SK2
100
AcDbText
 10
102.7
 20
-5.766904761904751
 30
0.0
 40
4.57
  1
%%c
 50
90.0
  7
SIMPLEX
100
AcDbText
  0
TEXT
  5
654
330
18
100
AcDbEntity
  8
SK2
100
AcDbText
 10
102.7
 20
-1.632142857142846
 30
0.0
 40
4.57
  1
33
 50
90.0
  7
SIMPLEX
100
AcDbText
  0
TEXT
  5
655
330
18
100
AcDbEntity
  8
SK2
100
AcDbText
 10
92.70000000000001
 20
-5.330166666666656
 30
0.0
 40
4.57
  1
%%c
 50
90.0
  7
SIMPLEX
100
AcDbText
  0
TEXT
  5
656
330
18
100
AcDbEntity
  8
SK2
100
AcDbText
 10
92.70000000000001
 20
-1.195404761904751
 30
0.0
 40
4.57
  1
18
 50
90.0
  7
SIMPLEX
100
AcDbText
  0
ENDSEC
  0
SECTION
  2
OBJECTS
  0
DICTIONARY
  5
C
330
0
100
AcDbDictionary
  3
ACAD_GROUP
350
D
  3
ACAD_LAYOUT
350
301
  3
ACAD_MLINESTYLE
350
E
  3
ACAD_PLOTSETTINGS
350
302
1001
ACAD
1000
TREAT_AS_HARD
1070
     0
  0
DICTIONARY
  5
658
330
18
100
AcDbDictionary
  3
ACAD_LAYOUTSELFREF
350
659
  0
DICTIONARY
  5
65A
330
338
100
AcDbDictionary
  3
ACAD_LAYOUTSELFREF
350
65B
  0
DICTIONARY
  5
D
102
{ACAD_REACTORS
330
C
102
}
330
C
100
AcDbDictionary
1001
ACAD
1000
TREAT_AS_HARD
1070
     0
  0
DICTIONARY
  5
301
102
{ACAD_REACTORS
330
C
102
}
330
C
100
AcDbDictionary
1001
ACAD
1000
TREAT_AS_HARD
1070
     0
  0
DICTIONARY
  5
E
102
{ACAD_REACTORS
330
C
102
}
330
C
100
AcDbDictionary
  3
STANDARD
350
1B
1001
ACAD
1000
TREAT_AS_HARD
1070
     0
  0
DICTIONARY
  5
302
102
{ACAD_REACTORS
330
C
102
}
330
C
100
AcDbDictionary
1001
ACAD
1000
TREAT_AS_HARD
1070
     0
  0
XRECORD
  5
659
102
{ACAD_REACTORS
330
658
102
}
330
658
100
AcDbXrecord
340
18
  0
XRECORD
  5
65B
102
{ACAD_REACTORS
330
65A
102
}
330
65A
100
AcDbXrecord
340
338
  0
MLINESTYLE
  5
1B
102
{ACAD_REACTORS
330
E
102
}
330
E
100
AcDbMlineStyle
  2
STANDARD
 70
     0
  3

 62
     0
 51
90.0
 52
90.0
 71
     2
 49
0.5
 62
   256
  6
BYLAYER
 49
-0.5
 62
   256
  6
BYLAYER
  0
ENDSEC
  0
EOF
