  0
SECTION
  2
HEADER
  9
$ACADVER
  1
AC1012
  9
$DWGCODEPAGE
  3
ANSI_1252
  9
$INSBASE
 10
0.0
 20
0.0
 30
0.0
  9
$EXTMIN
 10
-71.87931651887402
 20
-50.00732307788837
 30
-0.0015258207003583
  9
$EXTMAX
 10
130.0287181923965
 20
81.8743904422438
 30
0.0000000349246037
  9
$LIMMIN
 10
-170.0
 20
-170.0
  9
$LIMMAX
 10
519.0
 20
260.0
  9
$ORTHOMODE
 70
     1
  9
$REGENMODE
 70
     1
  9
$FILLMODE
 70
     1
  9
$QTEXTMODE
 70
     0
  9
$MIRRTEXT
 70
     0
  9
$DRAGMODE
 70
     2
  9
$LTSCALE
 40
15.0
  9
$OSMODE
 70
     0
  9
$ATTMODE
 70
     1
  9
$TEXTSIZE
 40
4.57
  9
$TRACEWID
 40
0.05
  9
$TEXTSTYLE
  7
SIMPLEX
  9
$CLAYER
  8
SK2
  9
$CELTYPE
  6
BYLAYER
  9
$CECOLOR
 62
   256
  9
$CELTSCALE
 40
1.0
  9
$DELOBJ
 70
     1
  9
$DISPSILH
 70
     0
  9
$DIMSCALE
 40
0.0
  9
$DIMASZ
 40
4.57
  9
$DIMEXO
 40
0.0
  9
$DIMDLI
 40
0.38
  9
$DIMRND
 40
0.0
  9
$DIMDLE
 40
0.0
  9
$DIMEXE
 40
5.0
  9
$DIMTP
 40
0.0
  9
$DIMTM
 40
0.0
  9
$DIMTXT
 40
4.57
  9
$DIMCEN
 40
0.09
  9
$DIMTSZ
 40
0.0
  9
$DIMTOL
 70
     0
  9
$DIMLIM
 70
     0
  9
$DIMTIH
 70
     0
  9
$DIMTOH
 70
     0
  9
$DIMSE1
 70
     0
  9
$DIMSE2
 70
     0
  9
$DIMTAD
 70
     1
  9
$DIMZIN
 70
     8
  9
$DIMBLK
  1

  9
$DIMASO
 70
     1
  9
$DIMSHO
 70
     1
  9
$DIMPOST
  1

  9
$DIMAPOST
  1

  9
$DIMALT
 70
     0
  9
$DIMALTD
 70
     2
  9
$DIMALTF
 40
25.4
  9
$DIMLFAC
 40
1.0
  9
$DIMTOFL
 70
     0
  9
$DIMTVP
 40
0.0
  9
$DIMTIX
 70
     0
  9
$DIMSOXD
 70
     0
  9
$DIMSAH
 70
     0
  9
$DIMBLK1
  1

  9
$DIMBLK2
  1

  9
$DIMSTYLE
  2
STANDARD
  9
$DIMCLRD
 70
     0
  9
$DIMCLRE
 70
     0
  9
$DIMCLRT
 70
     0
  9
$DIMTFAC
 40
1.0
  9
$DIMGAP
 40
2.299999999999999
  9
$DIMJUST
 70
     0
  9
$DIMSD1
 70
     0
  9
$DIMSD2
 70
     0
  9
$DIMTOLJ
 70
     1
  9
$DIMTZIN
 70
     0
  9
$DIMALTZ
 70
     0
  9
$DIMALTTZ
 70
     0
  9
$DIMFIT
 70
     3
  9
$DIMUPT
 70
     0
  9
$DIMUNIT
 70
     2
  9
$DIMDEC
 70
     2
  9
$DIMTDEC
 70
     4
  9
$DIMALTU
 70
     2
  9
$DIMALTTD
 70
     2
  9
$DIMTXSTY
  7
SIMPLEX
  9
$DIMAUNIT
 70
     0
  9
$LUNITS
 70
     2
  9
$LUPREC
 70
     2
  9
$SKETCHINC
 40
0.1
  9
$FILLETRAD
 40
0.0
  9
$AUNITS
 70
     0
  9
$AUPREC
 70
     0
  9
$MENU
  1
c:\tdm21\cad\caduti13\tdm13
  9
$ELEVATION
 40
0.0
  9
$PELEVATION
 40
0.0
  9
$THICKNESS
 40
0.0
  9
$LIMCHECK
 70
     0
  9
$BLIPMODE
 70
     0
  9
$CHAMFERA
 40
0.0
  9
$CHAMFERB
 40
0.0
  9
$CHAMFERC
 40
0.0
  9
$CHAMFERD
 40
0.0
  9
$SKPOLY
 70
     0
  9
$TDCREATE
 40
2452567.668015972
  9
$TDUPDATE
 40
2452567.668015972
  9
$TDINDWG
 40
0.0034258102
  9
$TDUSRTIMER
 40
0.0034175926
  9
$USRTIMER
 70
     1
  9
$ANGBASE
 50
0.0
  9
$ANGDIR
 70
     0
  9
$PDMODE
 70
     1
  9
$PDSIZE
 40
0.0
  9
$PLINEWID
 40
0.0
  9
$COORDS
 70
     1
  9
$SPLFRAME
 70
     0
  9
$SPLINETYPE
 70
     6
  9
$SPLINESEGS
 70
     8
  9
$ATTDIA
 70
     0
  9
$ATTREQ
 70
     1
  9
$HANDLING
 70
  4097
  9
$HANDSEED
  5
5FC
  9
$SURFTAB1
 70
     6
  9
$SURFTAB2
 70
     6
  9
$SURFTYPE
 70
     6
  9
$SURFU
 70
     6
  9
$SURFV
 70
     6
  9
$UCSNAME
  2

  9
$UCSORG
 10
0.0
 20
0.0
 30
0.0
  9
$UCSXDIR
 10
1.0
 20
0.0
 30
0.0
  9
$UCSYDIR
 10
0.0
 20
1.0
 30
0.0
  9
$PUCSNAME
  2

  9
$PUCSORG
 10
0.0
 20
0.0
 30
0.0
  9
$PUCSXDIR
 10
1.0
 20
0.0
 30
0.0
  9
$PUCSYDIR
 10
0.0
 20
1.0
 30
0.0
  9
$USERI1
 70
     0
  9
$USERI2
 70
     0
  9
$USERI3
 70
     0
  9
$USERI4
 70
     0
  9
$USERI5
 70
     0
  9
$USERR1
 40
0.0
  9
$USERR2
 40
0.0
  9
$USERR3
 40
0.0
  9
$USERR4
 40
0.0
  9
$USERR5
 40
0.0
  9
$WORLDVIEW
 70
     1
  9
$SHADEDGE
 70
     3
  9
$SHADEDIF
 70
    70
  9
$TILEMODE
 70
     1
  9
$MAXACTVP
 70
    16
  9
$PINSBASE
 10
0.0
 20
0.0
 30
0.0
  9
$PLIMCHECK
 70
     0
  9
$PEXTMIN
 10
0.0
 20
0.0
 30
0.0
  9
$PEXTMAX
 10
0.0
 20
0.0
 30
0.0
  9
$PLIMMIN
 10
0.0
 20
0.0
  9
$PLIMMAX
 10
12.0
 20
9.0
  9
$UNITMODE
 70
     0
  9
$VISRETAIN
 70
     0
  9
$PLINEGEN
 70
     0
  9
$PSLTSCALE
 70
     1
  9
$TREEDEPTH
 70
  3020
  9
$PICKSTYLE
 70
     1
  9
$CMLSTYLE
  2
STANDARD
  9
$CMLJUST
 70
     0
  9
$CMLSCALE
 40
1.0
  9
$SAVEIMAGES
 70
     1
  0
ENDSEC
  0
SECTION
  2
CLASSES
  0
CLASS
  1
ACDBDICTIONARYWDFLT
  2
AcDbDictionaryWithDefault
  3
AutoCAD 2000
 90
    32768
280
     0
281
     0
  0
CLASS
  1
ACDBPLACEHOLDER
  2
AcDbPlaceHolder
  3
AutoCAD 2000
 90
    32768
280
     0
281
     0
  0
CLASS
  1
LAYOUT
  2
AcDbLayout
  3
AutoCAD 2000
 90
    32768
280
     0
281
     0
  0
CLASS
  1
LONG_TRANSACTION
  2
AcDbLongTransaction
  3
AutoCAD 2000
 90
    32768
280
     0
281
     0
  0
CLASS
  1
LWPOLYLINE
  2
AcDbPolyline
  3
AutoCAD 2000
 90
    32768
280
     0
281
     1
  0
CLASS
  1
HATCH
  2
AcDbHatch
  3
AutoCAD 2000
 90
    32768
280
     0
281
     1
  0
CLASS
  1
XRECORD
  2
AcDbXrecord
  3
AutoCAD 2000
 90
    32768
280
     0
281
     0
  0
ENDSEC
  0
SECTION
  2
TABLES
  0
TABLE
  2
VPORT
  5
8
330
0
100
AcDbSymbolTable
 70
     3
  0
VPORT
  5
5C7
330
8
100
AcDbSymbolTableRecord
100
AcDbViewportTableRecord
  2
*ACTIVE
 70
     0
 10
0.0
 20
0.0
 11
1.0
 21
1.0
 12
29.07470083676128
 22
15.93353368217771
 13
0.0
 23
0.0
 14
5.0
 24
5.0
 15
5.0
 25
5.0
 16
0.0
 26
0.0
 36
1.0
 17
0.0
 27
0.0
 37
0.0
 40
141.8817135201321
 41
2.234527687296417
 42
50.0
 43
0.0
 44
0.0
 50
0.0
 51
0.0
 71
     0
 72
   100
 73
     1
 74
     1
 75
     0
 76
     0
 77
     0
 78
     0
  0
ENDTAB
  0
TABLE
  2
LTYPE
  5
5
330
0
100
AcDbSymbolTable
 70
     3
  0
LTYPE
  5
12
330
5
100
AcDbSymbolTableRecord
100
AcDbLinetypeTableRecord
  2
BYBLOCK
 70
     0
  3

 72
    65
 73
     0
 40
0.0
  0
LTYPE
  5
13
330
5
100
AcDbSymbolTableRecord
100
AcDbLinetypeTableRecord
  2
BYLAYER
 70
     0
  3

 72
    65
 73
     0
 40
0.0
  0
LTYPE
  5
14
330
5
100
AcDbSymbolTableRecord
100
AcDbLinetypeTableRecord
  2
CONTINUOUS
 70
     0
  3
Solid line
 72
    65
 73
     0
 40
0.0
  0
LTYPE
  5
1F
330
5
100
AcDbSymbolTableRecord
100
AcDbLinetypeTableRecord
  2
CENTER
 70
     0
  3
____ . ____ . ____
 72
    65
 73
     4
 40
1.5
 49
1.0
 74
     0
 49
-0.25
 74
     0
 49
0.0
 74
     0
 49
-0.25
 74
     0
  0
LTYPE
  5
20
330
5
100
AcDbSymbolTableRecord
100
AcDbLinetypeTableRecord
  2
HIDDEN
 70
     0
  3
_ _ _ _ _ _ _ _ _ _ _ _ _ _ _ _ _ _ _ _ _ _ _
 72
    65
 73
     2
 40
0.375
 49
0.25
 74
     0
 49
-0.125
 74
     0
  0
ENDTAB
  0
TABLE
  2
LAYER
  5
2
330
0
100
AcDbSymbolTable
 70
    15
  0
LAYER
  5
F
330
2
100
AcDbSymbolTableRecord
100
AcDbLayerTableRecord
  2
0
 70
     0
 62
    -7
  6
CONTINUOUS
  0
LAYER
  5
23
330
2
100
AcDbSymbolTableRecord
100
AcDbLayerTableRecord
  2
1
 70
     0
 62
     4
  6
CONTINUOUS
  0
LAYER
  5
24
330
2
100
AcDbSymbolTableRecord
100
AcDbLayerTableRecord
  2
SK1
 70
     0
 62
     4
  6
CONTINUOUS
  0
LAYER
  5
25
330
2
100
AcDbSymbolTableRecord
100
AcDbLayerTableRecord
  2
2
 70
     0
 62
     7
  6
CONTINUOUS
  0
LAYER
  5
26
330
2
100
AcDbSymbolTableRecord
100
AcDbLayerTableRecord
  2
2L
 70
     0
 62
     7
  6
CONTINUOUS
  0
LAYER
  5
27
330
2
100
AcDbSymbolTableRecord
100
AcDbLayerTableRecord
  2
SK2
 70
     0
 62
     7
  6
CONTINUOUS
  0
LAYER
  5
28
330
2
100
AcDbSymbolTableRecord
100
AcDbLayerTableRecord
  2
3
 70
     0
 62
     1
  6
HIDDEN
  0
LAYER
  5
29
330
2
100
AcDbSymbolTableRecord
100
AcDbLayerTableRecord
  2
SK3
 70
     0
 62
     1
  6
HIDDEN
  0
LAYER
  5
2A
330
2
100
AcDbSymbolTableRecord
100
AcDbLayerTableRecord
  2
4
 70
     0
 62
    -2
  6
CENTER
  0
LAYER
  5
2B
330
2
100
AcDbSymbolTableRecord
100
AcDbLayerTableRecord
  2
SK4
 70
     0
 62
     2
  6
CENTER
  0
LAYER
  5
2C
330
2
100
AcDbSymbolTableRecord
100
AcDbLayerTableRecord
  2
5
 70
     0
 62
    -7
  6
CONTINUOUS
  0
LAYER
  5
2D
330
2
100
AcDbSymbolTableRecord
100
AcDbLayerTableRecord
  2
6
 70
     0
 62
     5
  6
CONTINUOUS
  0
LAYER
  5
2E
330
2
100
AcDbSymbolTableRecord
100
AcDbLayerTableRecord
  2
SK6
 70
     0
 62
     5
  6
CONTINUOUS
  0
LAYER
  5
2F
330
2
100
AcDbSymbolTableRecord
100
AcDbLayerTableRecord
  2
DEFPOINTS
 70
     0
 62
    -7
  6
CONTINUOUS
  0
LAYER
  5
375
330
2
100
AcDbSymbolTableRecord
100
AcDbLayerTableRecord
  2
1__1
 70
     0
 62
    -1
  6
CONTINUOUS
  0
ENDTAB
  0
TABLE
  2
STYLE
  5
3
330
0
100
AcDbSymbolTable
 70
     3
  0
STYLE
  5
10
330
3
100
AcDbSymbolTableRecord
100
AcDbTextStyleTableRecord
  2
STANDARD
 70
     0
 40
0.0
 41
1.0
 50
0.0
 71
     0
 42
5.0
  3
txt
  4

  0
STYLE
  5
1D
330
3
100
AcDbSymbolTableRecord
100
AcDbTextStyleTableRecord
  2
TXT
 70
     0
 40
8.0
 41
1.0
 50
0.0
 71
     0
 42
8.0
  3
txt
  4

  0
STYLE
  5
1E
330
3
100
AcDbSymbolTableRecord
100
AcDbTextStyleTableRecord
  2
SIMPLEX
 70
     0
 40
0.0
 41
1.0
 50
0.0
 71
     0
 42
4.57
  3
simplex
  4

  0
ENDTAB
  0
TABLE
  2
VIEW
  5
6
330
0
100
AcDbSymbolTable
 70
     0
  0
ENDTAB
  0
TABLE
  2
UCS
  5
7
330
0
100
AcDbSymbolTable
 70
     0
  0
ENDTAB
  0
TABLE
  2
APPID
  5
9
330
0
100
AcDbSymbolTable
 70
     1
  0
APPID
  5
11
330
9
100
AcDbSymbolTableRecord
100
AcDbRegAppTableRecord
  2
ACAD
 70
     0
  0
ENDTAB
  0
TABLE
  2
DIMSTYLE
  5
A
330
0
100
AcDbSymbolTable
 70
     1
  0
DIMSTYLE
105
3F
102
{ACAD_REACTORS
330
393
330
392
330
394
330
54D
330
4E6
330
4DD
330
390
102
}
330
A
100
AcDbSymbolTableRecord
100
AcDbDimStyleTableRecord
  2
STANDARD
 70
     0
  3

  4

  5

  6

  7

 40
0.0
 41
4.57
 42
0.0
 43
0.38
 44
5.0
 45
0.0
 46
0.0
 47
0.0
 48
0.0
140
4.57
141
0.09
142
0.0
143
25.4
144
1.0
145
0.0
146
1.0
147
2.299999999999999
 71
     0
 72
     0
 73
     0
 74
     0
 75
     0
 76
     0
 77
     1
 78
     8
170
     0
171
     2
172
     0
173
     0
174
     0
175
     0
176
     0
177
     0
178
     0
270
     2
271
     2
272
     4
273
     2
274
     2
340
1E
275
     0
280
     0
281
     0
282
     0
283
     1
284
     0
285
     0
286
     0
287
     3
288
     0
  0
ENDTAB
  0
TABLE
  2
BLOCK_RECORD
  5
1
330
0
100
AcDbSymbolTable
 70
    12
  0
BLOCK_RECORD
  5
18
102
{ACAD_XDICTIONARY
360
5C8
102
}
330
1
100
AcDbSymbolTableRecord
100
AcDbBlockTableRecord
  2
*MODEL_SPACE
  0
BLOCK_RECORD
  5
338
102
{ACAD_XDICTIONARY
360
5CA
102
}
330
1
100
AcDbSymbolTableRecord
100
AcDbBlockTableRecord
  2
*PAPER_SPACE
  0
BLOCK_RECORD
  5
345
330
1
100
AcDbSymbolTableRecord
100
AcDbBlockTableRecord
  2
*D0
  0
BLOCK_RECORD
  5
351
330
1
100
AcDbSymbolTableRecord
100
AcDbBlockTableRecord
  2
*D1
  0
BLOCK_RECORD
  5
35D
330
1
100
AcDbSymbolTableRecord
100
AcDbBlockTableRecord
  2
*D2
  0
BLOCK_RECORD
  5
369
330
1
100
AcDbSymbolTableRecord
100
AcDbBlockTableRecord
  2
*D3
  0
BLOCK_RECORD
  5
43B
330
1
100
AcDbSymbolTableRecord
100
AcDbBlockTableRecord
  2
*D4
  0
BLOCK_RECORD
  5
447
330
1
100
AcDbSymbolTableRecord
100
AcDbBlockTableRecord
  2
*D5
  0
BLOCK_RECORD
  5
453
330
1
100
AcDbSymbolTableRecord
100
AcDbBlockTableRecord
  2
*D6
  0
BLOCK_RECORD
  5
557
330
1
100
AcDbSymbolTableRecord
100
AcDbBlockTableRecord
  2
*D8
  0
BLOCK_RECORD
  5
563
330
1
100
AcDbSymbolTableRecord
100
AcDbBlockTableRecord
  2
*D9
  0
BLOCK_RECORD
  5
56F
330
1
100
AcDbSymbolTableRecord
100
AcDbBlockTableRecord
  2
*D10
  0
ENDTAB
  0
ENDSEC
  0
SECTION
  2
BLOCKS
  0
BLOCK
  5
32
330
18
100
AcDbEntity
  8
0
100
AcDbBlockBegin
  2
*MODEL_SPACE
 70
     0
 10
0.0
 20
0.0
 30
0.0
  3
*MODEL_SPACE
  1

  0
ENDBLK
  5
33
330
18
100
AcDbEntity
  8
0
100
AcDbBlockEnd
  0
BLOCK
  5
339
330
338
100
AcDbEntity
 67
     1
  8
0
100
AcDbBlockBegin
  2
*PAPER_SPACE
 70
     0
 10
0.0
 20
0.0
 30
0.0
  3
*PAPER_SPACE
  1

  0
ENDBLK
  5
33A
330
338
100
AcDbEntity
 67
     1
  8
0
100
AcDbBlockEnd
  0
BLOCK
  5
34F
330
345
100
AcDbEntity
  8
0
100
AcDbBlockBegin
  2
*D0
 70
     1
 10
0.0
 20
0.0
 30
0.0
  3
*D0
  1

  0
LINE
  5
59E
330
345
100
AcDbEntity
  8
2
 62
     0
100
AcDbLine
 10
-0.0000000000000061
 20
50.0
 30
0.0
 11
-0.0000000000000043
 21
80.0
 31
0.0
  0
LINE
  5
59F
330
345
100
AcDbEntity
  8
2
 62
     0
100
AcDbLine
 10
110.0
 20
10.49999999999999
 30
0.0
 11
110.0
 21
80.0
 31
0.0
  0
LINE
  5
5A0
330
345
100
AcDbEntity
  8
2
 62
     0
100
AcDbLine
 10
4.569999999999995
 20
75.0
 30
0.0
 11
105.43
 21
75.0
 31
0.0
  0
SOLID
  5
5A1
330
345
100
AcDbEntity
  8
2
 62
     0
100
AcDbTrace
 10
4.569999999999995
 20
75.76166666666667
 30
0.0
 11
4.569999999999995
 21
74.23833333333333
 31
0.0
 12
-0.0000000000000046
 22
75.0
 32
0.0
 13
-0.0000000000000046
 23
75.0
 33
0.0
  0
SOLID
  5
5A2
330
345
100
AcDbEntity
  8
2
 62
     0
100
AcDbTrace
 10
105.43
 20
75.76166666666667
 30
0.0
 11
105.43
 21
74.23833333333333
 31
0.0
 12
110.0
 22
75.0
 32
0.0
 13
110.0
 23
75.0
 33
0.0
  0
MTEXT
  5
5A3
330
345
100
AcDbEntity
  8
2
 62
     0
100
AcDbMText
 10
55.0
 20
79.58499999999999
 30
0.0
 40
4.57
 41
0.0
 71
     5
 72
     1
  1
\A1;110
  7
SIMPLEX
1001
ACAD
1000
MTEXTBEGIN
1070
    73
1070
     1
1070
    44
1040
1.0
1070
    74
1070
     0
1000
MTEXTEND
  0
POINT
  5
5A4
330
345
100
AcDbEntity
  8
DEFPOINTS
 62
     0
100
AcDbPoint
 10
-0.0000000000000061
 20
50.0
 30
0.0
  0
POINT
  5
5A5
330
345
100
AcDbEntity
  8
DEFPOINTS
 62
     0
100
AcDbPoint
 10
110.0
 20
10.49999999999999
 30
0.0
  0
POINT
  5
5A6
330
345
100
AcDbEntity
  8
DEFPOINTS
 62
     0
100
AcDbPoint
 10
110.0
 20
75.0
 30
0.0
  0
ENDBLK
  5
350
330
345
100
AcDbEntity
  8
0
100
AcDbBlockEnd
  0
BLOCK
  5
35B
330
351
100
AcDbEntity
  8
0
100
AcDbBlockBegin
  2
*D1
 70
     1
 10
0.0
 20
0.0
 30
0.0
  3
*D1
  1

  0
LINE
  5
420
330
351
100
AcDbEntity
  8
SK2
 62
     0
100
AcDbLine
 10
0.0000000000000049
 20
40.0
 30
0.0
 11
0.0000000000000073
 21
80.0
 31
0.0
  0
LINE
  5
421
330
351
100
AcDbEntity
  8
SK2
 62
     0
100
AcDbLine
 10
-40.0
 20
25.33794120467004
 30
0.0
 11
-40.0
 21
80.0
 31
0.0
  0
LINE
  5
422
330
351
100
AcDbEntity
  8
SK2
 62
     0
100
AcDbLine
 10
-4.569999999999993
 20
75.0
 30
0.0
 11
-35.43000000000001
 21
75.0
 31
0.0
  0
SOLID
  5
423
330
351
100
AcDbEntity
  8
SK2
 62
     0
100
AcDbTrace
 10
-4.569999999999993
 20
75.76166666666667
 30
0.0
 11
-4.569999999999993
 21
74.23833333333333
 31
0.0
 12
0.000000000000007
 22
75.0
 32
0.0
 13
0.000000000000007
 23
75.0
 33
0.0
  0
SOLID
  5
424
330
351
100
AcDbEntity
  8
SK2
 62
     0
100
AcDbTrace
 10
-35.43000000000001
 20
75.76166666666667
 30
0.0
 11
-35.43000000000001
 21
74.23833333333333
 31
0.0
 12
-40.0
 22
75.0
 32
0.0
 13
-40.0
 23
75.0
 33
0.0
  0
MTEXT
  5
425
330
351
100
AcDbEntity
  8
SK2
 62
     0
100
AcDbMText
 10
-20.0
 20
79.58499999999999
 30
0.0
 40
4.57
 41
0.0
 71
     5
 72
     1
  1
\A1;40
  7
SIMPLEX
1001
ACAD
1000
MTEXTBEGIN
1070
    73
1070
     1
1070
    44
1040
1.0
1070
    74
1070
     0
1000
MTEXTEND
  0
POINT
  5
426
330
351
100
AcDbEntity
  8
DEFPOINTS
 62
     0
100
AcDbPoint
 10
0.0000000000000049
 20
40.0
 30
0.0
  0
POINT
  5
427
330
351
100
AcDbEntity
  8
DEFPOINTS
 62
     0
100
AcDbPoint
 10
-40.0
 20
25.33794120467004
 30
0.0
  0
POINT
  5
428
330
351
100
AcDbEntity
  8
DEFPOINTS
 62
     0
100
AcDbPoint
 10
-40.0
 20
75.0
 30
0.0
  0
ENDBLK
  5
35C
330
351
100
AcDbEntity
  8
0
100
AcDbBlockEnd
  0
BLOCK
  5
367
330
35D
100
AcDbEntity
  8
0
100
AcDbBlockBegin
  2
*D2
 70
     1
 10
0.0
 20
0.0
 30
0.0
  3
*D2
  1

  0
LINE
  5
429
330
35D
100
AcDbEntity
  8
2
 62
     0
100
AcDbLine
 10
0.0000000000000049
 20
40.0
 30
0.0
 11
0.0000000000000064
 21
65.0
 31
0.0
  0
LINE
  5
42A
330
35D
100
AcDbEntity
  8
2
 62
     0
100
AcDbLine
 10
26.0
 20
40.0
 30
0.0
 11
26.0
 21
65.0
 31
0.0
  0
LINE
  5
42B
330
35D
100
AcDbEntity
  8
2
 62
     0
100
AcDbLine
 10
4.570000000000006
 20
60.0
 30
0.0
 11
21.43
 21
60.0
 31
0.0
  0
SOLID
  5
42C
330
35D
100
AcDbEntity
  8
2
 62
     0
100
AcDbTrace
 10
4.570000000000006
 20
60.76166666666667
 30
0.0
 11
4.570000000000006
 21
59.23833333333333
 31
0.0
 12
0.0000000000000061
 22
60.0
 32
0.0
 13
0.0000000000000061
 23
60.0
 33
0.0
  0
SOLID
  5
42D
330
35D
100
AcDbEntity
  8
2
 62
     0
100
AcDbTrace
 10
21.43
 20
60.76166666666667
 30
0.0
 11
21.43
 21
59.23833333333333
 31
0.0
 12
26.0
 22
60.0
 32
0.0
 13
26.0
 23
60.0
 33
0.0
  0
MTEXT
  5
42E
330
35D
100
AcDbEntity
  8
2
 62
     0
100
AcDbMText
 10
13.0
 20
64.585
 30
0.0
 40
4.57
 41
0.0
 71
     5
 72
     1
  1
\A1;26
  7
SIMPLEX
1001
ACAD
1000
MTEXTBEGIN
1070
    73
1070
     1
1070
    44
1040
1.0
1070
    74
1070
     0
1000
MTEXTEND
  0
POINT
  5
42F
330
35D
100
AcDbEntity
  8
DEFPOINTS
 62
     0
100
AcDbPoint
 10
0.0000000000000049
 20
40.0
 30
0.0
  0
POINT
  5
430
330
35D
100
AcDbEntity
  8
DEFPOINTS
 62
     0
100
AcDbPoint
 10
26.0
 20
40.0
 30
0.0
  0
POINT
  5
431
330
35D
100
AcDbEntity
  8
DEFPOINTS
 62
     0
100
AcDbPoint
 10
26.0
 20
60.0
 30
0.0
  0
ENDBLK
  5
368
330
35D
100
AcDbEntity
  8
0
100
AcDbBlockEnd
  0
BLOCK
  5
373
330
369
100
AcDbEntity
  8
0
100
AcDbBlockBegin
  2
*D3
 70
     1
 10
0.0
 20
0.0
 30
0.0
  3
*D3
  1

  0
LINE
  5
432
330
369
100
AcDbEntity
  8
SK2
 62
     0
100
AcDbLine
 10
-0.0000000000000049
 20
-40.0
 30
0.0
 11
-60.00000000000001
 21
-39.99999999999998
 31
0.0
  0
LINE
  5
433
330
369
100
AcDbEntity
  8
SK2
 62
     0
100
AcDbLine
 10
0.0000000000000049
 20
40.0
 30
0.0
 11
-60.0
 21
40.00000000000002
 31
0.0
  0
LINE
  5
434
330
369
100
AcDbEntity
  8
SK2
 62
     0
100
AcDbLine
 10
-55.00000000000001
 20
-35.42999999999998
 30
0.0
 11
-55.0
 21
35.43000000000001
 31
0.0
  0
SOLID
  5
435
330
369
100
AcDbEntity
  8
SK2
 62
     0
100
AcDbTrace
 10
-55.76166666666668
 20
-35.42999999999998
 30
0.0
 11
-54.23833333333335
 21
-35.42999999999998
 31
0.0
 12
-55.00000000000001
 22
-39.99999999999998
 32
0.0
 13
-55.00000000000001
 23
-39.99999999999998
 33
0.0
  0
SOLID
  5
436
330
369
100
AcDbEntity
  8
SK2
 62
     0
100
AcDbTrace
 10
-55.76166666666666
 20
35.43000000000001
 30
0.0
 11
-54.23833333333334
 21
35.43000000000001
 31
0.0
 12
-55.0
 22
40.00000000000001
 32
0.0
 13
-55.0
 23
40.00000000000001
 33
0.0
  0
MTEXT
  5
437
330
369
100
AcDbEntity
  8
SK2
 62
     0
100
AcDbMText
 10
-59.585
 20
0.0000000000000039
 30
0.0
 40
4.57
 41
0.0
 71
     5
 72
     1
  1
\A1;%%C80
  7
SIMPLEX
 11
0.0000000000000001
 21
1.0
 31
0.0
1001
ACAD
1000
MTEXTBEGIN
1070
    73
1070
     1
1070
    44
1040
1.0
1070
    74
1070
     0
1000
MTEXTEND
  0
POINT
  5
438
330
369
100
AcDbEntity
  8
DEFPOINTS
 62
     0
100
AcDbPoint
 10
-0.0000000000000049
 20
-40.0
 30
0.0
  0
POINT
  5
439
330
369
100
AcDbEntity
  8
DEFPOINTS
 62
     0
100
AcDbPoint
 10
0.0000000000000049
 20
40.0
 30
0.0
  0
POINT
  5
43A
330
369
100
AcDbEntity
  8
DEFPOINTS
 62
     0
100
AcDbPoint
 10
-55.0
 20
40.00000000000001
 30
0.0
  0
ENDBLK
  5
374
330
369
100
AcDbEntity
  8
0
100
AcDbBlockEnd
  0
BLOCK
  5
445
330
43B
100
AcDbEntity
  8
0
100
AcDbBlockBegin
  2
*D4
 70
     1
 10
0.0
 20
0.0
 30
0.0
  3
*D4
  1

  0
LINE
  5
43C
330
43B
100
AcDbEntity
  8
SK2
 62
     0
100
AcDbLine
 10
-0.0000000000000061
 20
-50.0
 30
0.0
 11
-70.00000000000003
 21
-49.99999999999998
 31
0.0
  0
LINE
  5
43D
330
43B
100
AcDbEntity
  8
SK2
 62
     0
100
AcDbLine
 10
0.0000000000000061
 20
50.0
 30
0.0
 11
-70.0
 21
50.00000000000002
 31
0.0
  0
LINE
  5
43E
330
43B
100
AcDbEntity
  8
SK2
 62
     0
100
AcDbLine
 10
-65.00000000000003
 20
-45.42999999999998
 30
0.0
 11
-65.0
 21
45.43000000000001
 31
0.0
  0
SOLID
  5
43F
330
43B
100
AcDbEntity
  8
SK2
 62
     0
100
AcDbTrace
 10
-65.7616666666667
 20
-45.42999999999998
 30
0.0
 11
-64.23833333333336
 21
-45.42999999999998
 31
0.0
 12
-65.00000000000003
 22
-49.99999999999998
 32
0.0
 13
-65.00000000000003
 23
-49.99999999999998
 33
0.0
  0
SOLID
  5
440
330
43B
100
AcDbEntity
  8
SK2
 62
     0
100
AcDbTrace
 10
-65.76166666666667
 20
45.43000000000001
 30
0.0
 11
-64.23833333333333
 21
45.43000000000001
 31
0.0
 12
-65.0
 22
50.00000000000002
 32
0.0
 13
-65.0
 23
50.00000000000002
 33
0.0
  0
MTEXT
  5
441
330
43B
100
AcDbEntity
  8
SK2
 62
     0
100
AcDbMText
 10
-69.585
 20
0.0000000000000116
 30
0.0
 40
4.57
 41
0.0
 71
     5
 72
     1
  1
\A1;%%C100
  7
SIMPLEX
 11
0.0000000000000001
 21
1.0
 31
0.0
1001
ACAD
1000
MTEXTBEGIN
1070
    73
1070
     1
1070
    44
1040
1.0
1070
    74
1070
     0
1000
MTEXTEND
  0
POINT
  5
442
330
43B
100
AcDbEntity
  8
DEFPOINTS
 62
     0
100
AcDbPoint
 10
-0.0000000000000061
 20
-50.0
 30
0.0
  0
POINT
  5
443
330
43B
100
AcDbEntity
  8
DEFPOINTS
 62
     0
100
AcDbPoint
 10
0.0000000000000061
 20
50.0
 30
0.0
  0
POINT
  5
444
330
43B
100
AcDbEntity
  8
DEFPOINTS
 62
     0
100
AcDbPoint
 10
-65.0
 20
50.00000000000002
 30
0.0
  0
ENDBLK
  5
446
330
43B
100
AcDbEntity
  8
0
100
AcDbBlockEnd
  0
BLOCK
  5
451
330
447
100
AcDbEntity
  8
0
100
AcDbBlockBegin
  2
*D5
 70
     1
 10
0.0
 20
0.0
 30
0.0
  3
*D5
  1

  0
LINE
  5
448
330
447
100
AcDbEntity
  8
SK2
 62
     0
100
AcDbLine
 10
0.0000000000000061
 20
50.0
 30
0.0
 11
0.000000000000008
 21
80.0
 31
0.0
  0
LINE
  5
449
330
447
100
AcDbEntity
  8
SK2
 62
     0
100
AcDbLine
 10
-50.0
 20
32.06348486282636
 30
0.0
 11
-50.0
 21
80.0
 31
0.0
  0
LINE
  5
44A
330
447
100
AcDbEntity
  8
SK2
 62
     0
100
AcDbLine
 10
-4.569999999999992
 20
75.0
 30
0.0
 11
-45.42999999999999
 21
75.0
 31
0.0
  0
SOLID
  5
44B
330
447
100
AcDbEntity
  8
SK2
 62
     0
100
AcDbTrace
 10
-4.569999999999992
 20
75.76166666666667
 30
0.0
 11
-4.569999999999992
 21
74.23833333333333
 31
0.0
 12
0.0000000000000077
 22
75.0
 32
0.0
 13
0.0000000000000077
 23
75.0
 33
0.0
  0
SOLID
  5
44C
330
447
100
AcDbEntity
  8
SK2
 62
     0
100
AcDbTrace
 10
-45.42999999999999
 20
75.76166666666667
 30
0.0
 11
-45.42999999999999
 21
74.23833333333333
 31
0.0
 12
-50.0
 22
75.0
 32
0.0
 13
-50.0
 23
75.0
 33
0.0
  0
MTEXT
  5
44D
330
447
100
AcDbEntity
  8
SK2
 62
     0
100
AcDbMText
 10
-24.99999999999999
 20
79.58499999999999
 30
0.0
 40
4.57
 41
0.0
 71
     5
 72
     1
  1
\A1;50
  7
SIMPLEX
1001
ACAD
1000
MTEXTBEGIN
1070
    73
1070
     1
1070
    44
1040
1.0
1070
    74
1070
     0
1000
MTEXTEND
  0
POINT
  5
44E
330
447
100
AcDbEntity
  8
DEFPOINTS
 62
     0
100
AcDbPoint
 10
0.0000000000000061
 20
50.0
 30
0.0
  0
POINT
  5
44F
330
447
100
AcDbEntity
  8
DEFPOINTS
 62
     0
100
AcDbPoint
 10
-50.0
 20
32.06348486282636
 30
0.0
  0
POINT
  5
450
330
447
100
AcDbEntity
  8
DEFPOINTS
 62
     0
100
AcDbPoint
 10
-50.0
 20
75.0
 30
0.0
  0
ENDBLK
  5
452
330
447
100
AcDbEntity
  8
0
100
AcDbBlockEnd
  0
BLOCK
  5
45D
330
453
100
AcDbEntity
  8
0
100
AcDbBlockBegin
  2
*D6
 70
     1
 10
0.0
 20
0.0
 30
0.0
  3
*D6
  1

  0
LINE
  5
454
330
453
100
AcDbEntity
  8
2
 62
     0
100
AcDbLine
 10
0.0000000000000061
 20
50.0
 30
0.0
 11
0.000000000000007
 21
65.0
 31
0.0
  0
LINE
  5
455
330
453
100
AcDbEntity
  8
2
 62
     0
100
AcDbLine
 10
29.0
 20
50.0
 30
0.0
 11
29.0
 21
65.0
 31
0.0
  0
LINE
  5
456
330
453
100
AcDbEntity
  8
2
 62
     0
100
AcDbLine
 10
4.570000000000007
 20
60.0
 30
0.0
 11
24.43
 21
60.0
 31
0.0
  0
SOLID
  5
457
330
453
100
AcDbEntity
  8
2
 62
     0
100
AcDbTrace
 10
4.570000000000007
 20
60.76166666666667
 30
0.0
 11
4.570000000000007
 21
59.23833333333333
 31
0.0
 12
0.0000000000000067
 22
60.0
 32
0.0
 13
0.0000000000000067
 23
60.0
 33
0.0
  0
SOLID
  5
458
330
453
100
AcDbEntity
  8
2
 62
     0
100
AcDbTrace
 10
24.43
 20
60.76166666666667
 30
0.0
 11
24.43
 21
59.23833333333333
 31
0.0
 12
29.0
 22
60.0
 32
0.0
 13
29.0
 23
60.0
 33
0.0
  0
MTEXT
  5
459
330
453
100
AcDbEntity
  8
2
 62
     0
100
AcDbMText
 10
14.5
 20
64.585
 30
0.0
 40
4.57
 41
0.0
 71
     5
 72
     1
  1
\A1;29
  7
SIMPLEX
1001
ACAD
1000
MTEXTBEGIN
1070
    73
1070
     1
1070
    44
1040
1.0
1070
    74
1070
     0
1000
MTEXTEND
  0
POINT
  5
45A
330
453
100
AcDbEntity
  8
DEFPOINTS
 62
     0
100
AcDbPoint
 10
0.0000000000000061
 20
50.0
 30
0.0
  0
POINT
  5
45B
330
453
100
AcDbEntity
  8
DEFPOINTS
 62
     0
100
AcDbPoint
 10
29.0
 20
50.0
 30
0.0
  0
POINT
  5
45C
330
453
100
AcDbEntity
  8
DEFPOINTS
 62
     0
100
AcDbPoint
 10
29.0
 20
60.0
 30
0.0
  0
ENDBLK
  5
45E
330
453
100
AcDbEntity
  8
0
100
AcDbBlockEnd
  0
BLOCK
  5
561
330
557
100
AcDbEntity
  8
0
100
AcDbBlockBegin
  2
*D8
 70
     1
 10
0.0
 20
0.0
 30
0.0
  3
*D8
  1

  0
LINE
  5
57B
330
557
100
AcDbEntity
  8
SK2
 62
     0
100
AcDbLine
 10
0.0000000000000061
 20
50.0
 30
0.0
 11
0.000000000000008
 21
80.0
 31
0.0
  0
LINE
  5
57C
330
557
100
AcDbEntity
  8
SK2
 62
     0
100
AcDbLine
 10
-50.0
 20
32.06348486282636
 30
0.0
 11
-50.0
 21
80.0
 31
0.0
  0
LINE
  5
57D
330
557
100
AcDbEntity
  8
SK2
 62
     0
100
AcDbLine
 10
-4.569999999999992
 20
75.0
 30
0.0
 11
-45.42999999999999
 21
75.0
 31
0.0
  0
SOLID
  5
57E
330
557
100
AcDbEntity
  8
SK2
 62
     0
100
AcDbTrace
 10
-4.569999999999992
 20
75.76166666666667
 30
0.0
 11
-4.569999999999992
 21
74.23833333333333
 31
0.0
 12
0.0000000000000077
 22
75.0
 32
0.0
 13
0.0000000000000077
 23
75.0
 33
0.0
  0
SOLID
  5
57F
330
557
100
AcDbEntity
  8
SK2
 62
     0
100
AcDbTrace
 10
-45.42999999999999
 20
75.76166666666667
 30
0.0
 11
-45.42999999999999
 21
74.23833333333333
 31
0.0
 12
-50.0
 22
75.0
 32
0.0
 13
-50.0
 23
75.0
 33
0.0
  0
MTEXT
  5
580
330
557
100
AcDbEntity
  8
SK2
 62
     0
100
AcDbMText
 10
-24.99999999999999
 20
79.58499999999999
 30
0.0
 40
4.57
 41
0.0
 71
     5
 72
     1
  1
\A1;50
  7
SIMPLEX
1001
ACAD
1000
MTEXTBEGIN
1070
    73
1070
     1
1070
    44
1040
1.0
1070
    74
1070
     0
1000
MTEXTEND
  0
POINT
  5
581
330
557
100
AcDbEntity
  8
DEFPOINTS
 62
     0
100
AcDbPoint
 10
0.0000000000000061
 20
50.0
 30
0.0
  0
POINT
  5
582
330
557
100
AcDbEntity
  8
DEFPOINTS
 62
     0
100
AcDbPoint
 10
-50.0
 20
32.06348486282636
 30
0.0
  0
POINT
  5
583
330
557
100
AcDbEntity
  8
DEFPOINTS
 62
     0
100
AcDbPoint
 10
-50.0
 20
75.0
 30
0.0
  0
ENDBLK
  5
562
330
557
100
AcDbEntity
  8
0
100
AcDbBlockEnd
  0
BLOCK
  5
56D
330
563
100
AcDbEntity
  8
0
100
AcDbBlockBegin
  2
*D9
 70
     1
 10
0.0
 20
0.0
 30
0.0
  3
*D9
  1

  0
LINE
  5
584
330
563
100
AcDbEntity
  8
SK2
 62
     0
100
AcDbLine
 10
-0.0000000000000061
 20
-50.0
 30
0.0
 11
-70.00000000000003
 21
-49.99999999999998
 31
0.0
  0
LINE
  5
585
330
563
100
AcDbEntity
  8
SK2
 62
     0
100
AcDbLine
 10
0.0000000000000061
 20
50.0
 30
0.0
 11
-70.0
 21
50.00000000000002
 31
0.0
  0
LINE
  5
586
330
563
100
AcDbEntity
  8
SK2
 62
     0
100
AcDbLine
 10
-65.00000000000003
 20
-45.42999999999998
 30
0.0
 11
-65.0
 21
45.43000000000001
 31
0.0
  0
SOLID
  5
587
330
563
100
AcDbEntity
  8
SK2
 62
     0
100
AcDbTrace
 10
-65.7616666666667
 20
-45.42999999999998
 30
0.0
 11
-64.23833333333336
 21
-45.42999999999998
 31
0.0
 12
-65.00000000000003
 22
-49.99999999999998
 32
0.0
 13
-65.00000000000003
 23
-49.99999999999998
 33
0.0
  0
SOLID
  5
588
330
563
100
AcDbEntity
  8
SK2
 62
     0
100
AcDbTrace
 10
-65.76166666666667
 20
45.43000000000001
 30
0.0
 11
-64.23833333333333
 21
45.43000000000001
 31
0.0
 12
-65.0
 22
50.00000000000002
 32
0.0
 13
-65.0
 23
50.00000000000002
 33
0.0
  0
MTEXT
  5
589
330
563
100
AcDbEntity
  8
SK2
 62
     0
100
AcDbMText
 10
-69.585
 20
0.0000000000000116
 30
0.0
 40
4.57
 41
0.0
 71
     5
 72
     1
  1
\A1;%%C100
  7
SIMPLEX
 11
0.0000000000000001
 21
1.0
 31
0.0
1001
ACAD
1000
MTEXTBEGIN
1070
    73
1070
     1
1070
    44
1040
1.0
1070
    74
1070
     0
1000
MTEXTEND
  0
POINT
  5
58A
330
563
100
AcDbEntity
  8
DEFPOINTS
 62
     0
100
AcDbPoint
 10
-0.0000000000000061
 20
-50.0
 30
0.0
  0
POINT
  5
58B
330
563
100
AcDbEntity
  8
DEFPOINTS
 62
     0
100
AcDbPoint
 10
0.0000000000000061
 20
50.0
 30
0.0
  0
POINT
  5
58C
330
563
100
AcDbEntity
  8
DEFPOINTS
 62
     0
100
AcDbPoint
 10
-65.0
 20
50.00000000000002
 30
0.0
  0
ENDBLK
  5
56E
330
563
100
AcDbEntity
  8
0
100
AcDbBlockEnd
  0
BLOCK
  5
579
330
56F
100
AcDbEntity
  8
0
100
AcDbBlockBegin
  2
*D10
 70
     1
 10
0.0
 20
0.0
 30
0.0
  3
*D10
  1

  0
LINE
  5
58D
330
56F
100
AcDbEntity
  8
2
 62
     0
100
AcDbLine
 10
0.0000000000000061
 20
50.0
 30
0.0
 11
0.000000000000007
 21
65.0
 31
0.0
  0
LINE
  5
58E
330
56F
100
AcDbEntity
  8
2
 62
     0
100
AcDbLine
 10
29.0
 20
50.0
 30
0.0
 11
29.0
 21
65.0
 31
0.0
  0
LINE
  5
58F
330
56F
100
AcDbEntity
  8
2
 62
     0
100
AcDbLine
 10
4.570000000000007
 20
60.0
 30
0.0
 11
24.43
 21
60.0
 31
0.0
  0
SOLID
  5
590
330
56F
100
AcDbEntity
  8
2
 62
     0
100
AcDbTrace
 10
4.570000000000007
 20
60.76166666666667
 30
0.0
 11
4.570000000000007
 21
59.23833333333333
 31
0.0
 12
0.0000000000000067
 22
60.0
 32
0.0
 13
0.0000000000000067
 23
60.0
 33
0.0
  0
SOLID
  5
591
330
56F
100
AcDbEntity
  8
2
 62
     0
100
AcDbTrace
 10
24.43
 20
60.76166666666667
 30
0.0
 11
24.43
 21
59.23833333333333
 31
0.0
 12
29.0
 22
60.0
 32
0.0
 13
29.0
 23
60.0
 33
0.0
  0
MTEXT
  5
592
330
56F
100
AcDbEntity
  8
2
 62
     0
100
AcDbMText
 10
14.5
 20
64.585
 30
0.0
 40
4.57
 41
0.0
 71
     5
 72
     1
  1
\A1;29
  7
SIMPLEX
1001
ACAD
1000
MTEXTBEGIN
1070
    73
1070
     1
1070
    44
1040
1.0
1070
    74
1070
     0
1000
MTEXTEND
  0
POINT
  5
593
330
56F
100
AcDbEntity
  8
DEFPOINTS
 62
     0
100
AcDbPoint
 10
0.0000000000000061
 20
50.0
 30
0.0
  0
POINT
  5
594
330
56F
100
AcDbEntity
  8
DEFPOINTS
 62
     0
100
AcDbPoint
 10
29.0
 20
50.0
 30
0.0
  0
POINT
  5
595
330
56F
100
AcDbEntity
  8
DEFPOINTS
 62
     0
100
AcDbPoint
 10
29.0
 20
60.0
 30
0.0
  0
ENDBLK
  5
57A
330
56F
100
AcDbEntity
  8
0
100
AcDbBlockEnd
  0
ENDSEC
  0
SECTION
  2
ENTITIES
  0
LINE
  5
376
330
18
100
AcDbEntity
  8
4
100
AcDbLine
 10
110.0
 20
0.0
 30
0.0
 11
-50.0
 21
0.0
 31
0.0
  0
LINE
  5
377
330
18
100
AcDbEntity
  8
SK4
100
AcDbLine
 10
41.45
 20
4.999999999999999
 30
0.0
 11
41.45
 21
-5.0
 31
0.0
  0
LINE
  5
378
330
18
100
AcDbEntity
  8
SK4
100
AcDbLine
 10
55.25
 20
5.0
 30
0.0
 11
55.25
 21
-4.999999999999999
 31
0.0
  0
LINE
  5
379
330
18
100
AcDbEntity
  8
SK3
100
AcDbLine
 10
63.55
 20
-4.859999999999999
 30
0.0
 11
54.0
 21
-4.859999999999999
 31
0.0
  0
LINE
  5
37A
330
18
100
AcDbEntity
  8
SK3
100
AcDbLine
 10
54.0
 20
4.859999999999999
 30
0.0
 11
54.0
 21
-4.850000000000001
 31
0.0
  0
LINE
  5
37B
330
18
100
AcDbEntity
  8
SK3
100
AcDbLine
 10
63.55
 20
4.859999999999999
 30
0.0
 11
54.0
 21
4.859999999999999
 31
0.0
  0
LINE
  5
37C
330
18
100
AcDbEntity
  8
SK3
100
AcDbLine
 10
63.50999999999999
 20
-4.859999999999999
 30
0.0
 11
109.7
 21
-6.010000000000001
 31
0.0
  0
ARC
  5
37E
330
18
100
AcDbEntity
  8
1
100
AcDbCircle
 10
108.0
 20
-10.5
 30
0.0
 40
2.0
100
AcDbArc
 50
270.0
 51
0.0
  0
LINE
  5
37F
330
18
100
AcDbEntity
  8
1
100
AcDbLine
 10
110.0
 20
10.49999999999999
 30
0.0
 11
110.0
 21
-10.49
 31
0.0
  0
ARC
  5
380
330
18
100
AcDbEntity
  8
1
100
AcDbCircle
 10
108.0
 20
10.49999999999999
 30
0.0
 40
2.0
100
AcDbArc
 50
0.0
 51
90.0
  0
LINE
  5
381
330
18
100
AcDbEntity
  8
1
100
AcDbLine
 10
48.99999999999999
 20
12.5
 30
0.0
 11
108.0
 21
12.49999999999999
 31
0.0
  0
POINT
  5
382
330
18
100
AcDbEntity
  8
1__1
 62
     1
100
AcDbPoint
 10
0.0
 20
0.0
 30
0.0
  0
LINE
  5
383
330
18
100
AcDbEntity
  8
SK4
100
AcDbLine
 10
111.59
 20
0.0
 30
0.0
 11
-54.32644109568809
 21
0.0
 31
0.0
  0
LINE
  5
384
330
18
100
AcDbEntity
  8
SK3
100
AcDbLine
 10
63.50958923586744
 20
4.866073130722009
 30
0.0
 11
109.6994919345114
 21
6.019974638564677
 31
0.0
  0
ARC
  5
385
330
18
100
AcDbEntity
  8
1
100
AcDbCircle
 10
55.4
 20
0.0
 30
0.0
 40
2.6
100
AcDbArc
 50
270.0
 51
90.0
  0
ARC
  5
386
330
18
100
AcDbEntity
  8
1
100
AcDbCircle
 10
41.59999999999999
 20
0.0
 30
0.0
 40
2.6
100
AcDbArc
 50
90.0
 51
270.0
  0
LINE
  5
387
330
18
100
AcDbEntity
  8
1
100
AcDbLine
 10
55.4
 20
-2.6
 30
0.0
 11
41.59999999999999
 21
-2.6
 31
0.0
  0
LINE
  5
388
330
18
100
AcDbEntity
  8
1
100
AcDbLine
 10
55.4
 20
2.6
 30
0.0
 11
41.59999999999999
 21
2.6
 31
0.0
  0
LINE
  5
389
330
18
100
AcDbEntity
  8
SK2
100
AcDbLine
 10
108.0
 20
12.49999999999999
 30
0.0
 11
130.0
 21
12.49999999999999
 31
0.0
  0
LINE
  5
38A
330
18
100
AcDbEntity
  8
SK2
100
AcDbLine
 10
108.0
 20
-12.5
 30
0.0
 11
130.0
 21
-12.5
 31
0.0
  0
LINE
  5
38B
330
18
100
AcDbEntity
  8
SK2
100
AcDbLine
 10
125.0
 20
7.92999999999999
 30
0.0
 11
125.0
 21
-7.930000000000005
 31
0.0
  0
SOLID
  5
38C
330
18
100
AcDbEntity
  8
SK2
100
AcDbTrace
 10
124.2383333333333
 20
7.92999999999999
 30
0.0
 11
125.7616666666666
 21
7.92999999999999
 31
0.0
 12
125.0
 22
12.49999999999999
 32
0.0
 13
125.0
 23
12.49999999999999
 33
0.0
  0
SOLID
  5
38D
330
18
100
AcDbEntity
  8
SK2
100
AcDbTrace
 10
124.2383333333333
 20
-7.930000000000005
 30
0.0
 11
125.7616666666666
 21
-7.930000000000005
 31
0.0
 12
125.0
 22
-12.5
 32
0.0
 13
125.0
 23
-12.5
 33
0.0
  0
TEXT
  5
38F
330
18
100
AcDbEntity
  8
SK6
100
AcDbText
 10
90.32046470059503
 20
0.4209224300436745
 30
0.0
 40
4.57
  1
MKB1
  7
SIMPLEX
100
AcDbText
  0
LINE
  5
391
330
18
100
AcDbEntity
  8
SK3
100
AcDbLine
 10
63.55
 20
4.859999999999999
 30
0.0
 11
63.55
 21
-4.850000000000001
 31
0.0
  0
LINE
  5
40F
330
18
100
AcDbEntity
  8
SK3
100
AcDbLine
 10
53.2150857142857
 20
3.499999999999999
 30
0.0
 11
36.99999999999999
 21
3.500000000000003
 31
0.0
  0
LINE
  5
410
330
18
100
AcDbEntity
  8
SK3
100
AcDbLine
 10
36.99999999999999
 20
3.500000000000003
 30
0.0
 11
34.97999999999999
 21
0.0000000000000031
 31
0.0
  0
LINE
  5
411
330
18
100
AcDbEntity
  8
SK3
100
AcDbLine
 10
34.97999999999999
 20
0.0000000000000031
 30
0.0
 11
36.99999999999999
 21
-3.499999999999997
 31
0.0
  0
LINE
  5
412
330
18
100
AcDbEntity
  8
SK3
100
AcDbLine
 10
54.0
 20
4.859999999999999
 30
0.0
 11
53.21508571428572
 21
3.499999999999999
 31
0.0
  0
LINE
  5
413
330
18
100
AcDbEntity
  8
SK3
100
AcDbLine
 10
53.2150857142857
 20
-3.499999999999999
 30
0.0
 11
36.99999999999999
 21
-3.500000000000003
 31
0.0
  0
LINE
  5
414
330
18
100
AcDbEntity
  8
SK3
100
AcDbLine
 10
54.0
 20
-4.859999999999999
 30
0.0
 11
53.21508571428572
 21
-3.499999999999999
 31
0.0
  0
LINE
  5
415
330
18
100
AcDbEntity
  8
SK3
100
AcDbLine
 10
36.99999999999999
 20
3.500000000000003
 30
0.0
 11
36.99999999999999
 21
-3.500000000000003
 31
0.0
  0
LINE
  5
416
330
18
100
AcDbEntity
  8
SK3
100
AcDbLine
 10
53.2150857142857
 20
3.499999999999999
 30
0.0
 11
53.21508571428572
 21
-3.499999999999999
 31
0.0
  0
LINE
  5
4DE
330
18
100
AcDbEntity
  8
1
100
AcDbLine
 10
-0.0000000000000061
 20
50.0
 30
0.0
 11
0.0000000000000061
 21
-50.0
 31
0.0
  0
LINE
  5
4DF
330
18
100
AcDbEntity
  8
1
100
AcDbLine
 10
28.99999999999999
 20
50.0
 30
0.0
 11
29.0
 21
-50.0
 31
0.0
  0
LINE
  5
4E0
330
18
100
AcDbEntity
  8
SK4
100
AcDbLine
 10
19.99999999999999
 20
50.0
 30
0.0
 11
20.0
 21
-50.0
 31
0.0
  0
LINE
  5
4E1
330
18
100
AcDbEntity
  8
SK3
100
AcDbLine
 10
5.0
 20
44.0
 30
0.0
 11
5.0
 21
50.0
 31
0.0
  0
LINE
  5
4E2
330
18
100
AcDbEntity
  8
1
100
AcDbLine
 10
16.75240473580834
 20
9.999999999999992
 30
0.0
 11
16.75240473580834
 21
50.0
 31
0.0
  0
LINE
  5
4E3
330
18
100
AcDbEntity
  8
1
100
AcDbLine
 10
18.12499999999999
 20
47.62259526419163
 30
0.0
 11
18.125
 21
9.999999999999992
 31
0.0
  0
LINE
  5
4E4
330
18
100
AcDbEntity
  8
1
100
AcDbLine
 10
21.87499999999999
 20
47.62259526419164
 30
0.0
 11
21.87499999999999
 21
9.999999999999992
 31
0.0
  0
LINE
  5
4E5
330
18
100
AcDbEntity
  8
1
100
AcDbLine
 10
23.24759526419164
 20
50.0
 30
0.0
 11
23.24759526419164
 21
9.999999999999994
 31
0.0
  0
LINE
  5
4E7
330
18
100
AcDbEntity
  8
SK3
100
AcDbLine
 10
-30.00337567297405
 20
26.5
 30
0.0
 11
-48.34999999999999
 21
26.5
 31
0.0
  0
LINE
  5
4E8
330
18
100
AcDbEntity
  8
SK3
100
AcDbLine
 10
-30.00337567297406
 20
-26.49999999999999
 30
0.0
 11
-48.34999999999999
 21
-26.49999999999999
 31
0.0
  0
LINE
  5
4E9
330
18
100
AcDbEntity
  8
1
100
AcDbLine
 10
-2.5
 20
37.8819375
 30
0.0
 11
-48.19999750314837
 21
35.5912251251547
 31
0.0
  0
LINE
  5
4EA
330
18
100
AcDbEntity
  8
1
100
AcDbLine
 10
-2.500000000000004
 20
-37.8819375
 30
0.0
 11
-47.99999999999939
 21
-35.60125000000002
 31
0.0
  0
ARC
  5
4EB
330
18
100
AcDbEntity
  8
1
100
AcDbCircle
 10
-42.0
 20
-8.00999999999999
 30
0.0
 40
2.0
100
AcDbArc
 50
270.0
 51
0.0000030000001391
  0
ARC
  5
4EC
330
18
100
AcDbEntity
  8
1
100
AcDbCircle
 10
-40.83999999999998
 20
-14.93999999999999
 30
0.0
 40
0.84
100
AcDbArc
 50
260.1242980000002
 51
0.0
  0
ARC
  5
4ED
330
18
100
AcDbEntity
  8
1
100
AcDbCircle
 10
-40.83999999999998
 20
14.94
 30
0.0
 40
0.84
100
AcDbArc
 50
0.0000030000001391
 51
99.87570199999971
  0
ARC
  5
4EE
330
18
100
AcDbEntity
  8
1
100
AcDbCircle
 10
-42.0
 20
8.010000000000005
 30
0.0
 40
2.0
100
AcDbArc
 50
0.0000030000001391
 51
90.00000799999982
  0
LINE
  5
4EF
330
18
100
AcDbEntity
  8
1
100
AcDbLine
 10
-50.0
 20
-33.60125000000002
 30
0.0
 11
-50.0
 21
33.60125000000002
 31
0.0
  0
LINE
  5
4F0
330
18
100
AcDbEntity
  8
SK3
100
AcDbLine
 10
-48.34999999999999
 20
-26.49999999999999
 30
0.0
 11
-48.34999999999999
 21
-14.48613031914892
 31
0.0
  0
ARC
  5
4F1
330
18
100
AcDbEntity
  8
1
100
AcDbCircle
 10
-47.99999999999999
 20
-33.60125000000002
 30
0.0
 40
2.0
100
AcDbArc
 50
180.0
 51
270.0
  0
LINE
  5
4F2
330
18
100
AcDbEntity
  8
SK3
100
AcDbLine
 10
-48.35
 20
-26.49999999999999
 30
0.0
 11
-50.0
 21
-27.45262794416287
 31
0.0
  0
LINE
  5
4F3
330
18
100
AcDbEntity
  8
1
100
AcDbLine
 10
-48.49999999999998
 20
14.46
 30
0.0
 11
-48.49999999999998
 21
10.01
 31
0.0
  0
POLYLINE
  5
4F4
330
18
100
AcDbEntity
  8
1
100
AcDb2dPolyline
 66
     1
 10
0.0
 20
0.0
 30
0.0
  0
VERTEX
  5
5E4
330
4F4
100
AcDbEntity
  8
1
100
AcDbVertex
100
AcDb2dVertex
 10
-48.49999999999998
 20
10.01
 30
0.0
  0
VERTEX
  5
5E5
330
4F4
100
AcDbEntity
  8
1
100
AcDbVertex
100
AcDb2dVertex
 10
-49.99999999999999
 20
11.51
 30
0.0
  0
SEQEND
  5
5E6
330
4F4
100
AcDbEntity
  8
1
  0
LINE
  5
4F5
330
18
100
AcDbEntity
  8
1
100
AcDbLine
 10
-48.49999999999998
 20
-14.45999999999999
 30
0.0
 11
-48.49999999999998
 21
-10.00999999999999
 31
0.0
  0
POLYLINE
  5
4F6
330
18
100
AcDbEntity
  8
1
100
AcDb2dPolyline
 66
     1
 10
0.0
 20
0.0
 30
0.0
  0
VERTEX
  5
5E7
330
4F6
100
AcDbEntity
  8
1
100
AcDbVertex
100
AcDb2dVertex
 10
-48.49999999999998
 20
-14.45999999999999
 30
0.0
  0
VERTEX
  5
5E8
330
4F6
100
AcDbEntity
  8
1
100
AcDbVertex
100
AcDb2dVertex
 10
-40.97999999999998
 20
-15.76999999999999
 30
0.0
  0
SEQEND
  5
5E9
330
4F6
100
AcDbEntity
  8
1
  0
LINE
  5
4F7
330
18
100
AcDbEntity
  8
1
100
AcDbLine
 10
-48.49999999999998
 20
-14.45999999999999
 30
0.0
 11
-49.99999999999999
 21
-15.95999999999999
 31
0.0
  0
POLYLINE
  5
4F8
330
18
100
AcDbEntity
  8
1
100
AcDb2dPolyline
 66
     1
 10
0.0
 20
0.0
 30
0.0
  0
VERTEX
  5
5EA
330
4F8
100
AcDbEntity
  8
1
100
AcDbVertex
100
AcDb2dVertex
 10
-48.49999999999998
 20
-10.00999999999999
 30
0.0
  0
VERTEX
  5
5EB
330
4F8
100
AcDbEntity
  8
1
100
AcDbVertex
100
AcDb2dVertex
 10
-42.0
 20
-10.00999999999999
 30
0.0
  0
SEQEND
  5
5EC
330
4F8
100
AcDbEntity
  8
1
  0
POLYLINE
  5
4F9
330
18
100
AcDbEntity
  8
1
100
AcDb2dPolyline
 66
     1
 10
0.0
 20
0.0
 30
0.0
  0
VERTEX
  5
5ED
330
4F9
100
AcDbEntity
  8
1
100
AcDbVertex
100
AcDb2dVertex
 10
-48.49999999999998
 20
-10.00999999999999
 30
0.0
  0
VERTEX
  5
5EE
330
4F9
100
AcDbEntity
  8
1
100
AcDbVertex
100
AcDb2dVertex
 10
-49.99999999999999
 20
-11.50999999999999
 30
0.0
  0
SEQEND
  5
5EF
330
4F9
100
AcDbEntity
  8
1
  0
POLYLINE
  5
4FA
330
18
100
AcDbEntity
  8
1
100
AcDb2dPolyline
 66
     1
 10
0.0
 20
0.0
 30
0.0
  0
VERTEX
  5
5F0
330
4FA
100
AcDbEntity
  8
1
100
AcDbVertex
100
AcDb2dVertex
 10
-48.49999999999998
 20
10.01
 30
0.0
  0
VERTEX
  5
5F1
330
4FA
100
AcDbEntity
  8
1
100
AcDbVertex
100
AcDb2dVertex
 10
-42.0
 20
10.01
 30
0.0
  0
SEQEND
  5
5F2
330
4FA
100
AcDbEntity
  8
1
  0
LINE
  5
4FB
330
18
100
AcDbEntity
  8
SK3
100
AcDbLine
 10
-48.34999999999999
 20
14.48613031914894
 30
0.0
 11
-48.34999999999999
 21
26.5
 31
0.0
  0
POLYLINE
  5
4FC
330
18
100
AcDbEntity
  8
1
100
AcDb2dPolyline
 66
     1
 10
0.0
 20
0.0
 30
0.0
  0
VERTEX
  5
5F3
330
4FC
100
AcDbEntity
  8
1
100
AcDbVertex
100
AcDb2dVertex
 10
-48.49999999999998
 20
14.46
 30
0.0
  0
VERTEX
  5
5F4
330
4FC
100
AcDbEntity
  8
1
100
AcDbVertex
100
AcDb2dVertex
 10
-40.97999999999998
 20
15.77000000000001
 30
0.0
  0
SEQEND
  5
5F5
330
4FC
100
AcDbEntity
  8
1
  0
LINE
  5
4FD
330
18
100
AcDbEntity
  8
1
100
AcDbLine
 10
-48.49999999999998
 20
14.46
 30
0.0
 11
-49.99999999999999
 21
15.96
 31
0.0
  0
LINE
  5
4FE
330
18
100
AcDbEntity
  8
SK3
100
AcDbLine
 10
-48.35
 20
26.5
 30
0.0
 11
-50.0
 21
27.45262794416289
 31
0.0
  0
ARC
  5
4FF
330
18
100
AcDbEntity
  8
1
100
AcDbCircle
 10
-47.99999999999999
 20
33.60125000000002
 30
0.0
 40
2.0
100
AcDbArc
 50
89.99999999999998
 51
180.0
  0
LINE
  5
500
330
18
100
AcDbEntity
  8
SK3
100
AcDbLine
 10
-30.00337567297405
 20
26.5
 30
0.0
 11
-30.00337567297406
 21
-26.5
 31
0.0
  0
LINE
  5
501
330
18
100
AcDbEntity
  8
SK3
100
AcDbLine
 10
-27.11662432702593
 20
-31.49999999999999
 30
0.0
 11
-27.11662432702592
 21
31.5
 31
0.0
  0
LINE
  5
502
330
18
100
AcDbEntity
  8
1
100
AcDbLine
 10
-2.500000000000005
 20
-37.8819375
 30
0.0
 11
-2.499999999999999
 21
37.8819375
 31
0.0
  0
LINE
  5
503
330
18
100
AcDbEntity
  8
SK3
100
AcDbLine
 10
12.49999999999999
 20
26.5
 30
0.0
 11
12.5
 21
-26.5
 31
0.0
  0
LINE
  5
504
330
18
100
AcDbEntity
  8
1
100
AcDbLine
 10
16.75240473580835
 20
-31.5
 30
0.0
 11
16.75240473580834
 21
-10.0
 31
0.0
  0
LINE
  5
505
330
18
100
AcDbEntity
  8
1
100
AcDbLine
 10
18.125
 20
-10.0
 30
0.0
 11
18.12500000000001
 21
-31.5
 31
0.0
  0
LINE
  5
506
330
18
100
AcDbEntity
  8
1
100
AcDbLine
 10
21.875
 20
-10.0
 30
0.0
 11
21.875
 21
-31.5
 31
0.0
  0
LINE
  5
507
330
18
100
AcDbEntity
  8
1
100
AcDbLine
 10
23.24759526419164
 20
-10.0
 30
0.0
 11
23.24759526419163
 21
-31.5
 31
0.0
  0
LINE
  5
508
330
18
100
AcDbEntity
  8
1
100
AcDbLine
 10
28.99999999999999
 20
-31.5
 30
0.0
 11
5.0
 21
-31.5
 31
0.0
  0
LINE
  5
509
330
18
100
AcDbEntity
  8
SK3
100
AcDbLine
 10
29.0
 20
-43.99999999999999
 30
0.0
 11
5.0
 21
-44.0
 31
0.0
  0
ARC
  5
50A
330
18
100
AcDbEntity
  8
1
100
AcDbCircle
 10
15.05612589977643
 20
-28.2785708260148
 30
0.0
 40
10.55951106989132
100
AcDbArc
 50
197.7625982801223
 51
267.7246757186754
  0
LINE
  5
50B
330
18
100
AcDbEntity
  8
1
100
AcDbLine
 10
16.75240473580836
 20
-50.0
 30
0.0
 11
0.0000000000000061
 21
-50.0
 31
0.0
  0
TEXT
  5
50C
330
18
100
AcDbEntity
  8
6
100
AcDbText
 10
-35.0
 20
-46.0
 30
0.0
 40
3.5
  1
HSK100-A
  7
SIMPLEX
100
AcDbText
  0
LINE
  5
50D
330
18
100
AcDbEntity
  8
SK3
100
AcDbLine
 10
-9.746794344808964
 20
-31.5
 30
0.0
 11
-27.11662432702593
 21
-31.49999999999999
 31
0.0
  0
LINE
  5
50E
330
18
100
AcDbEntity
  8
SK3
100
AcDbLine
 10
-30.00337567297406
 20
-26.49999999999999
 30
0.0
 11
-27.11662432702593
 21
-31.49999999999999
 31
0.0
  0
LINE
  5
50F
330
18
100
AcDbEntity
  8
SK3
100
AcDbLine
 10
-40.0
 20
-34.06348486282634
 30
0.0
 11
-39.99999999999999
 21
-26.49999999999999
 31
0.0
  0
LINE
  5
510
330
18
100
AcDbEntity
  8
SK3
100
AcDbLine
 10
0.0000000000000048
 20
-39.48193749999999
 30
0.0
 11
0.09287316398487
 21
-38.82111060096005
 31
0.0
  0
LINE
  5
511
330
18
100
AcDbEntity
  8
SK3
100
AcDbLine
 10
5.0
 20
-50.0
 30
0.0
 11
5.0
 21
-44.0
 31
0.0
  0
ARC
  5
512
330
18
100
AcDbEntity
  8
SK3
100
AcDbCircle
 10
-9.746794344808963
 20
-19.5
 30
0.0
 40
12.0
100
AcDbArc
 50
270.0
 51
324.3146652873479
  0
ARC
  5
513
330
18
100
AcDbEntity
  8
1
100
AcDbCircle
 10
-0.8973949047567003
 20
-38.68193749999999
 30
0.0
 40
1.0
100
AcDbArc
 50
26.18227578673888
 51
90.00000000000003
  0
ARC
  5
514
330
18
100
AcDbEntity
  8
1
100
AcDbCircle
 10
-1.621937340898824
 20
-38.68193749999999
 30
0.0
 40
1.0
100
AcDbArc
 50
90.00000000000047
 51
105.0000000000001
  0
LINE
  5
515
330
18
100
AcDbEntity
  8
1
100
AcDbLine
 10
-2.500000000000004
 20
-37.8819375
 30
0.0
 11
-1.880756386001347
 21
-37.71601167371093
 31
0.0
  0
LINE
  5
516
330
18
100
AcDbEntity
  8
1
100
AcDbLine
 10
-1.621937340898823
 20
-37.6819375
 30
0.0
 11
-0.8973949047567003
 21
-37.68193749999999
 31
0.0
  0
ARC
  5
517
330
18
100
AcDbEntity
  8
SK3
100
AcDbCircle
 10
-0.8973949047567003
 20
-38.68193749999999
 30
0.0
 40
1.0
100
AcDbArc
 50
352.0
 51
26.18227578673888
  0
LINE
  5
518
330
18
100
AcDbEntity
  8
SK3
100
AcDbLine
 10
12.5
 20
-26.5
 30
0.0
 11
0.0000000000000032
 21
-26.5
 31
0.0
  0
LINE
  5
519
330
18
100
AcDbEntity
  8
1
100
AcDbLine
 10
16.75240473580836
 20
-50.0
 30
0.0
 11
16.75240473580835
 21
-35.49999999999998
 31
0.0
  0
LINE
  5
51A
330
18
100
AcDbEntity
  8
1
100
AcDbLine
 10
18.125
 20
-32.25
 30
0.0
 11
18.12500000000001
 21
-47.62259526419165
 31
0.0
  0
LINE
  5
51B
330
18
100
AcDbEntity
  8
1
100
AcDbLine
 10
21.875
 20
-32.25
 30
0.0
 11
21.875
 21
-47.62259526419164
 31
0.0
  0
LINE
  5
51C
330
18
100
AcDbEntity
  8
1
100
AcDbLine
 10
23.24759526419164
 20
-35.50000000000001
 30
0.0
 11
23.24759526419164
 21
-50.0
 31
0.0
  0
LINE
  5
51D
330
18
100
AcDbEntity
  8
1
100
AcDbLine
 10
29.0
 20
-50.0
 30
0.0
 11
23.24759526419164
 21
-50.0
 31
0.0
  0
LINE
  5
51E
330
18
100
AcDbEntity
  8
1
100
AcDbLine
 10
18.12500000000001
 20
-47.62259526419164
 30
0.0
 11
18.12500000000001
 21
-46.74999999999999
 31
0.0
  0
LINE
  5
51F
330
18
100
AcDbEntity
  8
1
100
AcDbLine
 10
21.87500000000001
 20
-47.62259526419165
 30
0.0
 11
21.87500000000001
 21
-46.74999999999999
 31
0.0
  0
LINE
  5
520
330
18
100
AcDbEntity
  8
1
100
AcDbLine
 10
18.125
 20
-47.62259526419164
 30
0.0
 11
16.75240473580835
 21
-50.0
 31
0.0
  0
LINE
  5
521
330
18
100
AcDbEntity
  8
1
100
AcDbLine
 10
21.875
 20
-47.62259526419164
 30
0.0
 11
23.24759526419165
 21
-50.0
 31
0.0
  0
LINE
  5
522
330
18
100
AcDbEntity
  8
1
100
AcDbLine
 10
21.12500000000001
 20
-45.99999999999999
 30
0.0
 11
18.87500000000001
 21
-46.0
 31
0.0
  0
ARC
  5
523
330
18
100
AcDbEntity
  8
1
100
AcDbCircle
 10
18.87500000000001
 20
-46.74999999999999
 30
0.0
 40
0.75
100
AcDbArc
 50
90.00000000000003
 51
180.0
  0
ARC
  5
524
330
18
100
AcDbEntity
  8
1
100
AcDbCircle
 10
21.12500000000001
 20
-46.74999999999999
 30
0.0
 40
0.75
100
AcDbArc
 50
0.0
 51
90.00000000000003
  0
LINE
  5
525
330
18
100
AcDbEntity
  8
1
100
AcDbLine
 10
29.0
 20
-38.82975663070785
 30
0.0
 11
23.24759526419164
 21
-38.82975663070785
 31
0.0
  0
LINE
  5
526
330
18
100
AcDbEntity
  8
1
100
AcDbLine
 10
21.12499999999999
 20
-31.5
 30
0.0
 11
18.87499999999999
 21
-31.50000000000001
 31
0.0
  0
ARC
  5
527
330
18
100
AcDbEntity
  8
1
100
AcDbCircle
 10
18.87499999999999
 20
-32.25
 30
0.0
 40
0.75
100
AcDbArc
 50
89.99999999999996
 51
179.9999999999999
  0
LINE
  5
528
330
18
100
AcDbEntity
  8
1
100
AcDbLine
 10
18.12499999999999
 20
-33.12259526419165
 30
0.0
 11
16.75240473580834
 21
-35.5
 31
0.0
  0
LINE
  5
529
330
18
100
AcDbEntity
  8
1
100
AcDbLine
 10
18.12499999999999
 20
-33.12259526419165
 30
0.0
 11
18.12499999999999
 21
-32.25
 31
0.0
  0
LINE
  5
52A
330
18
100
AcDbEntity
  8
1
100
AcDbLine
 10
16.75240473580834
 20
-38.82975663070785
 30
0.0
 11
14.63689785920507
 21
-38.82975663070785
 31
0.0
  0
LINE
  5
52B
330
18
100
AcDbEntity
  8
SK3
100
AcDbLine
 10
14.63689785920507
 20
-31.5
 30
0.0
 11
14.63689785920507
 21
-38.82975663070785
 31
0.0
  0
ARC
  5
52C
330
18
100
AcDbEntity
  8
1
100
AcDbCircle
 10
21.12499999999999
 20
-32.25
 30
0.0
 40
0.75
100
AcDbArc
 50
0.0
 51
89.99999999999996
  0
LINE
  5
52D
330
18
100
AcDbEntity
  8
1
100
AcDbLine
 10
21.87499999999999
 20
-33.12259526419165
 30
0.0
 11
23.24759526419164
 21
-35.50000000000001
 31
0.0
  0
LINE
  5
52E
330
18
100
AcDbEntity
  8
1
100
AcDbLine
 10
21.87499999999999
 20
-33.12259526419166
 30
0.0
 11
21.87499999999999
 21
-32.25
 31
0.0
  0
LINE
  5
52F
330
18
100
AcDbEntity
  8
SK3
100
AcDbLine
 10
28.99999999999999
 20
44.00000000000001
 30
0.0
 11
5.0
 21
44.0
 31
0.0
  0
ARC
  5
530
330
18
100
AcDbEntity
  8
1
100
AcDbCircle
 10
15.0
 20
-0.0000000000000071
 30
0.0
 40
10.0
100
AcDbArc
 50
90.00000000000003
 51
270.0
  0
LINE
  5
531
330
18
100
AcDbEntity
  8
SK3
100
AcDbLine
 10
26.5
 20
12.0
 30
0.0
 11
12.5
 21
12.0
 31
0.0
  0
LINE
  5
532
330
18
100
AcDbEntity
  8
SK3
100
AcDbLine
 10
26.5
 20
11.2
 30
0.0
 11
12.5
 21
11.2
 31
0.0
  0
LINE
  5
533
330
18
100
AcDbEntity
  8
SK3
100
AcDbLine
 10
26.5
 20
-11.19999999999999
 30
0.0
 11
12.5
 21
-11.19999999999999
 31
0.0
  0
LINE
  5
534
330
18
100
AcDbEntity
  8
SK3
100
AcDbLine
 10
26.5
 20
-11.99999999999999
 30
0.0
 11
12.5
 21
-11.99999999999999
 31
0.0
  0
POLYLINE
  5
535
330
18
100
AcDbEntity
  8
1
100
AcDb2dPolyline
 66
     1
 10
0.0
 20
0.0
 30
0.0
  0
VERTEX
  5
5F6
330
535
100
AcDbEntity
  8
1
100
AcDbVertex
100
AcDb2dVertex
 10
-40.0
 20
14.94
 30
0.0
  0
VERTEX
  5
5F7
330
535
100
AcDbEntity
  8
1
100
AcDbVertex
100
AcDb2dVertex
 10
-40.0
 20
8.010000000000005
 30
0.0
  0
SEQEND
  5
5F8
330
535
100
AcDbEntity
  8
1
  0
CIRCLE
  5
536
330
18
100
AcDbEntity
  8
1
100
AcDbCircle
 10
-15.0
 20
0.0000000000000071
 30
0.0
 40
6.5
  0
CIRCLE
  5
537
330
18
100
AcDbEntity
  8
1
100
AcDbCircle
 10
-15.0
 20
0.0000000000000071
 30
0.0
 40
6.0
  0
LINE
  5
538
330
18
100
AcDbEntity
  8
1
100
AcDbLine
 10
-40.0
 20
8.010000000000005
 30
0.0
 11
-40.0
 21
-8.00999999999999
 31
0.0
  0
LINE
  5
539
330
18
100
AcDbEntity
  8
SK4
100
AcDbLine
 10
-15.0
 20
-7.972945256837419
 30
0.0
 11
-15.0
 21
7.778821928344996
 31
0.0
  0
LINE
  5
53A
330
18
100
AcDbEntity
  8
4
100
AcDbLine
 10
-15.0
 20
-7.972945256837419
 30
0.0
 11
-15.0
 21
7.778821928344996
 31
0.0
  0
POLYLINE
  5
53B
330
18
100
AcDbEntity
  8
1
100
AcDb2dPolyline
 66
     1
 10
0.0
 20
0.0
 30
0.0
  0
VERTEX
  5
5F9
330
53B
100
AcDbEntity
  8
1
100
AcDbVertex
100
AcDb2dVertex
 10
-40.0
 20
-14.93999999999999
 30
0.0
  0
VERTEX
  5
5FA
330
53B
100
AcDbEntity
  8
1
100
AcDbVertex
100
AcDb2dVertex
 10
-40.0
 20
-8.00999999999999
 30
0.0
  0
SEQEND
  5
5FB
330
53B
100
AcDbEntity
  8
1
  0
LINE
  5
53C
330
18
100
AcDbEntity
  8
SK3
100
AcDbLine
 10
-9.746794344808957
 20
31.5
 30
0.0
 11
-27.11662432702592
 21
31.5
 31
0.0
  0
LINE
  5
53D
330
18
100
AcDbEntity
  8
SK3
100
AcDbLine
 10
-39.99999999999999
 20
34.06348486282636
 30
0.0
 11
-39.99999999999999
 21
26.5
 31
0.0
  0
LINE
  5
53E
330
18
100
AcDbEntity
  8
SK3
100
AcDbLine
 10
-30.00337567297405
 20
26.5
 30
0.0
 11
-27.11662432702592
 21
31.5
 31
0.0
  0
ARC
  5
53F
330
18
100
AcDbEntity
  8
SK3
100
AcDbCircle
 10
-9.746794344808959
 20
19.5
 30
0.0
 40
12.0
100
AcDbArc
 50
35.68533471265205
 51
89.99999999999998
  0
LINE
  5
540
330
18
100
AcDbEntity
  8
SK3
100
AcDbLine
 10
12.49999999999999
 20
26.5
 30
0.0
 11
-0.0000000000000032
 21
26.5
 31
0.0
  0
ARC
  5
541
330
18
100
AcDbEntity
  8
1
100
AcDbCircle
 10
-0.8973949047567099
 20
38.68193749999999
 30
0.0
 40
1.0
100
AcDbArc
 50
270.0
 51
333.8177242132611
  0
LINE
  5
542
330
18
100
AcDbEntity
  8
1
100
AcDbLine
 10
-2.499999999999995
 20
37.8819375
 30
0.0
 11
-1.880756386001338
 21
37.71601167371093
 31
0.0
  0
ARC
  5
543
330
18
100
AcDbEntity
  8
1
100
AcDbCircle
 10
-1.621937340898814
 20
38.68193749999999
 30
0.0
 40
1.0
100
AcDbArc
 50
254.9999999999998
 51
269.9999999999994
  0
LINE
  5
544
330
18
100
AcDbEntity
  8
1
100
AcDbLine
 10
-1.621937340898832
 20
37.6819375
 30
0.0
 11
-0.8973949047567097
 21
37.68193749999999
 31
0.0
  0
LINE
  5
545
330
18
100
AcDbEntity
  8
SK3
100
AcDbLine
 10
-0.0000000000000048
 20
39.48193749999999
 30
0.0
 11
0.0928731639848605
 21
38.82111060096005
 31
0.0
  0
ARC
  5
546
330
18
100
AcDbEntity
  8
SK3
100
AcDbCircle
 10
-0.8973949047567099
 20
38.68193749999999
 30
0.0
 40
1.0
100
AcDbArc
 50
333.8177242132611
 51
8.000000000000024
  0
LINE
  5
547
330
18
100
AcDbEntity
  8
SK3
100
AcDbLine
 10
28.5
 20
12.25
 30
0.0
 11
28.5
 21
-12.24999999999999
 31
0.0
  0
LINE
  5
548
330
18
100
AcDbEntity
  8
SK3
100
AcDbLine
 10
26.5
 20
12.25
 30
0.0
 11
26.5
 21
-12.24999999999999
 31
0.0
  0
LINE
  5
549
330
18
100
AcDbEntity
  8
1
100
AcDbLine
 10
15.0
 20
-10.0
 30
0.0
 11
29.0
 21
-10.0
 31
0.0
  0
LINE
  5
54A
330
18
100
AcDbEntity
  8
SK3
100
AcDbLine
 10
28.5
 20
-12.24999999999999
 30
0.0
 11
26.5
 21
-12.24999999999999
 31
0.0
  0
LINE
  5
54B
330
18
100
AcDbEntity
  8
1
100
AcDbLine
 10
15.0
 20
9.999999999999992
 30
0.0
 11
29.0
 21
9.999999999999992
 31
0.0
  0
LINE
  5
54C
330
18
100
AcDbEntity
  8
SK3
100
AcDbLine
 10
28.5
 20
12.25
 30
0.0
 11
26.5
 21
12.25
 31
0.0
  0
LINE
  5
54E
330
18
100
AcDbEntity
  8
1
100
AcDbLine
 10
16.75240473580834
 20
50.0
 30
0.0
 11
-0.0000000000000061
 21
50.0
 31
0.0
  0
LINE
  5
54F
330
18
100
AcDbEntity
  8
1
100
AcDbLine
 10
28.99999999999999
 20
50.0
 30
0.0
 11
23.24759526419164
 21
50.0
 31
0.0
  0
LINE
  5
550
330
18
100
AcDbEntity
  8
1
100
AcDbLine
 10
21.12499999999999
 20
45.99999999999999
 30
0.0
 11
18.87499999999999
 21
46.0
 31
0.0
  0
LINE
  5
551
330
18
100
AcDbEntity
  8
1
100
AcDbLine
 10
18.12499999999999
 20
47.62259526419164
 30
0.0
 11
18.12499999999999
 21
46.74999999999999
 31
0.0
  0
LINE
  5
552
330
18
100
AcDbEntity
  8
1
100
AcDbLine
 10
18.12499999999999
 20
47.62259526419164
 30
0.0
 11
16.75240473580834
 21
50.0
 31
0.0
  0
ARC
  5
553
330
18
100
AcDbEntity
  8
1
100
AcDbCircle
 10
18.87499999999999
 20
46.74999999999999
 30
0.0
 40
0.75
100
AcDbArc
 50
180.0
 51
270.0
  0
LINE
  5
554
330
18
100
AcDbEntity
  8
1
100
AcDbLine
 10
21.87499999999999
 20
47.62259526419165
 30
0.0
 11
21.87499999999999
 21
46.74999999999999
 31
0.0
  0
LINE
  5
555
330
18
100
AcDbEntity
  8
1
100
AcDbLine
 10
21.87499999999999
 20
47.62259526419164
 30
0.0
 11
23.24759526419164
 21
50.0
 31
0.0
  0
ARC
  5
556
330
18
100
AcDbEntity
  8
1
100
AcDbCircle
 10
21.12499999999999
 20
46.74999999999999
 30
0.0
 40
0.75
100
AcDbArc
 50
270.0
 51
0.0
  0
ARC
  5
59B
330
18
100
AcDbEntity
  8
1
100
AcDbCircle
 10
48.99999999999999
 20
32.5
 30
0.0
 40
20.0
100
AcDbArc
 50
180.0
 51
270.0
  0
ARC
  5
59C
330
18
100
AcDbEntity
  8
1
100
AcDbCircle
 10
48.99999999999999
 20
-32.5
 30
0.0
 40
20.0
100
AcDbArc
 50
90.00000000000003
 51
180.0
  0
LINE
  5
59D
330
18
100
AcDbEntity
  8
1
100
AcDbLine
 10
48.99999999999999
 20
-12.5
 30
0.0
 11
108.0
 21
-12.49999999999999
 31
0.0
  0
LINE
  5
5A8
330
18
100
AcDbEntity
  8
2
100
AcDbLine
 10
0.0000000000000061
 20
50.0
 30
0.0
 11
0.000000000000007
 21
65.0
 31
0.0
  0
LINE
  5
5A9
330
18
100
AcDbEntity
  8
2
100
AcDbLine
 10
29.0
 20
50.0
 30
0.0
 11
29.0
 21
65.0
 31
0.0
  0
LINE
  5
5AA
330
18
100
AcDbEntity
  8
2
100
AcDbLine
 10
4.570000000000007
 20
60.0
 30
0.0
 11
24.43
 21
60.0
 31
0.0
  0
SOLID
  5
5AB
330
18
100
AcDbEntity
  8
2
100
AcDbTrace
 10
4.570000000000007
 20
60.76166666666667
 30
0.0
 11
4.570000000000007
 21
59.23833333333333
 31
0.0
 12
0.0000000000000067
 22
60.0
 32
0.0
 13
0.0000000000000067
 23
60.0
 33
0.0
  0
SOLID
  5
5AC
330
18
100
AcDbEntity
  8
2
100
AcDbTrace
 10
24.43
 20
60.76166666666667
 30
0.0
 11
24.43
 21
59.23833333333333
 31
0.0
 12
29.0
 22
60.0
 32
0.0
 13
29.0
 23
60.0
 33
0.0
  0
LINE
  5
5AE
330
18
100
AcDbEntity
  8
SK2
100
AcDbLine
 10
-0.0000000000000061
 20
-50.0
 30
0.0
 11
-70.00000000000003
 21
-49.99999999999998
 31
0.0
  0
LINE
  5
5AF
330
18
100
AcDbEntity
  8
SK2
100
AcDbLine
 10
0.0000000000000061
 20
50.0
 30
0.0
 11
-70.0
 21
50.00000000000002
 31
0.0
  0
LINE
  5
5B0
330
18
100
AcDbEntity
  8
SK2
100
AcDbLine
 10
-65.00000000000003
 20
-45.42999999999998
 30
0.0
 11
-65.0
 21
45.43000000000001
 31
0.0
  0
SOLID
  5
5B1
330
18
100
AcDbEntity
  8
SK2
100
AcDbTrace
 10
-65.7616666666667
 20
-45.42999999999998
 30
0.0
 11
-64.23833333333336
 21
-45.42999999999998
 31
0.0
 12
-65.00000000000003
 22
-49.99999999999998
 32
0.0
 13
-65.00000000000003
 23
-49.99999999999998
 33
0.0
  0
SOLID
  5
5B2
330
18
100
AcDbEntity
  8
SK2
100
AcDbTrace
 10
-65.76166666666667
 20
45.43000000000001
 30
0.0
 11
-64.23833333333333
 21
45.43000000000001
 31
0.0
 12
-65.0
 22
50.00000000000002
 32
0.0
 13
-65.0
 23
50.00000000000002
 33
0.0
  0
LINE
  5
5B4
330
18
100
AcDbEntity
  8
SK2
100
AcDbLine
 10
0.0000000000000061
 20
50.0
 30
0.0
 11
0.000000000000008
 21
80.0
 31
0.0
  0
LINE
  5
5B5
330
18
100
AcDbEntity
  8
SK2
100
AcDbLine
 10
-50.0
 20
32.06348486282636
 30
0.0
 11
-50.0
 21
80.0
 31
0.0
  0
LINE
  5
5B6
330
18
100
AcDbEntity
  8
SK2
100
AcDbLine
 10
-4.569999999999992
 20
75.0
 30
0.0
 11
-45.42999999999999
 21
75.0
 31
0.0
  0
SOLID
  5
5B7
330
18
100
AcDbEntity
  8
SK2
100
AcDbTrace
 10
-4.569999999999992
 20
75.76166666666667
 30
0.0
 11
-4.569999999999992
 21
74.23833333333333
 31
0.0
 12
0.0000000000000077
 22
75.0
 32
0.0
 13
0.0000000000000077
 23
75.0
 33
0.0
  0
SOLID
  5
5B8
330
18
100
AcDbEntity
  8
SK2
100
AcDbTrace
 10
-45.42999999999999
 20
75.76166666666667
 30
0.0
 11
-45.42999999999999
 21
74.23833333333333
 31
0.0
 12
-50.0
 22
75.0
 32
0.0
 13
-50.0
 23
75.0
 33
0.0
  0
LINE
  5
5BA
330
18
100
AcDbEntity
  8
2
100
AcDbLine
 10
-0.0000000000000061
 20
50.0
 30
0.0
 11
-0.0000000000000043
 21
80.0
 31
0.0
  0
LINE
  5
5BB
330
18
100
AcDbEntity
  8
2
100
AcDbLine
 10
110.0
 20
10.49999999999999
 30
0.0
 11
110.0
 21
80.0
 31
0.0
  0
LINE
  5
5BC
330
18
100
AcDbEntity
  8
2
100
AcDbLine
 10
4.569999999999995
 20
75.0
 30
0.0
 11
105.43
 21
75.0
 31
0.0
  0
SOLID
  5
5BD
330
18
100
AcDbEntity
  8
2
100
AcDbTrace
 10
4.569999999999995
 20
75.76166666666667
 30
0.0
 11
4.569999999999995
 21
74.23833333333333
 31
0.0
 12
-0.0000000000000046
 22
75.0
 32
0.0
 13
-0.0000000000000046
 23
75.0
 33
0.0
  0
SOLID
  5
5BE
330
18
100
AcDbEntity
  8
2
100
AcDbTrace
 10
105.43
 20
75.76166666666667
 30
0.0
 11
105.43
 21
74.23833333333333
 31
0.0
 12
110.0
 22
75.0
 32
0.0
 13
110.0
 23
75.0
 33
0.0
  0
TEXT
  5
5C0
330
18
100
AcDbEntity
  8
2
100
AcDbText
 10
49.9947619047619
 20
77.3
 30
0.0
 40
4.57
  1
110
  7
SIMPLEX
100
AcDbText
  0
TEXT
  5
5C1
330
18
100
AcDbEntity
  8
SK2
100
AcDbText
 10
-28.6995238095238
 20
77.3
 30
0.0
 40
4.57
  1
50
  7
SIMPLEX
100
AcDbText
  0
TEXT
  5
5C2
330
18
100
AcDbEntity
  8
SK2
100
AcDbText
 10
-67.30000000000001
 20
-7.50785714285713
 30
0.0
 40
4.57
  1
%%c
 50
90.0
  7
SIMPLEX
100
AcDbText
  0
TEXT
  5
5C3
330
18
100
AcDbEntity
  8
SK2
100
AcDbText
 10
-67.30000000000001
 20
-3.373095238095225
 30
0.0
 40
4.57
  1
100
 50
90.0
  7
SIMPLEX
100
AcDbText
  0
TEXT
  5
5C4
330
18
100
AcDbEntity
  8
2
100
AcDbText
 10
10.90928571428571
 20
62.30000000000001
 30
0.0
 40
4.57
  1
29
  7
SIMPLEX
100
AcDbText
  0
TEXT
  5
5C5
330
18
100
AcDbEntity
  8
SK2
100
AcDbText
 10
122.6999999999999
 20
-5.766904761904758
 30
0.0
 40
4.57
  1
%%c
 50
90.0
  7
SIMPLEX
100
AcDbText
  0
TEXT
  5
5C6
330
18
100
AcDbEntity
  8
SK2
100
AcDbText
 10
122.6999999999999
 20
-1.632142857142853
 30
0.0
 40
4.57
  1
25
 50
90.0
  7
SIMPLEX
100
AcDbText
  0
ENDSEC
  0
SECTION
  2
OBJECTS
  0
DICTIONARY
  5
C
330
0
100
AcDbDictionary
  3
ACAD_GROUP
350
D
  3
ACAD_LAYOUT
350
301
  3
ACAD_MLINESTYLE
350
E
  3
ACAD_PLOTSETTINGS
350
302
1001
ACAD
1000
TREAT_AS_HARD
1070
     0
  0
DICTIONARY
  5
5C8
330
18
100
AcDbDictionary
  3
ACAD_LAYOUTSELFREF
350
5C9
  0
DICTIONARY
  5
5CA
330
338
100
AcDbDictionary
  3
ACAD_LAYOUTSELFREF
350
5CB
  0
DICTIONARY
  5
D
102
{ACAD_REACTORS
330
C
102
}
330
C
100
AcDbDictionary
1001
ACAD
1000
TREAT_AS_HARD
1070
     0
  0
DICTIONARY
  5
301
102
{ACAD_REACTORS
330
C
102
}
330
C
100
AcDbDictionary
1001
ACAD
1000
TREAT_AS_HARD
1070
     0
  0
DICTIONARY
  5
E
102
{ACAD_REACTORS
330
C
102
}
330
C
100
AcDbDictionary
  3
STANDARD
350
1B
1001
ACAD
1000
TREAT_AS_HARD
1070
     0
  0
DICTIONARY
  5
302
102
{ACAD_REACTORS
330
C
102
}
330
C
100
AcDbDictionary
1001
ACAD
1000
TREAT_AS_HARD
1070
     0
  0
XRECORD
  5
5C9
102
{ACAD_REACTORS
330
5C8
102
}
330
5C8
100
AcDbXrecord
340
18
  0
XRECORD
  5
5CB
102
{ACAD_REACTORS
330
5CA
102
}
330
5CA
100
AcDbXrecord
340
338
  0
MLINESTYLE
  5
1B
102
{ACAD_REACTORS
330
E
102
}
330
E
100
AcDbMlineStyle
  2
STANDARD
 70
     0
  3

 62
     0
 51
90.0
 52
90.0
 71
     2
 49
0.5
 62
   256
  6
BYLAYER
 49
-0.5
 62
   256
  6
BYLAYER
  0
ENDSEC
  0
EOF
