  0
SECTION
  2
HEADER
  9
$ACADVER
  1
AC1014
  9
$ACADMAINTVER
 70
             0
  9
$DWGCODEPAGE
  3
ANSI_1252
  9
$INSBASE
 10
0.0
 20
0.0
 30
0.0
  9
$EXTMIN
 10
1.00000000000000E+20
 20
1.00000000000000E+20
 30
1.00000000000000E+20
  9
$EXTMAX
 10
-1.00000000000000E+20
 20
-1.00000000000000E+20
 30
-1.00000000000000E+20
  9
$LIMMIN
 10
0.0
 20
0.0
  9
$LIMMAX
 10
0.0
 20
0.0
  9
$ORTHOMODE
 70
             0
  9
$REGENMODE
 70
             1
  9
$FILLMODE
 70
             1
  9
$QTEXTMODE
 70
             0
  9
$MIRRTEXT
 70
             1
  9
$DRAGMODE
 70
             2
  9
$LTSCALE
 40
1.0
  9
$OSMODE
 70
             0
  9
$ATTMODE
 70
             1
  9
$TEXTSIZE
 40
0.2
  9
$TRACEWID
 40
0.05
  9
$TEXTSTYLE
  7
STANDARD
  9
$CLAYER
  8
0
  9
$CELTYPE
  6
CONTINUOUS
  9
$CECOLOR
 62
           256
  9
$CELTSCALE
 40
1.0
  9
$DELOBJ
 70
             1
  9
$DISPSILH
 70
             0
  9
$DIMSCALE
 40
1.0
  9
$DIMASZ
 40
0.18
  9
$DIMEXO
 40
0.0625
  9
$DIMDLI
 40
0.38
  9
$DIMRND
 40
0.0
  9
$DIMDLE
 40
0.0
  9
$DIMEXE
 40
0.18
  9
$DIMTP
 40
0.0
  9
$DIMTM
 40
0.0
  9
$DIMTXT
 40
0.18
  9
$DIMCEN
 40
0.09
  9
$DIMTSZ
 40
0.0
  9
$DIMTOL
 70
             0
  9
$DIMLIM
 70
             0
  9
$DIMTIH
 70
             1
  9
$DIMTOH
 70
             1
  9
$DIMSE1
 70
             0
  9
$DIMSE2
 70
             0
  9
$DIMTAD
 70
             0
  9
$DIMZIN
 70
             0
  9
$DIMBLK
  1

  9
$DIMASO
 70
             1
  9
$DIMSHO
 70
             1
  9
$DIMPOST
  1

  9
$DIMAPOST
  1

  9
$DIMALT
 70
             0
  9
$DIMALTD
 70
             2
  9
$DIMALTF
 40
25.4
  9
$DIMLFAC
 40
1.0
  9
$DIMTOFL
 70
             0
  9
$DIMTVP
 40
0.0
  9
$DIMTIX
 70
             0
  9
$DIMSOXD
 70
             0
  9
$DIMSAH
 70
             0
  9
$DIMBLK1
  1

  9
$DIMBLK2
  1

  9
$DIMSTYLE
  2
STANDARD
  9
$DIMCLRD
 70
             0
  9
$DIMCLRE
 70
             0
  9
$DIMCLRT
 70
             0
  9
$DIMTFAC
 40
1.0
  9
$DIMGAP
 40
0.09
  9
$DIMJUST
 70
             0
  9
$DIMSD1
 70
             0
  9
$DIMSD2
 70
             0
  9
$DIMTOLJ
 70
             1
  9
$DIMTZIN
 70
             0
  9
$DIMALTZ
 70
             0
  9
$DIMALTTZ
 70
             0
  9
$DIMFIT
 70
             3
  9
$DIMUPT
 70
             0
  9
$DIMUNIT
 70
             2
  9
$DIMDEC
 70
             4
  9
$DIMTDEC
 70
             4
  9
$DIMALTU
 70
             2
  9
$DIMALTTD
 70
             2
  9
$DIMTXSTY
  7
STANDARD
  9
$DIMAUNIT
 70
             0
  9
$LUNITS
 70
             2
  9
$LUPREC
 70
             4
  9
$SKETCHINC
 40
0.1
  9
$FILLETRAD
 40
0.0
  9
$AUNITS
 70
             0
  9
$AUPREC
 70
             0
  9
$MENU
  1
acad
  9
$ELEVATION
 40
0.0
  9
$PELEVATION
 40
0.0
  9
$THICKNESS
 40
0.0
  9
$LIMCHECK
 70
             0
  9
$BLIPMODE
 70
             1
  9
$CHAMFERA
 40
0.0
  9
$CHAMFERB
 40
0.0
  9
$CHAMFERC
 40
0.0
  9
$CHAMFERD
 40
0.0
  9
$SKPOLY
 70
             0
  9
$TDCREATE
 40
0.000000000
  9
$TDUPDATE
 40
0.000000000
  9
$TDINDWG
 40
0.0000000000
  9
$TDUSRTIMER
 40
0.0000000000
  9
$USRTIMER
 70
             1
  9
$ANGBASE
 50
0.0
  9
$ANGDIR
 70
             0
  9
$PDMODE
 70
             0
  9
$PDSIZE
 40
0.0
  9
$PLINEWID
 40
0.0
  9
$COORDS
 70
             0
  9
$SPLFRAME
 70
             0
  9
$SPLINETYPE
 70
             6
  9
$SPLINESEGS
 70
             8
  9
$ATTDIA
 70
             0
  9
$ATTREQ
 70
             1
  9
$HANDLING
 70
             1
  9
$HANDSEED
  5
12E
  9
$SURFTAB1
 70
             6
  9
$SURFTAB2
 70
             6
  9
$SURFTYPE
 70
             6
  9
$SURFU
 70
             6
  9
$SURFV
 70
             6
  9
$UCSNAME
  2

  9
$UCSORG
 10
0.0
 20
0.0
 30
0.0
  9
$UCSXDIR
 10
1.0
 20
0.0
 30
0.0
  9
$UCSYDIR
 10
0.0
 20
1.0
 30
0.0
  9
$PUCSNAME
  2

  9
$PUCSORG
 10
0.0
 20
0.0
 30
0.0
  9
$PUCSXDIR
 10
1.0
 20
0.0
 30
0.0
  9
$PUCSYDIR
 10
0.0
 20
1.0
 30
0.0
  9
$USERI1
 70
             0
  9
$USERI2
 70
             0
  9
$USERI3
 70
             0
  9
$USERI4
 70
             0
  9
$USERI5
 70
             0
  9
$USERR1
 40
11.0
  9
$USERR2
 40
0.0
  9
$USERR3
 40
0.0
  9
$USERR4
 40
0.0
  9
$USERR5
 40
0.0
  9
$WORLDVIEW
 70
             1
  9
$SHADEDGE
 70
             3
  9
$SHADEDIF
 70
            70
  9
$TILEMODE
 70
             1
  9
$MAXACTVP
 70
            16
  9
$PINSBASE
 10
0.0
 20
0.0
 30
0.0
  9
$PLIMCHECK
 70
             0
  9
$PEXTMIN
 10
1.00000000000000E+20
 20
1.00000000000000E+20
 30
1.00000000000000E+20
  9
$PEXTMAX
 10
-1.00000000000000E+20
 20
-1.00000000000000E+20
 30
-1.00000000000000E+20
  9
$PLIMMIN
 10
0.0
 20
0.0
  9
$PLIMMAX
 10
12.0
 20
9.0
  9
$UNITMODE
 70
             0
  9
$VISRETAIN
 70
             0
  9
$PLINEGEN
 70
             1
  9
$PSLTSCALE
 70
             0
  9
$TREEDEPTH
 70
          3020
  9
$PICKSTYLE
 70
             1
  9
$CMLSTYLE
  2
STANDARD
  9
$CMLJUST
 70
             0
  9
$CMLSCALE
 40
1.0
  9
$PROXYGRAPHICS
 70
             0
  9
$MEASUREMENT
 70
             1
  0
ENDSEC
  0
SECTION
  2
CLASSES
  0
CLASS
  1
LWPOLYLINE
  2
AcDbPolyline
  3
"AutoCAD"
 90
        0
280
             0
281
             1
  0
CLASS
  1
IMAGE
  2
AcDbRasterImage
  3
ISM
 90
      127
280
             0
281
             1
  0
CLASS
  1
OLE2FRAME
  2
AcDbOle2Frame
  3
""
 90
        0
280
             0
281
             1
  0
CLASS
  1
HATCH
  2
AcDbHatch
  3
"ACAD_SEDONA"
 90
        0
280
             0
281
             1
  0
CLASS
  1
DICTIONARYVAR
  2
AcDbDictionaryVar
  3
"AutoCAD"
 90
        0
280
             0
281
             0
  0
CLASS
  1
RASTERVARIABLES
  2
AcDbRasterVariables
  3
ISM
 90
        0
280
             0
281
             0
  0
CLASS
  1
IMAGEDEF
  2
AcDbRasterImageDef
  3
ISM
 90
        0
280
             0
281
             0
  0
CLASS
  1
IMAGEDEF_REACTOR
  2
AcDbRasterImageDefReactor
  3
ISM
 90
        1
280
             0
281
             0
  0
CLASS
  1
IDBUFFER
  2
AcDbIdBuffer
  3
"Acad"
 90
        0
280
             0
281
             0
  0
CLASS
  1
SPATIAL_FILTER
  2
AcDbSpatialFilter
  3
"Acad"
 90
        0
280
             0
281
             0
  0
CLASS
  1
XRECORD
  2
AcDbXrecord
  3
"<Built In>"
 90
        0
280
             0
281
             0
  0
CLASS
  1
SORTENTSTABLE
  2
AcDbSortentsTable
  3
"AutoCAD"
 90
        0
280
             0
281
             0
  0
CLASS
  1
LAYER_INDEX
  2
AcDbLayerIndex
  3
"Acad"
 90
        0
280
             0
281
             0
  0
CLASS
  1
SPATIAL_INDEX
  2
AcDbSpatialIndex
  3
"Acad"
 90
        0
280
             0
281
             0
  0
CLASS
  1
OBJECT_PTR
  2
CAseDLPNTableRecord
  3
"ASE-LPNTableRecord"
 90
        1
280
             0
281
             0
  0
CLASS
  1
LAYOUT
  2
AcDbLayout
  3
"AutoCAD 2000"
 90
        1
280
             0
281
             0
  0
CLASS
  1
PLOTSETTINGS
  2
AcDbPlotSettings
  3
"AutoCAD 2000"
 90
        1
280
             0
281
             0
  0
CLASS
  1
ACDBDICTIONARYWDFLT
  2
AcDbDictionaryWithDefault
  3
"AutoCAD 2000"
 90
        1
280
             0
281
             0
  0
CLASS
  1
ACDBPLACEHOLDER
  2
AcDbPlaceHolder
  3
"AutoCAD 2000"
 90
        1
280
             0
281
             0
  0
CLASS
  1
VBA_PROJECT
  2
AcDbVbaProject
  3
"acadvba"
 90
        1
280
             0
281
             0
  0
CLASS
  1
WIPEOUT
  2
AcDbWipeout
  3
WipeOut|AutoCAD Express Tool|expresstools@autodesk.com
 90
      127
280
             0
281
             1
  0
CLASS
  1
WIPEOUTVARIABLES
  2
AcDbWipeoutVariables
  3
WipeOut|AutoCAD Express Tool|expresstools@autodesk.com
 90
        0
280
             0
281
             0
  0
CLASS
  1
RTEXT
  2
RText
  3
RText|AutoCAD Express Tool|expresstools@autodesk.com
 90
        0
280
             0
281
             1
  0
CLASS
  1
ARCALIGNEDTEXT
  2
AcDbArcAlignedText
  3
ATEXT|AutoCAD Express Tool|expresstools@autodesk.com
 90
        0
280
             0
281
             1
  0
ENDSEC
  0
SECTION
  2
TABLES
  0
TABLE
  2
VPORT
  5
7
100
AcDbSymbolTable
 70
             1
  0
VPORT
  5
15
100
AcDbSymbolTableRecord
100
AcDbViewportTableRecord
  2
*ACTIVE
 70
             0
 10
0.0
 20
0.0
 11
1.0
 21
1.0
 12
40.779
 22
24.935
 13
0.0
 23
0.0
 14
1.0
 24
1.0
 15
0.0
 25
0.0
 16
0.0
 26
0.0
 36
1.0
 17
0.0
 27
0.0
 37
0.0
 40
136.200860167131
 41
1.60267857142857
 42
50.0
 43
0.0
 44
0.0
 50
0.0
 51
0.0
 71
             0
 72
           100
 73
             1
 74
             1
 75
             0
 76
             0
 77
             0
 78
             0
  0
ENDTAB
  0
TABLE
  2
LTYPE
  5
4
100
AcDbSymbolTable
 70
            10
  0
LTYPE
  5
11
100
AcDbSymbolTableRecord
100
AcDbLinetypeTableRecord
  2
BYBLOCK
 70
            64
  3

 72
            65
 73
             0
 40
0.0
  0
LTYPE
  5
12
100
AcDbSymbolTableRecord
100
AcDbLinetypeTableRecord
  2
BYLAYER
 70
            64
  3

 72
            65
 73
             0
 40
0.0
  0
LTYPE
  5
13
100
AcDbSymbolTableRecord
100
AcDbLinetypeTableRecord
  2
CONTINUOUS
 70
            64
  3
Solid line
 72
            65
 73
             0
 40
0.0
  0
LTYPE
  5
1D
100
AcDbSymbolTableRecord
100
AcDbLinetypeTableRecord
  2
DASHED
 70
            64
  3
Dashed
 72
            65
 73
             2
 40
15.0
 49
12.0
 74
             0
 49
-3.0
 74
             0
  0
LTYPE
  5
1E
100
AcDbSymbolTableRecord
100
AcDbLinetypeTableRecord
  2
DOTTED
 70
            64
  3
Dotted
 72
            65
 73
             2
 40
3.5
 49
0.5
 74
             0
 49
-3.0
 74
             0
  0
LTYPE
  5
1F
100
AcDbSymbolTableRecord
100
AcDbLinetypeTableRecord
  2
DOT_CENTER
 70
            64
  3
Dot_Center
 72
            65
 73
             4
 40
2.0
 49
1.25
 74
             0
 49
-0.25
 74
             0
 49
0.25
 74
             0
 49
-0.25
 74
             0
  0
LTYPE
  5
20
100
AcDbSymbolTableRecord
100
AcDbLinetypeTableRecord
  2
LONG_DASHED
 70
            64
  3
Long_Dashed
 72
            65
 73
             2
 40
2.0
 49
1.5
 74
             0
 49
-0.5
 74
             0
  0
LTYPE
  5
21
100
AcDbSymbolTableRecord
100
AcDbLinetypeTableRecord
  2
DASH_CENTER
 70
            64
  3
Dash_Center
 72
            65
 73
             4
 40
36.0
 49
24.0
 74
             0
 49
-3.0
 74
             0
 49
6.0
 74
             0
 49
-3.0
 74
             0
  0
LTYPE
  5
22
100
AcDbSymbolTableRecord
100
AcDbLinetypeTableRecord
  2
PHANTOM
 70
            64
  3
Phantom
 72
            65
 73
             6
 40
2.5
 49
1.25
 74
             0
 49
-0.25
 74
             0
 49
0.25
 74
             0
 49
-0.25
 74
             0
 49
0.25
 74
             0
 49
-0.25
 74
             0
  0
LTYPE
  5
23
100
AcDbSymbolTableRecord
100
AcDbLinetypeTableRecord
  2
CENTER_DASH_DASH
 70
            64
  3
Center_Dash_Dash
 72
            65
 73
             6
 40
22.0
 49
12.0
 74
             0
 49
-3.0
 74
             0
 49
0.5
 74
             0
 49
-3.0
 74
             0
 49
0.5
 74
             0
 49
-3.0
 74
             0
  0
ENDTAB
  0
TABLE
  2
LAYER
  5
2
100
AcDbSymbolTable
 70
             7
  0
LAYER
  5
14
100
AcDbSymbolTableRecord
100
AcDbLayerTableRecord
  2
0
 70
             0
 62
             7
  6
CONTINUOUS
  0
LAYER
  5
24
100
AcDbSymbolTableRecord
100
AcDbLayerTableRecord
  2
SK2
 70
             0
 62
             7
  6
CONTINUOUS
  0
LAYER
  5
25
100
AcDbSymbolTableRecord
100
AcDbLayerTableRecord
  2
SK3
 70
             0
 62
             1
  6
CONTINUOUS
  0
LAYER
  5
26
100
AcDbSymbolTableRecord
100
AcDbLayerTableRecord
  2
SK4
 70
             0
 62
             2
  6
CONTINUOUS
  0
LAYER
  5
27
100
AcDbSymbolTableRecord
100
AcDbLayerTableRecord
  2
2
 70
             0
 62
             7
  6
CONTINUOUS
  0
LAYER
  5
28
100
AcDbSymbolTableRecord
100
AcDbLayerTableRecord
  2
1
 70
             0
 62
             4
  6
CONTINUOUS
  0
LAYER
  5
29
100
AcDbSymbolTableRecord
100
AcDbLayerTableRecord
  2
6
 70
             0
 62
             5
  6
CONTINUOUS
  0
ENDTAB
  0
TABLE
  2
STYLE
  5
3
100
AcDbSymbolTable
 70
             2
  0
STYLE
  5
17
100
AcDbSymbolTableRecord
100
AcDbTextStyleTableRecord
  2
STANDARD
 70
             0
 40
0.0
 41
1.0
 50
0.0
 71
             0
 42
0.0
  3
txt
  4

  0
STYLE
  5
11A
100
AcDbSymbolTableRecord
100
AcDbTextStyleTableRecord
  2
CONVERTER_1
 70
             0
 40
0.0
 41
0.94736842105263
 50
0.0
 71
             0
 42
0.0
  3
txt.shx
  4

  0
ENDTAB
  0
TABLE
  2
VIEW
  5
5
100
AcDbSymbolTable
 70
             0
  0
ENDTAB
  0
TABLE
  2
UCS
  5
6
100
AcDbSymbolTable
 70
             0
  0
ENDTAB
  0
TABLE
  2
APPID
  5
8
100
AcDbSymbolTable
 70
             1
  0
APPID
  5
16
100
AcDbSymbolTableRecord
100
AcDbRegAppTableRecord
  2
ACAD
 70
             0
  0
ENDTAB
  0
TABLE
  2
DIMSTYLE
  5
9
100
AcDbSymbolTable
 70
             1
  0
DIMSTYLE
105
18
100
AcDbSymbolTableRecord
100
AcDbDimStyleTableRecord
  2
STANDARD
 70
             0
  3

  4

  5

  6

  7

 40
1.0
 41
0.18
 42
0.0625
 43
0.38
 44
0.18
 45
0.0
 46
0.0
 47
0.0
 48
0.0
 71
             0
 72
             0
 73
             1
 74
             1
 75
             0
 76
             0
 77
             0
 78
             0
140
0.18
141
0.09
142
0.0
143
25.4
144
1.0
145
0.0
146
1.0
147
0.09
170
             0
171
             2
172
             0
173
             0
174
             0
175
             0
176
             0
177
             0
178
             0
270
             2
271
             4
272
             4
273
             2
274
             2
275
             0
280
             0
281
             0
282
             0
283
             1
284
             0
285
             0
286
             0
287
             0
288
             0
340
17
  0
ENDTAB
  0
TABLE
  2
BLOCK_RECORD
  5
1
100
AcDbSymbolTable
 70
             0
  0
BLOCK_RECORD
  5
A
100
AcDbSymbolTableRecord
100
AcDbBlockTableRecord
  2
*MODEL_SPACE
  0
BLOCK_RECORD
  5
B
100
AcDbSymbolTableRecord
100
AcDbBlockTableRecord
  2
*PAPER_SPACE
  0
ENDTAB
  0
ENDSEC
  0
SECTION
  2
BLOCKS
  0
BLOCK
  5
D
100
AcDbEntity
  8
0
100
AcDbBlockBegin
  2
*MODEL_SPACE
 70
             0
 10
0.0
 20
0.0
 30
0.0
  3
*MODEL_SPACE
  1

  0
ENDBLK
  5
E
100
AcDbEntity
  8
0
100
AcDbBlockEnd
  0
BLOCK
  5
F
100
AcDbEntity
 67
             1
  8
0
100
AcDbBlockBegin
  2
*PAPER_SPACE
 70
             0
 10
0.0
 20
0.0
 30
0.0
  3
*PAPER_SPACE
  1

  0
ENDBLK
  5
10
100
AcDbEntity
 67
             1
  8
0
100
AcDbBlockEnd
  0
ENDSEC
  0
SECTION
  2
ENTITIES
  0
HATCH
  5
12C
100
AcDbEntity
  8
SK2
  6
CONTINUOUS
 62
             7
100
AcDbHatch
 10
0.0
 20
0.0
 30
0.0
210
0.0
220
0.0
230
1.0
  2
SOLID
 70
             1
 71
             1
 91
        1
 92
        1
 93
        3
 72
             1
 10
135.761666666667
 20
26.93
 11
135.0
 21
31.5
 72
             1
 10
135.0
 20
31.5
 11
134.238333333333
 21
26.93
 72
             1
 10
134.238333333333
 20
26.93
 11
135.761666666667
 21
26.93
 97
        3
330
48
330
49
330
4A
 75
             0
 76
             1
 98
        1
 10
0.0
 20
0.0
  0
HATCH
  5
12B
100
AcDbEntity
  8
SK2
  6
CONTINUOUS
 62
             7
100
AcDbHatch
 10
0.0
 20
0.0
 30
0.0
210
0.0
220
0.0
230
1.0
  2
SOLID
 70
             1
 71
             1
 91
        1
 92
        1
 93
        3
 72
             1
 10
135.761666666667
 20
-26.93
 11
135.0
 21
-31.5
 72
             1
 10
135.0
 20
-31.5
 11
134.238333333333
 21
-26.93
 72
             1
 10
134.238333333333
 20
-26.93
 11
135.761666666667
 21
-26.93
 97
        3
330
45
330
46
330
47
 75
             0
 76
             1
 98
        1
 10
0.0
 20
0.0
  0
HATCH
  5
12A
100
AcDbEntity
  8
SK2
  6
CONTINUOUS
 62
             7
100
AcDbHatch
 10
0.0
 20
0.0
 30
0.0
210
0.0
220
0.0
230
1.0
  2
SOLID
 70
             1
 71
             1
 91
        1
 92
        1
 93
        3
 72
             1
 10
-27.43
 20
74.238333333333301
 11
-32.0
 21
75.0
 72
             1
 10
-32.0
 20
75.0
 11
-27.43
 21
75.761666666666699
 72
             1
 10
-27.43
 20
75.761666666666699
 11
-27.43
 21
74.238333333333301
 97
        3
330
42
330
43
330
44
 75
             0
 76
             1
 98
        1
 10
0.0
 20
0.0
  0
HATCH
  5
129
100
AcDbEntity
  8
SK2
  6
CONTINUOUS
 62
             7
100
AcDbHatch
 10
0.0
 20
0.0
 30
0.0
210
0.0
220
0.0
230
1.0
  2
SOLID
 70
             1
 71
             1
 91
        1
 92
        1
 93
        3
 72
             1
 10
-4.5699999999999896
 20
74.238333333333301
 11
0.0000000000000065
 21
75.0
 72
             1
 10
0.0000000000000065
 20
75.0
 11
-4.5699999999999896
 21
75.761666666666699
 72
             1
 10
-4.5699999999999896
 20
75.761666666666699
 11
-4.5699999999999896
 21
74.238333333333301
 97
        3
330
3F
330
40
330
41
 75
             0
 76
             1
 98
        1
 10
0.0
 20
0.0
  0
HATCH
  5
128
100
AcDbEntity
  8
SK2
  6
CONTINUOUS
 62
             7
100
AcDbHatch
 10
0.0
 20
0.0
 30
0.0
210
0.0
220
0.0
230
1.0
  2
SOLID
 70
             1
 71
             1
 91
        1
 92
        1
 93
        3
 72
             1
 10
-50.810333333333297
 20
-26.93
 11
-51.572000000000003
 21
-31.5
 72
             1
 10
-51.572000000000003
 20
-31.5
 11
-52.333666666666701
 21
-26.93
 72
             1
 10
-52.333666666666701
 20
-26.93
 11
-50.810333333333297
 21
-26.93
 97
        3
330
3C
330
3D
330
3E
 75
             0
 76
             1
 98
        1
 10
0.0
 20
0.0
  0
HATCH
  5
127
100
AcDbEntity
  8
SK2
  6
CONTINUOUS
 62
             7
100
AcDbHatch
 10
0.0
 20
0.0
 30
0.0
210
0.0
220
0.0
230
1.0
  2
SOLID
 70
             1
 71
             1
 91
        1
 92
        1
 93
        3
 72
             1
 10
-50.810333333333297
 20
26.93
 11
-51.572000000000003
 21
31.5
 72
             1
 10
-51.572000000000003
 20
31.5
 11
-52.333666666666701
 21
26.93
 72
             1
 10
-52.333666666666701
 20
26.93
 11
-50.810333333333297
 21
26.93
 97
        3
330
39
330
3A
330
3B
 75
             0
 76
             1
 98
        1
 10
0.0
 20
0.0
  0
HATCH
  5
126
100
AcDbEntity
  8
2
  6
CONTINUOUS
 62
             7
100
AcDbHatch
 10
0.0
 20
0.0
 30
0.0
210
0.0
220
0.0
230
1.0
  2
SOLID
 70
             1
 71
             1
 91
        1
 92
        1
 93
        3
 72
             1
 10
4.5700000000000003
 20
59.238333333333301
 11
0.0000000000000056
 21
60.0
 72
             1
 10
0.0000000000000056
 20
60.0
 11
4.5700000000000003
 21
60.761666666666699
 72
             1
 10
4.5700000000000003
 20
60.761666666666699
 11
4.5700000000000003
 21
59.238333333333301
 97
        3
330
36
330
37
330
38
 75
             0
 76
             1
 98
        1
 10
0.0
 20
0.0
  0
HATCH
  5
125
100
AcDbEntity
  8
2
  6
CONTINUOUS
 62
             7
100
AcDbHatch
 10
0.0
 20
0.0
 30
0.0
210
0.0
220
0.0
230
1.0
  2
SOLID
 70
             1
 71
             1
 91
        1
 92
        1
 93
        3
 72
             1
 10
21.43
 20
59.238333333333301
 11
26.0
 21
60.0
 72
             1
 10
26.0
 20
60.0
 11
21.43
 21
60.761666666666699
 72
             1
 10
21.43
 20
60.761666666666699
 11
21.43
 21
59.238333333333301
 97
        3
330
33
330
34
330
35
 75
             0
 76
             1
 98
        1
 10
0.0
 20
0.0
  0
HATCH
  5
124
100
AcDbEntity
  8
2
  6
CONTINUOUS
 62
             7
100
AcDbHatch
 10
0.0
 20
0.0
 30
0.0
210
0.0
220
0.0
230
1.0
  2
SOLID
 70
             1
 71
             1
 91
        1
 92
        1
 93
        3
 72
             1
 10
4.5700000000000003
 20
74.238333333333301
 11
0.0000000000000065
 21
75.0
 72
             1
 10
0.0000000000000065
 20
75.0
 11
4.5700000000000003
 21
75.761666666666699
 72
             1
 10
4.5700000000000003
 20
75.761666666666699
 11
4.5700000000000003
 21
74.238333333333301
 97
        3
330
30
330
31
330
32
 75
             0
 76
             1
 98
        1
 10
0.0
 20
0.0
  0
HATCH
  5
123
100
AcDbEntity
  8
2
  6
CONTINUOUS
 62
             7
100
AcDbHatch
 10
0.0
 20
0.0
 30
0.0
210
0.0
220
0.0
230
1.0
  2
SOLID
 70
             1
 71
             1
 91
        1
 92
        1
 93
        3
 72
             1
 10
115.43000000000001
 20
74.238333333333301
 11
120.0
 21
75.0
 72
             1
 10
120.0
 20
75.0
 11
115.43000000000001
 21
75.761666666666699
 72
             1
 10
115.43000000000001
 20
75.761666666666699
 11
115.43000000000001
 21
74.238333333333301
 97
        3
330
2D
330
2E
330
2F
 75
             0
 76
             1
 98
        1
 10
0.0
 20
0.0
  0
TEXT
  5
122
100
AcDbEntity
  8
6
 62
             5
100
AcDbText
 10
-30.0
 20
-30.0
 40
3.5
  1
HSK 63-A
 41
0.94736842105263
  7
CONVERTER_1
100
AcDbText
  0
TEXT
  5
121
100
AcDbEntity
  8
2
 62
             7
100
AcDbText
 10
57.55952380952381
 20
77.3
 40
4.57
  1
120
 41
0.94736842105263
  7
CONVERTER_1
100
AcDbText
  0
TEXT
  5
120
100
AcDbEntity
  8
2
 62
             7
100
AcDbText
 10
9.40928571428572
 20
62.3
 40
4.57
  1
26
 41
0.94736842105263
  7
CONVERTER_1
100
AcDbText
  0
MTEXT
  5
11F
100
AcDbEntity
  8
SK2
 62
             7
100
AcDbMText
 10
-53.872
 20
-5.76690476190476
 30
0.0
 40
4.57
 41
0.0
 71
             7
 72
             1
  1
{\Fgdt;n}
  7
CONVERTER_1
 11
0.0
 21
1.0
 31
0.0
  0
MTEXT
  5
11E
100
AcDbEntity
  8
SK2
 62
             7
100
AcDbMText
 10
-53.872
 20
-1.63214285714285
 30
0.0
 40
4.57
 41
0.0
 71
             7
 72
             1
  1
63
  7
CONVERTER_1
 11
0.0
 21
1.0
 31
0.0
  0
TEXT
  5
11D
100
AcDbEntity
  8
SK2
 62
             7
100
AcDbText
 10
-19.6995238095238
 20
77.3
 40
4.57
  1
32
 41
0.94736842105263
  7
CONVERTER_1
100
AcDbText
  0
MTEXT
  5
11C
100
AcDbEntity
  8
SK2
 62
             7
100
AcDbMText
 10
132.69999999999999
 20
-5.76690476190475
 30
0.0
 40
4.57
 41
0.0
 71
             7
 72
             1
  1
{\Fgdt;n}
  7
CONVERTER_1
 11
0.0
 21
1.0
 31
0.0
  0
MTEXT
  5
11B
100
AcDbEntity
  8
SK2
 62
             7
100
AcDbMText
 10
132.69999999999999
 20
-1.63214285714284
 30
0.0
 40
4.57
 41
0.0
 71
             7
 72
             1
  1
63
  7
CONVERTER_1
 11
0.0
 21
1.0
 31
0.0
  0
LWPOLYLINE
  5
119
100
AcDbEntity
  8
1
  6
CONTINUOUS
 62
             4
100
AcDbPolyline
 90
        3
 70
             0
 10
13.0
 20
-8.0
 10
26.0
 20
-8.0
 10
26.0
 20
-8.0
  0
LWPOLYLINE
  5
117
100
AcDbEntity
  8
1
  6
CONTINUOUS
 62
             4
100
AcDbPolyline
 90
        3
 70
             0
 10
13.0
 20
8.0
 10
26.0
 20
8.0
 10
26.0
 20
8.0
  0
LWPOLYLINE
  5
115
100
AcDbEntity
  8
1
  6
CONTINUOUS
 62
             4
100
AcDbPolyline
 90
        3
 70
             0
 10
-31.0
 20
-6.27
 10
-32.0
 20
-7.27
 10
-32.0
 20
-7.27
  0
LWPOLYLINE
  5
113
100
AcDbEntity
  8
1
  6
CONTINUOUS
 62
             4
100
AcDbPolyline
 90
        3
 70
             0
 10
-31.0
 20
-6.27
 10
-27.5
 20
-6.27
 10
-27.5
 20
-6.27
  0
LWPOLYLINE
  5
111
100
AcDbEntity
  8
1
  6
CONTINUOUS
 62
             4
100
AcDbPolyline
 90
        3
 70
             0
 10
-31.0
 20
6.27
 10
-27.5
 20
6.27
 10
-27.5
 20
6.27
  0
LWPOLYLINE
  5
10F
100
AcDbEntity
  8
1
  6
CONTINUOUS
 62
             4
100
AcDbPolyline
 90
        3
 70
             0
 10
-31.0
 20
6.27
 10
-32.0
 20
7.27
 10
-32.0
 20
7.27
  0
CIRCLE
  5
10D
100
AcDbEntity
  8
1
  6
CONTINUOUS
 62
             4
100
AcDbCircle
 10
-9.0
 20
0.0
 40
3.75
  0
CIRCLE
  5
10C
100
AcDbEntity
  8
1
  6
CONTINUOUS
 62
             4
100
AcDbCircle
 10
-9.0
 20
0.0
 40
4.25
  0
ARC
  5
10B
100
AcDbEntity
  8
1
  6
CONTINUOUS
 62
             4
100
AcDbCircle
 10
96.5
 20
30.0
 40
1.5
100
AcDbArc
 50
90.0
 51
180.0
  0
ARC
  5
10A
100
AcDbEntity
  8
1
  6
CONTINUOUS
 62
             4
100
AcDbCircle
 10
96.5
 20
-30.0
 40
1.49999999999994
100
AcDbArc
 50
179.9999849999993
 51
-90.00003100000008
  0
ARC
  5
109
100
AcDbEntity
  8
1
  6
CONTINUOUS
 62
             4
100
AcDbCircle
 10
108.711
 20
49.42
 40
23.36399999999997
100
AcDbArc
 50
-117.28671300000006
 51
-89.29126000000005
  0
ARC
  5
108
100
AcDbEntity
  8
1
  6
CONTINUOUS
 62
             4
100
AcDbCircle
 10
108.711
 20
-49.42
 40
23.36400000000001
100
AcDbArc
 50
89.29126000000005
 51
117.28671299999971
  0
ARC
  5
107
100
AcDbEntity
  8
SK3
  6
CONTINUOUS
 62
             1
100
AcDbCircle
 10
59.00000000000001
 20
-15.0
 40
1.0
100
AcDbArc
 50
180.0
 51
-90.0
  0
ARC
  5
106
100
AcDbEntity
  8
SK3
  6
CONTINUOUS
 62
             1
100
AcDbCircle
 10
59.00000000000001
 20
15.0
 40
1.0
100
AcDbArc
 50
90.0
 51
180.0
  0
ARC
  5
105
100
AcDbEntity
  8
SK3
  6
CONTINUOUS
 62
             1
100
AcDbCircle
 10
67.0
 20
-15.0
 40
1.0
100
AcDbArc
 50
-90.0
 51
0.0
  0
ARC
  5
104
100
AcDbEntity
  8
SK3
  6
CONTINUOUS
 62
             1
100
AcDbCircle
 10
67.0
 20
15.0
 40
1.0
100
AcDbArc
 50
0.0
 51
90.0
  0
ARC
  5
103
100
AcDbEntity
  8
1
  6
CONTINUOUS
 62
             4
100
AcDbCircle
 10
-30.8
 20
-21.57350093633
 40
1.2
100
AcDbArc
 50
180.0
 51
-92.8624052261131
  0
ARC
  5
102
100
AcDbEntity
  8
1
  6
CONTINUOUS
 62
             4
100
AcDbCircle
 10
12.0431777174748
 20
-16.4485921955901
 40
7.88789260532602
100
AcDbArc
 50
-153.24121754278508
 51
-89.50216314805317
  0
ARC
  5
101
100
AcDbEntity
  8
1
  6
CONTINUOUS
 62
             4
100
AcDbCircle
 10
-0.49346387574925
 20
-24.615
 40
0.59999999999991
100
AcDbArc
 50
34.67022254181042
 51
90.0000000000001
  0
ARC
  5
100
100
AcDbEntity
  8
1
  6
CONTINUOUS
 62
             4
100
AcDbCircle
 10
-1.17459833993375
 20
-24.615
 40
0.6
100
AcDbArc
 50
90.0
 51
105.00000000000084
  0
ARC
  5
FF
100
AcDbEntity
  8
SK3
  6
CONTINUOUS
 62
             1
100
AcDbCircle
 10
-0.49346387574925
 20
-24.615
 40
0.59999999999998
100
AcDbArc
 50
-7.99999999999664
 51
34.67022254181042
  0
ARC
  5
FE
100
AcDbEntity
  8
1
  6
CONTINUOUS
 62
             4
100
AcDbCircle
 10
19.125
 20
-28.25
 40
0.75
100
AcDbArc
 50
0.0
 51
90.0
  0
ARC
  5
FD
100
AcDbEntity
  8
1
  6
CONTINUOUS
 62
             4
100
AcDbCircle
 10
16.875
 20
-28.25
 40
0.75
100
AcDbArc
 50
90.0
 51
180.0
  0
ARC
  5
FC
100
AcDbEntity
  8
1
  6
CONTINUOUS
 62
             4
100
AcDbCircle
 10
-27.5
 20
-4.77
 40
1.5
100
AcDbArc
 50
-90.0
 51
0.00000900000001
  0
ARC
  5
FB
100
AcDbEntity
  8
1
  6
CONTINUOUS
 62
             4
100
AcDbCircle
 10
-27.5054453018994
 20
-7.7280904643285
 40
1.5
100
AcDbArc
 50
-90.0
 51
-0.000008
  0
ARC
  5
FA
100
AcDbEntity
  8
1
  6
CONTINUOUS
 62
             4
100
AcDbCircle
 10
-34.61
 20
-55.0
 40
46.32
100
AcDbArc
 50
81.17716199999995
 51
85.53250099999971
  0
ARC
  5
F9
100
AcDbEntity
  8
SK3
  6
CONTINUOUS
 62
             1
100
AcDbCircle
 10
-16.9175644347018
 20
-19.4
 40
0.59999999999995
100
AcDbArc
 50
-149.99999999999693
 51
-90.0
  0
ARC
  5
F8
100
AcDbEntity
  8
1
  6
CONTINUOUS
 62
             4
100
AcDbCircle
 10
-27.5054453018994
 20
7.7280904643285
 40
1.50000000000001
100
AcDbArc
 50
0.000008
 51
90.0
  0
ARC
  5
F7
100
AcDbEntity
  8
1
  6
CONTINUOUS
 62
             4
100
AcDbCircle
 10
-27.5
 20
4.77
 40
1.50000000000001
100
AcDbArc
 50
0.000008
 51
90.0
  0
ARC
  5
F6
100
AcDbEntity
  8
1
  6
CONTINUOUS
 62
             4
100
AcDbCircle
 10
-34.61
 20
55.0
 40
46.32
100
AcDbArc
 50
-85.53250099999971
 51
-81.17715500000037
  0
ARC
  5
F5
100
AcDbEntity
  8
1
  6
CONTINUOUS
 62
             4
100
AcDbCircle
 10
13.0
 20
0.0
 40
8.0
100
AcDbArc
 50
90.0
 51
-90.0
  0
ARC
  5
F4
100
AcDbEntity
  8
SK3
  6
CONTINUOUS
 62
             1
100
AcDbCircle
 10
-6.24499799839839
 20
-12.0
 40
8.0
100
AcDbArc
 50
-90.0
 51
-38.68218745348948
  0
ARC
  5
F3
100
AcDbEntity
  8
1
  6
CONTINUOUS
 62
             4
100
AcDbCircle
 10
-30.8
 20
21.57350093633
 40
1.19999999999999
100
AcDbArc
 50
92.8624052261131
 51
180.0
  0
ARC
  5
F2
100
AcDbEntity
  8
SK3
  6
CONTINUOUS
 62
             1
100
AcDbCircle
 10
-16.9175644347018
 20
19.4
 40
0.6
100
AcDbArc
 50
90.0
 51
149.99999999999693
  0
ARC
  5
F1
100
AcDbEntity
  8
1
  6
CONTINUOUS
 62
             4
100
AcDbCircle
 10
-0.49346387574926
 20
24.615
 40
0.6
100
AcDbArc
 50
-90.0000000000001
 51
-34.67022254181042
  0
ARC
  5
F0
100
AcDbEntity
  8
SK3
  6
CONTINUOUS
 62
             1
100
AcDbCircle
 10
-6.24499799839839
 20
12.0
 40
8.0
100
AcDbArc
 50
38.68218745348942
 51
90.0
  0
ARC
  5
EF
100
AcDbEntity
  8
1
  6
CONTINUOUS
 62
             4
100
AcDbCircle
 10
-1.17459833993374
 20
24.615
 40
0.59999999999996
100
AcDbArc
 50
-105.00000000000084
 51
-90.0
  0
ARC
  5
EE
100
AcDbEntity
  8
SK3
  6
CONTINUOUS
 62
             1
100
AcDbCircle
 10
-0.49346387574926
 20
24.615
 40
0.59999999999991
100
AcDbArc
 50
-34.67022254181042
 51
7.99999999999638
  0
ARC
  5
ED
100
AcDbEntity
  8
1
  6
CONTINUOUS
 62
             4
100
AcDbCircle
 10
19.125
 20
-20.75
 40
0.75
100
AcDbArc
 50
0.0
 51
90.0
  0
ARC
  5
EC
100
AcDbEntity
  8
1
  6
CONTINUOUS
 62
             4
100
AcDbCircle
 10
16.875
 20
-20.75
 40
0.75
100
AcDbArc
 50
90.0
 51
180.0
  0
ARC
  5
EB
100
AcDbEntity
  8
1
  6
CONTINUOUS
 62
             4
100
AcDbCircle
 10
16.875
 20
28.25
 40
0.75
100
AcDbArc
 50
180.0
 51
-90.0
  0
ARC
  5
EA
100
AcDbEntity
  8
1
  6
CONTINUOUS
 62
             4
100
AcDbCircle
 10
19.125
 20
28.25
 40
0.75
100
AcDbArc
 50
-90.0
 51
0.0
  0
ARC
  5
E9
100
AcDbEntity
  8
1
  6
CONTINUOUS
 62
             4
100
AcDbCircle
 10
27.0
 20
26.0
 40
1.0
100
AcDbArc
 50
180.0
 51
-90.0
  0
ARC
  5
E8
100
AcDbEntity
  8
1
  6
CONTINUOUS
 62
             4
100
AcDbCircle
 10
27.0
 20
-26.0
 40
1.0
100
AcDbArc
 50
90.0
 51
180.0
  0
LINE
  5
E7
100
AcDbEntity
  8
1
  6
CONTINUOUS
 62
             4
100
AcDbLine
 10
88.09999999999999
 20
25.0
 11
88.09999999999999
 21
-25.0
  0
LINE
  5
E6
100
AcDbEntity
  8
1
  6
CONTINUOUS
 62
             4
100
AcDbLine
 10
95.0
 20
23.8
 11
88.09999999999999
 21
23.8
  0
LINE
  5
E5
100
AcDbEntity
  8
1
  6
CONTINUOUS
 62
             4
100
AcDbLine
 10
95.0
 20
-23.8
 11
88.09999999999999
 21
-23.8
  0
LINE
  5
E4
100
AcDbEntity
  8
1
  6
CONTINUOUS
 62
             4
100
AcDbLine
 10
109.0
 20
26.058
 11
117.691
 21
26.058
  0
LINE
  5
E3
100
AcDbEntity
  8
1
  6
CONTINUOUS
 62
             4
100
AcDbLine
 10
109.0
 20
-26.058
 11
117.691
 21
-26.058
  0
LINE
  5
E2
100
AcDbEntity
  8
1
  6
CONTINUOUS
 62
             4
100
AcDbLine
 10
117.601
 20
-28.656
 11
98.0
 21
-28.656
  0
LINE
  5
E1
100
AcDbEntity
  8
1
  6
CONTINUOUS
 62
             4
100
AcDbLine
 10
98.0
 20
-28.656
 11
98.0
 21
-25.656
  0
LINE
  5
E0
100
AcDbEntity
  8
1
  6
CONTINUOUS
 62
             4
100
AcDbLine
 10
98.0
 20
-25.656
 11
117.691
 21
-25.656
  0
LINE
  5
DF
100
AcDbEntity
  8
1
  6
CONTINUOUS
 62
             4
100
AcDbLine
 10
117.691
 20
-25.656
 11
117.691
 21
-28.5
  0
LINE
  5
DE
100
AcDbEntity
  8
1
  6
CONTINUOUS
 62
             4
100
AcDbLine
 10
117.601
 20
28.656
 11
98.0
 21
28.656
  0
LINE
  5
DD
100
AcDbEntity
  8
1
  6
CONTINUOUS
 62
             4
100
AcDbLine
 10
98.0
 20
28.656
 11
98.0
 21
25.656
  0
LINE
  5
DC
100
AcDbEntity
  8
1
  6
CONTINUOUS
 62
             4
100
AcDbLine
 10
98.0
 20
25.656
 11
117.691
 21
25.656
  0
LINE
  5
DB
100
AcDbEntity
  8
1
  6
CONTINUOUS
 62
             4
100
AcDbLine
 10
117.691
 20
25.656
 11
117.691
 21
28.5
  0
LINE
  5
DA
100
AcDbEntity
  8
1
  6
CONTINUOUS
 62
             4
100
AcDbLine
 10
98.0
 20
-3.0
 11
117.691
 21
-3.0
  0
LINE
  5
D9
100
AcDbEntity
  8
1
  6
CONTINUOUS
 62
             4
100
AcDbLine
 10
117.691
 20
-3.0
 11
117.691
 21
3.0
  0
LINE
  5
D8
100
AcDbEntity
  8
1
  6
CONTINUOUS
 62
             4
100
AcDbLine
 10
117.691
 20
3.0
 11
98.0
 21
3.0
  0
LINE
  5
D7
100
AcDbEntity
  8
1
  6
CONTINUOUS
 62
             4
100
AcDbLine
 10
98.0
 20
3.0
 11
98.0
 21
-3.0
  0
LINE
  5
D6
100
AcDbEntity
  8
1
  6
CONTINUOUS
 62
             4
100
AcDbLine
 10
115.959
 20
-28.656
 11
115.959
 21
-31.5
  0
LINE
  5
D5
100
AcDbEntity
  8
1
  6
CONTINUOUS
 62
             4
100
AcDbLine
 10
115.959
 20
-3.0
 11
115.959
 21
-25.656
  0
LINE
  5
D4
100
AcDbEntity
  8
1
  6
CONTINUOUS
 62
             4
100
AcDbLine
 10
115.959
 20
25.656
 11
115.959
 21
3.0
  0
LINE
  5
D3
100
AcDbEntity
  8
1
  6
CONTINUOUS
 62
             4
100
AcDbLine
 10
115.959
 20
31.5
 11
115.959
 21
28.656
  0
LINE
  5
D2
100
AcDbEntity
  8
1
  6
CONTINUOUS
 62
             4
100
AcDbLine
 10
95.0
 20
30.0
 11
95.0
 21
-30.0
  0
LINE
  5
D1
100
AcDbEntity
  8
1
  6
CONTINUOUS
 62
             4
100
AcDbLine
 10
96.5
 20
-31.5
 11
115.959
 21
-31.5
  0
LINE
  5
D0
100
AcDbEntity
  8
1
  6
CONTINUOUS
 62
             4
100
AcDbLine
 10
115.959
 20
-31.5
 11
120.0
 21
-24.5
  0
LINE
  5
CF
100
AcDbEntity
  8
1
  6
CONTINUOUS
 62
             4
100
AcDbLine
 10
120.0
 20
-24.5
 11
120.0
 21
24.5
  0
LINE
  5
CE
100
AcDbEntity
  8
1
  6
CONTINUOUS
 62
             4
100
AcDbLine
 10
120.0
 20
24.5
 11
115.959
 21
31.5
  0
LINE
  5
CD
100
AcDbEntity
  8
1
  6
CONTINUOUS
 62
             4
100
AcDbLine
 10
115.959
 20
31.5
 11
96.5
 21
31.5
  0
LINE
  5
CC
100
AcDbEntity
  8
1
  6
CONTINUOUS
 62
             4
100
AcDbLine
 10
95.0
 20
-25.0
 11
27.0
 21
-25.0
  0
LINE
  5
CB
100
AcDbEntity
  8
1
  6
CONTINUOUS
 62
             4
100
AcDbLine
 10
95.0
 20
25.0
 11
27.0
 21
25.0
  0
LINE
  5
CA
100
AcDbEntity
  8
SK4
  6
CONTINUOUS
 62
             2
100
AcDbLine
 10
-36.3654958378556
 20
0.0
 11
123.33642032938801
 21
0.0
  0
LINE
  5
C9
100
AcDbEntity
  8
SK2
  6
CONTINUOUS
 62
             7
100
AcDbLine
 10
115.959
 20
31.5
 11
140.0
 21
31.5
  0
LINE
  5
C8
100
AcDbEntity
  8
SK2
  6
CONTINUOUS
 62
             7
100
AcDbLine
 10
115.959
 20
-31.5
 11
140.0
 21
-31.5
  0
LINE
  5
C7
100
AcDbEntity
  8
SK2
  6
CONTINUOUS
 62
             7
100
AcDbLine
 10
135.0
 20
26.93
 11
135.0
 21
-26.93
  0
LINE
  5
C6
100
AcDbEntity
  8
SK3
  6
CONTINUOUS
 62
             1
100
AcDbLine
 10
108.56
 20
30.0
 11
108.56
 21
-30.0
  0
LINE
  5
C5
100
AcDbEntity
  8
SK3
  6
CONTINUOUS
 62
             1
100
AcDbLine
 10
67.0
 20
16.0
 11
59.00000000000001
 21
16.0
  0
LINE
  5
C4
100
AcDbEntity
  8
SK3
  6
CONTINUOUS
 62
             1
100
AcDbLine
 10
59.00000000000001
 20
-16.0
 11
67.0
 21
-16.0
  0
LINE
  5
C3
100
AcDbEntity
  8
SK3
  6
CONTINUOUS
 62
             1
100
AcDbLine
 10
58.00000000000001
 20
15.0
 11
58.00000000000001
 21
-15.0
  0
LINE
  5
C2
100
AcDbEntity
  8
SK3
  6
CONTINUOUS
 62
             1
100
AcDbLine
 10
68.0
 20
15.0
 11
68.0
 21
-13.85
  0
LINE
  5
C1
100
AcDbEntity
  8
SK3
  6
CONTINUOUS
 62
             1
100
AcDbLine
 10
68.0
 20
-15.0
 11
68.0
 21
-13.85
  0
LINE
  5
C0
100
AcDbEntity
  8
SK3
  6
CONTINUOUS
 62
             1
100
AcDbLine
 10
68.0
 20
13.85
 11
68.0
 21
15.0
  0
LINE
  5
BF
100
AcDbEntity
  8
SK3
  6
CONTINUOUS
 62
             1
100
AcDbLine
 10
22.0
 20
7.75
 11
58.00000000000001
 21
7.75
  0
LINE
  5
BE
100
AcDbEntity
  8
1
  6
CONTINUOUS
 62
             4
100
AcDbLine
 10
26.0
 20
31.5
 11
26.0
 21
-31.5
  0
LINE
  5
BD
100
AcDbEntity
  8
1
  6
CONTINUOUS
 62
             4
100
AcDbLine
 10
19.875
 20
-21.3975952641917
 11
21.3774990747593
 21
-24.0
  0
LINE
  5
BC
100
AcDbEntity
  8
1
  6
CONTINUOUS
 62
             4
100
AcDbLine
 10
16.125
 20
-21.3975952641917
 11
14.6225009252407
 21
-24.0
  0
LINE
  5
BB
100
AcDbEntity
  8
1
  6
CONTINUOUS
 62
             4
100
AcDbLine
 10
-2.0
 20
-24.215
 11
-2.0
 21
24.215
  0
LINE
  5
BA
100
AcDbEntity
  8
1
  6
CONTINUOUS
 62
             4
100
AcDbLine
 10
0.0
 20
24.2736887002597
 11
0.0
 21
-24.2736887002597
  0
LINE
  5
B9
100
AcDbEntity
  8
SK4
  6
CONTINUOUS
 62
             2
100
AcDbLine
 10
18.0
 20
-32.0
 11
18.0
 21
31.5
  0
LINE
  5
B8
100
AcDbEntity
  8
1
  6
CONTINUOUS
 62
             4
100
AcDbLine
 10
19.875
 20
-20.75
 11
19.875
 21
-28.8975952641916
  0
LINE
  5
B7
100
AcDbEntity
  8
1
  6
CONTINUOUS
 62
             4
100
AcDbLine
 10
16.125
 20
-20.75
 11
16.125
 21
-28.8975952641916
  0
LINE
  5
B6
100
AcDbEntity
  8
1
  6
CONTINUOUS
 62
             4
100
AcDbLine
 10
11.9746415312939
 20
-24.3361870472759
 11
14.6225009252407
 21
-24.3361870472759
  0
LINE
  5
B5
100
AcDbEntity
  8
1
  6
CONTINUOUS
 62
             4
100
AcDbLine
 10
14.6225009252407
 20
-31.5
 11
0.0
 21
-31.5
  0
LINE
  5
B4
100
AcDbEntity
  8
SK3
  6
CONTINUOUS
 62
             1
100
AcDbLine
 10
26.0
 20
-26.5
 11
4.99999999999999
 21
-26.5
  0
LINE
  5
B3
100
AcDbEntity
  8
1
  6
CONTINUOUS
 62
             4
100
AcDbLine
 10
-2.0
 20
-24.215
 11
-30.8599251403327
 21
-22.7720037429834
  0
LINE
  5
B2
100
AcDbEntity
  8
1
  6
CONTINUOUS
 62
             4
100
AcDbLine
 10
-1.17459833993375
 20
-24.015
 11
-0.49346387574925
 21
-24.015
  0
LINE
  5
B1
100
AcDbEntity
  8
1
  6
CONTINUOUS
 62
             4
100
AcDbLine
 10
-2.0
 20
-24.215
 11
-1.32988976699526
 21
-24.0354445042266
  0
LINE
  5
B0
100
AcDbEntity
  8
1
  6
CONTINUOUS
 62
             4
100
AcDbLine
 10
0.0
 20
-24.2736887002597
 11
0.0
 21
-31.5
  0
LINE
  5
AF
100
AcDbEntity
  8
SK3
  6
CONTINUOUS
 62
             1
100
AcDbLine
 10
4.99999999999999
 20
-31.5
 11
4.99999999999999
 21
-26.5
  0
LINE
  5
AE
100
AcDbEntity
  8
SK3
  6
CONTINUOUS
 62
             1
100
AcDbLine
 10
0.0
 20
-25.415
 11
0.10069696549568
 21
-24.698503860576
  0
LINE
  5
AD
100
AcDbEntity
  8
1
  6
CONTINUOUS
 62
             4
100
AcDbLine
 10
19.875
 20
-28.8975952641916
 11
21.3774990747593
 21
-31.5
  0
LINE
  5
AC
100
AcDbEntity
  8
1
  6
CONTINUOUS
 62
             4
100
AcDbLine
 10
16.125
 20
-28.8975952641916
 11
14.6225009252407
 21
-31.5
  0
LINE
  5
AB
100
AcDbEntity
  8
1
  6
CONTINUOUS
 62
             4
100
AcDbLine
 10
21.3774990747593
 20
-24.0
 11
21.3774990747593
 21
-31.5
  0
LINE
  5
AA
100
AcDbEntity
  8
1
  6
CONTINUOUS
 62
             4
100
AcDbLine
 10
14.6225009252407
 20
-24.0
 11
14.6225009252407
 21
-31.5
  0
LINE
  5
A9
100
AcDbEntity
  8
1
  6
CONTINUOUS
 62
             4
100
AcDbLine
 10
26.0
 20
-31.5
 11
21.3774990747593
 21
-31.5
  0
LINE
  5
A8
100
AcDbEntity
  8
1
  6
CONTINUOUS
 62
             4
100
AcDbLine
 10
19.125
 20
-27.5
 11
16.875
 21
-27.5
  0
LINE
  5
A7
100
AcDbEntity
  8
1
  6
CONTINUOUS
 62
             4
100
AcDbLine
 10
21.3774990747593
 20
-24.3361870472759
 11
26.0
 21
-24.3361870472759
  0
LINE
  5
A6
100
AcDbEntity
  8
1
  6
CONTINUOUS
 62
             4
100
AcDbLine
 10
14.6225009252407
 20
31.5
 11
0.0
 21
31.5
  0
LINE
  5
A5
100
AcDbEntity
  8
1
  6
CONTINUOUS
 62
             4
100
AcDbLine
 10
26.0
 20
-20.0
 11
5.00000000000001
 21
-20.0
  0
LINE
  5
A4
100
AcDbEntity
  8
SK3
  6
CONTINUOUS
 62
             1
100
AcDbLine
 10
20.0
 20
-9.0
 11
10.0
 21
-9.0
  0
LINE
  5
A3
100
AcDbEntity
  8
SK3
  6
CONTINUOUS
 62
             1
100
AcDbLine
 10
20.0
 20
9.0
 11
10.0
 21
9.0
  0
LINE
  5
A2
100
AcDbEntity
  8
SK3
  6
CONTINUOUS
 62
             1
100
AcDbLine
 10
20.0
 20
-7.75
 11
10.0
 21
-7.75
  0
LINE
  5
A1
100
AcDbEntity
  8
SK3
  6
CONTINUOUS
 62
             1
100
AcDbLine
 10
20.0
 20
7.75
 11
10.0
 21
7.75
  0
LINE
  5
A0
100
AcDbEntity
  8
SK3
  6
CONTINUOUS
 62
             1
100
AcDbLine
 10
26.0
 20
26.5
 11
5.00000000000001
 21
26.5
  0
LINE
  5
9F
100
AcDbEntity
  8
SK3
  6
CONTINUOUS
 62
             1
100
AcDbLine
 10
-30.9
 20
8.82881526319691
 11
-30.9
 21
17.0
  0
LINE
  5
9E
100
AcDbEntity
  8
1
  6
CONTINUOUS
 62
             4
100
AcDbLine
 10
-32.0
 20
-21.57350093633
 11
-32.0
 21
21.57350093633
  0
LINE
  5
9D
100
AcDbEntity
  8
SK3
  6
CONTINUOUS
 62
             1
100
AcDbLine
 10
10.0
 20
-17.0
 11
10.0
 21
17.0
  0
LINE
  5
9C
100
AcDbEntity
  8
SK3
  6
CONTINUOUS
 62
             1
100
AcDbLine
 10
-17.2639745962156
 20
-19.8898979485562
 11
-17.2639745962156
 21
19.8898979485562
  0
LINE
  5
9B
100
AcDbEntity
  8
SK3
  6
CONTINUOUS
 62
             1
100
AcDbLine
 10
-18.9960254037844
 20
17.0
 11
-18.9960254037844
 21
-17.0
  0
LINE
  5
9A
100
AcDbEntity
  8
SK3
  6
CONTINUOUS
 62
             1
100
AcDbLine
 10
-6.24499799839839
 20
-20.0
 11
-16.9175644347018
 21
-20.0
  0
LINE
  5
99
100
AcDbEntity
  8
1
  6
CONTINUOUS
 62
             4
100
AcDbLine
 10
-26.0054453018994
 20
7.72809067376801
 11
-26.0054453018994
 21
-7.72809067376801
  0
LINE
  5
98
100
AcDbEntity
  8
SK3
  6
CONTINUOUS
 62
             1
100
AcDbLine
 10
-18.9960254037844
 20
-17.0
 11
-30.9
 21
-17.0
  0
LINE
  5
97
100
AcDbEntity
  8
SK3
  6
CONTINUOUS
 62
             1
100
AcDbLine
 10
-30.9
 20
-17.0
 11
-30.9
 21
-8.82881526319689
  0
LINE
  5
96
100
AcDbEntity
  8
SK3
  6
CONTINUOUS
 62
             1
100
AcDbLine
 10
-30.9
 20
-17.0
 11
-32.0
 21
-17.6350852961086
  0
LINE
  5
95
100
AcDbEntity
  8
1
  6
CONTINUOUS
 62
             4
100
AcDbLine
 10
-31.0
 20
-8.82
 11
-32.0
 21
-9.82
  0
LINE
  5
94
100
AcDbEntity
  8
1
  6
CONTINUOUS
 62
             4
100
AcDbLine
 10
-31.0
 20
-6.27
 11
-31.0
 21
-8.82
  0
LINE
  5
93
100
AcDbEntity
  8
SK3
  6
CONTINUOUS
 62
             1
100
AcDbLine
 10
-26.0
 20
-21.8382399702907
 11
-26.0
 21
-17.0
  0
LINE
  5
92
100
AcDbEntity
  8
SK3
  6
CONTINUOUS
 62
             1
100
AcDbLine
 10
-18.9960254037844
 20
-17.0
 11
-17.4371796769724
 21
-19.7
  0
LINE
  5
91
100
AcDbEntity
  8
1
  6
CONTINUOUS
 62
             4
100
AcDbLine
 10
-31.0
 20
8.82
 11
-32.0
 21
9.82
  0
LINE
  5
90
100
AcDbEntity
  8
1
  6
CONTINUOUS
 62
             4
100
AcDbLine
 10
-31.0
 20
6.27
 11
-31.0
 21
8.82
  0
LINE
  5
8F
100
AcDbEntity
  8
SK4
  6
CONTINUOUS
 62
             2
100
AcDbLine
 10
-9.0
 20
5.39819354883775
 11
-9.0
 21
-5.54309670889211
  0
LINE
  5
8E
100
AcDbEntity
  8
SK3
  6
CONTINUOUS
 62
             1
100
AcDbLine
 10
10.0
 20
-17.0
 11
0.0
 21
-17.0
  0
LINE
  5
8D
100
AcDbEntity
  8
1
  6
CONTINUOUS
 62
             4
100
AcDbLine
 10
-2.0
 20
24.215
 11
-30.8599251403327
 21
22.7720037429834
  0
LINE
  5
8C
100
AcDbEntity
  8
SK3
  6
CONTINUOUS
 62
             1
100
AcDbLine
 10
-6.24499799839839
 20
20.0
 11
-16.9175644347018
 21
20.0
  0
LINE
  5
8B
100
AcDbEntity
  8
SK3
  6
CONTINUOUS
 62
             1
100
AcDbLine
 10
-18.9960254037844
 20
17.0
 11
-30.9
 21
17.0
  0
LINE
  5
8A
100
AcDbEntity
  8
SK3
  6
CONTINUOUS
 62
             1
100
AcDbLine
 10
-30.9
 20
17.0
 11
-32.0
 21
17.6350852961086
  0
LINE
  5
89
100
AcDbEntity
  8
SK3
  6
CONTINUOUS
 62
             1
100
AcDbLine
 10
-26.0
 20
17.0
 11
-26.0
 21
21.8382399702907
  0
LINE
  5
88
100
AcDbEntity
  8
SK3
  6
CONTINUOUS
 62
             1
100
AcDbLine
 10
-18.9960254037844
 20
17.0
 11
-17.4371796769724
 21
19.7
  0
LINE
  5
87
100
AcDbEntity
  8
1
  6
CONTINUOUS
 62
             4
100
AcDbLine
 10
0.0
 20
31.5
 11
0.0
 21
24.2736887002597
  0
LINE
  5
86
100
AcDbEntity
  8
SK3
  6
CONTINUOUS
 62
             1
100
AcDbLine
 10
5.00000000000001
 20
26.5
 11
5.00000000000001
 21
31.5
  0
LINE
  5
85
100
AcDbEntity
  8
1
  6
CONTINUOUS
 62
             4
100
AcDbLine
 10
-2.0
 20
24.215
 11
-1.32988976699525
 21
24.0354445042266
  0
LINE
  5
84
100
AcDbEntity
  8
1
  6
CONTINUOUS
 62
             4
100
AcDbLine
 10
-1.17459833993374
 20
24.015
 11
-0.49346387574926
 21
24.015
  0
LINE
  5
83
100
AcDbEntity
  8
SK3
  6
CONTINUOUS
 62
             1
100
AcDbLine
 10
10.0
 20
17.0
 11
0.00000000000001
 21
17.0
  0
LINE
  5
82
100
AcDbEntity
  8
SK3
  6
CONTINUOUS
 62
             1
100
AcDbLine
 10
0.0
 20
25.415
 11
0.10069696549569
 21
24.698503860576
  0
LINE
  5
81
100
AcDbEntity
  8
SK3
  6
CONTINUOUS
 62
             1
100
AcDbLine
 10
12.1117139036558
 20
20.0
 11
12.1117139036558
 21
24.3361870472759
  0
LINE
  5
80
100
AcDbEntity
  8
1
  6
CONTINUOUS
 62
             4
100
AcDbLine
 10
19.875
 20
28.8975952641917
 11
19.875
 21
8.0
  0
LINE
  5
7F
100
AcDbEntity
  8
1
  6
CONTINUOUS
 62
             4
100
AcDbLine
 10
21.3774990747593
 20
31.5
 11
21.3774990747593
 21
8.0
  0
LINE
  5
7E
100
AcDbEntity
  8
1
  6
CONTINUOUS
 62
             4
100
AcDbLine
 10
16.125
 20
28.8975952641917
 11
16.125
 21
8.0
  0
LINE
  5
7D
100
AcDbEntity
  8
1
  6
CONTINUOUS
 62
             4
100
AcDbLine
 10
14.6225009252407
 20
31.5
 11
14.6225009252407
 21
8.0
  0
LINE
  5
7C
100
AcDbEntity
  8
SK3
  6
CONTINUOUS
 62
             1
100
AcDbLine
 10
22.0
 20
-9.5
 11
22.0
 21
9.5
  0
LINE
  5
7B
100
AcDbEntity
  8
SK3
  6
CONTINUOUS
 62
             1
100
AcDbLine
 10
20.0
 20
-9.5
 11
20.0
 21
9.5
  0
LINE
  5
7A
100
AcDbEntity
  8
1
  6
CONTINUOUS
 62
             4
100
AcDbLine
 10
19.875
 20
-7.99999999999999
 11
19.875
 21
-20.0
  0
LINE
  5
79
100
AcDbEntity
  8
1
  6
CONTINUOUS
 62
             4
100
AcDbLine
 10
21.3774990747593
 20
-8.0
 11
21.3774990747593
 21
-20.0
  0
LINE
  5
78
100
AcDbEntity
  8
1
  6
CONTINUOUS
 62
             4
100
AcDbLine
 10
16.125
 20
-8.0
 11
16.125
 21
-20.0
  0
LINE
  5
77
100
AcDbEntity
  8
1
  6
CONTINUOUS
 62
             4
100
AcDbLine
 10
14.6225009252407
 20
-8.0
 11
14.6225009252407
 21
-20.0
  0
LINE
  5
76
100
AcDbEntity
  8
1
  6
CONTINUOUS
 62
             4
100
AcDbLine
 10
19.125
 20
-20.0
 11
16.875
 21
-20.0
  0
LINE
  5
75
100
AcDbEntity
  8
SK3
  6
CONTINUOUS
 62
             1
100
AcDbLine
 10
22.0
 20
-9.5
 11
20.0
 21
-9.5
  0
LINE
  5
74
100
AcDbEntity
  8
SK3
  6
CONTINUOUS
 62
             1
100
AcDbLine
 10
22.0
 20
9.5
 11
20.0
 21
9.5
  0
LINE
  5
73
100
AcDbEntity
  8
1
  6
CONTINUOUS
 62
             4
100
AcDbLine
 10
19.125
 20
27.5
 11
16.875
 21
27.5
  0
LINE
  5
72
100
AcDbEntity
  8
1
  6
CONTINUOUS
 62
             4
100
AcDbLine
 10
16.125
 20
28.8975952641917
 11
16.125
 21
28.25
  0
LINE
  5
71
100
AcDbEntity
  8
1
  6
CONTINUOUS
 62
             4
100
AcDbLine
 10
16.125
 20
28.8975952641917
 11
14.6225009252407
 21
31.5
  0
LINE
  5
70
100
AcDbEntity
  8
1
  6
CONTINUOUS
 62
             4
100
AcDbLine
 10
26.0
 20
31.5
 11
21.3774990747593
 21
31.5
  0
LINE
  5
6F
100
AcDbEntity
  8
1
  6
CONTINUOUS
 62
             4
100
AcDbLine
 10
19.875
 20
28.8975952641917
 11
19.875
 21
28.25
  0
LINE
  5
6E
100
AcDbEntity
  8
1
  6
CONTINUOUS
 62
             4
100
AcDbLine
 10
19.875
 20
28.8975952641917
 11
21.3774990747593
 21
31.5
  0
LINE
  5
6D
100
AcDbEntity
  8
SK3
  6
CONTINUOUS
 62
             1
100
AcDbLine
 10
22.0
 20
-7.75
 11
58.00000000000001
 21
-7.75
  0
LINE
  5
6C
100
AcDbEntity
  8
SK3
  6
CONTINUOUS
 62
             1
100
AcDbLine
 10
73.08000000000001
 20
15.5
 11
67.86602540378441
 21
15.5
  0
LINE
  5
6B
100
AcDbEntity
  8
SK3
  6
CONTINUOUS
 62
             1
100
AcDbLine
 10
73.66
 20
15.6
 11
73.66
 21
-15.59
  0
LINE
  5
6A
100
AcDbEntity
  8
SK3
  6
CONTINUOUS
 62
             1
100
AcDbLine
 10
73.66
 20
-15.59
 11
108.56
 21
-20.5
  0
LINE
  5
69
100
AcDbEntity
  8
SK3
  6
CONTINUOUS
 62
             1
100
AcDbLine
 10
108.56
 20
-20.5
 11
108.56
 21
-18.1
  0
LINE
  5
68
100
AcDbEntity
  8
SK3
  6
CONTINUOUS
 62
             1
100
AcDbLine
 10
108.56
 20
-18.1
 11
112.66
 21
-18.1
  0
LINE
  5
67
100
AcDbEntity
  8
SK3
  6
CONTINUOUS
 62
             1
100
AcDbLine
 10
112.66
 20
-18.1
 11
112.66
 21
-20.5
  0
LINE
  5
66
100
AcDbEntity
  8
SK3
  6
CONTINUOUS
 62
             1
100
AcDbLine
 10
112.66
 20
-20.5
 11
113.01000000000001
 21
-20.5
  0
LINE
  5
65
100
AcDbEntity
  8
SK3
  6
CONTINUOUS
 62
             1
100
AcDbLine
 10
113.01000000000001
 20
-20.5
 11
119.66
 21
-16.65
  0
LINE
  5
64
100
AcDbEntity
  8
SK3
  6
CONTINUOUS
 62
             1
100
AcDbLine
 10
119.66
 20
-16.65
 11
119.66
 21
16.67
  0
LINE
  5
63
100
AcDbEntity
  8
SK3
  6
CONTINUOUS
 62
             1
100
AcDbLine
 10
119.66
 20
16.67
 11
113.01000000000001
 21
20.51
  0
LINE
  5
62
100
AcDbEntity
  8
SK3
  6
CONTINUOUS
 62
             1
100
AcDbLine
 10
113.01000000000001
 20
20.51
 11
112.66
 21
20.51
  0
LINE
  5
61
100
AcDbEntity
  8
SK3
  6
CONTINUOUS
 62
             1
100
AcDbLine
 10
112.66
 20
20.51
 11
112.66
 21
18.11
  0
LINE
  5
60
100
AcDbEntity
  8
SK3
  6
CONTINUOUS
 62
             1
100
AcDbLine
 10
112.66
 20
18.11
 11
108.56
 21
18.11
  0
LINE
  5
5F
100
AcDbEntity
  8
SK3
  6
CONTINUOUS
 62
             1
100
AcDbLine
 10
108.56
 20
18.11
 11
108.56
 21
20.51
  0
LINE
  5
5E
100
AcDbEntity
  8
SK3
  6
CONTINUOUS
 62
             1
100
AcDbLine
 10
108.56
 20
20.51
 11
73.66
 21
15.6
  0
LINE
  5
5D
100
AcDbEntity
  8
SK3
  6
CONTINUOUS
 62
             1
100
AcDbLine
 10
73.08000000000001
 20
-15.5
 11
67.86602540378441
 21
-15.5
  0
LINE
  5
5C
100
AcDbEntity
  8
SK2
  6
CONTINUOUS
 62
             7
100
AcDbLine
 10
-32.0
 20
20.6397371636373
 11
-32.0
 21
80.0
  0
LINE
  5
5B
100
AcDbEntity
  8
SK2
  6
CONTINUOUS
 62
             7
100
AcDbLine
 10
0.0
 20
31.5
 11
0.00000000000001
 21
80.0
  0
LINE
  5
5A
100
AcDbEntity
  8
SK2
  6
CONTINUOUS
 62
             7
100
AcDbLine
 10
-27.43
 20
75.0
 11
-4.56999999999999
 21
75.0
  0
LINE
  5
59
100
AcDbEntity
  8
SK2
  6
CONTINUOUS
 62
             7
100
AcDbLine
 10
0.0
 20
-31.5
 11
-56.572
 21
-31.5
  0
LINE
  5
58
100
AcDbEntity
  8
SK2
  6
CONTINUOUS
 62
             7
100
AcDbLine
 10
0.0
 20
31.5
 11
-56.572
 21
31.5
  0
LINE
  5
57
100
AcDbEntity
  8
SK2
  6
CONTINUOUS
 62
             7
100
AcDbLine
 10
-51.572
 20
-26.93
 11
-51.572
 21
26.93
  0
LINE
  5
56
100
AcDbEntity
  8
2
  6
CONTINUOUS
 62
             7
100
AcDbLine
 10
0.0
 20
31.5
 11
0.00000000000001
 21
65.0
  0
LINE
  5
55
100
AcDbEntity
  8
2
  6
CONTINUOUS
 62
             7
100
AcDbLine
 10
26.0
 20
31.5
 11
26.0
 21
65.0
  0
LINE
  5
54
100
AcDbEntity
  8
2
  6
CONTINUOUS
 62
             7
100
AcDbLine
 10
4.57
 20
60.0
 11
21.43
 21
60.0
  0
LINE
  5
53
100
AcDbEntity
  8
2
  6
CONTINUOUS
 62
             7
100
AcDbLine
 10
0.0
 20
39.767
 11
0.00000000000001
 21
80.0
  0
LINE
  5
52
100
AcDbEntity
  8
2
  6
CONTINUOUS
 62
             7
100
AcDbLine
 10
120.0
 20
24.5
 11
120.0
 21
80.0
  0
LINE
  5
51
100
AcDbEntity
  8
2
  6
CONTINUOUS
 62
             7
100
AcDbLine
 10
4.57
 20
75.0
 11
115.43000000000001
 21
75.0
  0
LINE
  5
4A
102
{ACAD_REACTORS
330
12C
102
}
100
AcDbEntity
  8
SK2
  6
CONTINUOUS
 62
             7
100
AcDbLine
 10
135.761666666667
 20
26.93
 11
134.238333333333
 21
26.93
  0
LINE
  5
49
102
{ACAD_REACTORS
330
12C
102
}
100
AcDbEntity
  8
SK2
  6
CONTINUOUS
 62
             7
100
AcDbLine
 10
134.238333333333
 20
26.93
 11
135.0
 21
31.5
  0
LINE
  5
48
102
{ACAD_REACTORS
330
12C
102
}
100
AcDbEntity
  8
SK2
  6
CONTINUOUS
 62
             7
100
AcDbLine
 10
135.0
 20
31.5
 11
135.761666666667
 21
26.93
  0
LINE
  5
47
102
{ACAD_REACTORS
330
12B
102
}
100
AcDbEntity
  8
SK2
  6
CONTINUOUS
 62
             7
100
AcDbLine
 10
135.761666666667
 20
-26.93
 11
134.238333333333
 21
-26.93
  0
LINE
  5
46
102
{ACAD_REACTORS
330
12B
102
}
100
AcDbEntity
  8
SK2
  6
CONTINUOUS
 62
             7
100
AcDbLine
 10
134.238333333333
 20
-26.93
 11
135.0
 21
-31.5
  0
LINE
  5
45
102
{ACAD_REACTORS
330
12B
102
}
100
AcDbEntity
  8
SK2
  6
CONTINUOUS
 62
             7
100
AcDbLine
 10
135.0
 20
-31.5
 11
135.761666666667
 21
-26.93
  0
LINE
  5
44
102
{ACAD_REACTORS
330
12A
102
}
100
AcDbEntity
  8
SK2
  6
CONTINUOUS
 62
             7
100
AcDbLine
 10
-27.43
 20
74.2383333333333
 11
-27.43
 21
75.7616666666667
  0
LINE
  5
43
102
{ACAD_REACTORS
330
12A
102
}
100
AcDbEntity
  8
SK2
  6
CONTINUOUS
 62
             7
100
AcDbLine
 10
-27.43
 20
75.7616666666667
 11
-32.0
 21
75.0
  0
LINE
  5
42
102
{ACAD_REACTORS
330
12A
102
}
100
AcDbEntity
  8
SK2
  6
CONTINUOUS
 62
             7
100
AcDbLine
 10
-32.0
 20
75.0
 11
-27.43
 21
74.2383333333333
  0
LINE
  5
41
102
{ACAD_REACTORS
330
129
102
}
100
AcDbEntity
  8
SK2
  6
CONTINUOUS
 62
             7
100
AcDbLine
 10
-4.56999999999999
 20
74.2383333333333
 11
-4.56999999999999
 21
75.7616666666667
  0
LINE
  5
40
102
{ACAD_REACTORS
330
129
102
}
100
AcDbEntity
  8
SK2
  6
CONTINUOUS
 62
             7
100
AcDbLine
 10
-4.56999999999999
 20
75.7616666666667
 11
0.00000000000001
 21
75.0
  0
LINE
  5
3F
102
{ACAD_REACTORS
330
129
102
}
100
AcDbEntity
  8
SK2
  6
CONTINUOUS
 62
             7
100
AcDbLine
 10
0.00000000000001
 20
75.0
 11
-4.56999999999999
 21
74.2383333333333
  0
LINE
  5
3E
102
{ACAD_REACTORS
330
128
102
}
100
AcDbEntity
  8
SK2
  6
CONTINUOUS
 62
             7
100
AcDbLine
 10
-50.8103333333333
 20
-26.93
 11
-52.3336666666667
 21
-26.93
  0
LINE
  5
3D
102
{ACAD_REACTORS
330
128
102
}
100
AcDbEntity
  8
SK2
  6
CONTINUOUS
 62
             7
100
AcDbLine
 10
-52.3336666666667
 20
-26.93
 11
-51.572
 21
-31.5
  0
LINE
  5
3C
102
{ACAD_REACTORS
330
128
102
}
100
AcDbEntity
  8
SK2
  6
CONTINUOUS
 62
             7
100
AcDbLine
 10
-51.572
 20
-31.5
 11
-50.8103333333333
 21
-26.93
  0
LINE
  5
3B
102
{ACAD_REACTORS
330
127
102
}
100
AcDbEntity
  8
SK2
  6
CONTINUOUS
 62
             7
100
AcDbLine
 10
-50.8103333333333
 20
26.93
 11
-52.3336666666667
 21
26.93
  0
LINE
  5
3A
102
{ACAD_REACTORS
330
127
102
}
100
AcDbEntity
  8
SK2
  6
CONTINUOUS
 62
             7
100
AcDbLine
 10
-52.3336666666667
 20
26.93
 11
-51.572
 21
31.5
  0
LINE
  5
39
102
{ACAD_REACTORS
330
127
102
}
100
AcDbEntity
  8
SK2
  6
CONTINUOUS
 62
             7
100
AcDbLine
 10
-51.572
 20
31.5
 11
-50.8103333333333
 21
26.93
  0
LINE
  5
38
102
{ACAD_REACTORS
330
126
102
}
100
AcDbEntity
  8
2
  6
CONTINUOUS
 62
             7
100
AcDbLine
 10
4.57
 20
59.2383333333333
 11
4.57
 21
60.7616666666667
  0
LINE
  5
37
102
{ACAD_REACTORS
330
126
102
}
100
AcDbEntity
  8
2
  6
CONTINUOUS
 62
             7
100
AcDbLine
 10
4.57
 20
60.7616666666667
 11
0.00000000000001
 21
60.0
  0
LINE
  5
36
102
{ACAD_REACTORS
330
126
102
}
100
AcDbEntity
  8
2
  6
CONTINUOUS
 62
             7
100
AcDbLine
 10
0.00000000000001
 20
60.0
 11
4.57
 21
59.2383333333333
  0
LINE
  5
35
102
{ACAD_REACTORS
330
125
102
}
100
AcDbEntity
  8
2
  6
CONTINUOUS
 62
             7
100
AcDbLine
 10
21.43
 20
59.2383333333333
 11
21.43
 21
60.7616666666667
  0
LINE
  5
34
102
{ACAD_REACTORS
330
125
102
}
100
AcDbEntity
  8
2
  6
CONTINUOUS
 62
             7
100
AcDbLine
 10
21.43
 20
60.7616666666667
 11
26.0
 21
60.0
  0
LINE
  5
33
102
{ACAD_REACTORS
330
125
102
}
100
AcDbEntity
  8
2
  6
CONTINUOUS
 62
             7
100
AcDbLine
 10
26.0
 20
60.0
 11
21.43
 21
59.2383333333333
  0
LINE
  5
32
102
{ACAD_REACTORS
330
124
102
}
100
AcDbEntity
  8
2
  6
CONTINUOUS
 62
             7
100
AcDbLine
 10
4.57
 20
74.2383333333333
 11
4.57
 21
75.7616666666667
  0
LINE
  5
31
102
{ACAD_REACTORS
330
124
102
}
100
AcDbEntity
  8
2
  6
CONTINUOUS
 62
             7
100
AcDbLine
 10
4.57
 20
75.7616666666667
 11
0.00000000000001
 21
75.0
  0
LINE
  5
30
102
{ACAD_REACTORS
330
124
102
}
100
AcDbEntity
  8
2
  6
CONTINUOUS
 62
             7
100
AcDbLine
 10
0.00000000000001
 20
75.0
 11
4.57
 21
74.2383333333333
  0
LINE
  5
2F
102
{ACAD_REACTORS
330
123
102
}
100
AcDbEntity
  8
2
  6
CONTINUOUS
 62
             7
100
AcDbLine
 10
115.43000000000001
 20
74.2383333333333
 11
115.43000000000001
 21
75.7616666666667
  0
LINE
  5
2E
102
{ACAD_REACTORS
330
123
102
}
100
AcDbEntity
  8
2
  6
CONTINUOUS
 62
             7
100
AcDbLine
 10
115.43000000000001
 20
75.7616666666667
 11
120.0
 21
75.0
  0
LINE
  5
2D
102
{ACAD_REACTORS
330
123
102
}
100
AcDbEntity
  8
2
  6
CONTINUOUS
 62
             7
100
AcDbLine
 10
120.0
 20
75.0
 11
115.43000000000001
 21
74.2383333333333
  0
ENDSEC
  0
SECTION
  2
OBJECTS
  0
DICTIONARY
  5
19
100
AcDbDictionary
  3
ACAD_GROUP
350
1A
  3
ACAD_MLINESTYLE
350
1B
  0
DICTIONARY
  5
1A
102
{ACAD_REACTORS
330
19
102
}
100
AcDbDictionary
  0
DICTIONARY
  5
1B
102
{ACAD_REACTORS
330
19
102
}
100
AcDbDictionary
  3
STANDARD
350
1C
  0
MLINESTYLE
  5
1C
102
{ACAD_REACTORS
330
1B
102
}
100
AcDbMlineStyle
  2
STANDARD
 70
             0
  3

 62
             0
 51
90.0
 52
90.0
 71
             2
 49
0.5
 62
           256
  6
BYLAYER
 49
-0.5
 62
           256
  6
BYLAYER
  0
ENDSEC
  0
EOF
