  0
SECTION
  2
HEADER
  9
$ACADVER
  1
AC1012
  9
$DWGCODEPAGE
  3
ANSI_1252
  9
$INSBASE
 10
0.0
 20
0.0
 30
0.0
  9
$EXTMIN
 10
-138.9016402052968
 20
-60.0132740172711
 30
-0.0015258207003583
  9
$EXTMAX
 10
120.04107779991
 20
81.8743904422438
 30
0.0000000349246037
  9
$LIMMIN
 10
-170.0
 20
-170.0
  9
$LIMMAX
 10
519.0
 20
260.0
  9
$ORTHOMODE
 70
     0
  9
$REGENMODE
 70
     1
  9
$FILLMODE
 70
     1
  9
$QTEXTMODE
 70
     0
  9
$MIRRTEXT
 70
     0
  9
$DRAGMODE
 70
     2
  9
$LTSCALE
 40
15.0
  9
$OSMODE
 70
     0
  9
$ATTMODE
 70
     1
  9
$TEXTSIZE
 40
4.57
  9
$TRACEWID
 40
0.05
  9
$TEXTSTYLE
  7
SIMPLEX
  9
$CLAYER
  8
SK2
  9
$CELTYPE
  6
BYLAYER
  9
$CECOLOR
 62
   256
  9
$CELTSCALE
 40
1.0
  9
$DELOBJ
 70
     1
  9
$DISPSILH
 70
     0
  9
$DIMSCALE
 40
0.0
  9
$DIMASZ
 40
4.57
  9
$DIMEXO
 40
0.0
  9
$DIMDLI
 40
0.38
  9
$DIMRND
 40
0.0
  9
$DIMDLE
 40
0.0
  9
$DIMEXE
 40
5.0
  9
$DIMTP
 40
0.0
  9
$DIMTM
 40
0.0
  9
$DIMTXT
 40
4.57
  9
$DIMCEN
 40
0.09
  9
$DIMTSZ
 40
0.0
  9
$DIMTOL
 70
     0
  9
$DIMLIM
 70
     0
  9
$DIMTIH
 70
     0
  9
$DIMTOH
 70
     0
  9
$DIMSE1
 70
     0
  9
$DIMSE2
 70
     0
  9
$DIMTAD
 70
     1
  9
$DIMZIN
 70
     8
  9
$DIMBLK
  1

  9
$DIMASO
 70
     1
  9
$DIMSHO
 70
     1
  9
$DIMPOST
  1

  9
$DIMAPOST
  1

  9
$DIMALT
 70
     0
  9
$DIMALTD
 70
     2
  9
$DIMALTF
 40
25.4
  9
$DIMLFAC
 40
1.0
  9
$DIMTOFL
 70
     0
  9
$DIMTVP
 40
0.0
  9
$DIMTIX
 70
     0
  9
$DIMSOXD
 70
     0
  9
$DIMSAH
 70
     0
  9
$DIMBLK1
  1

  9
$DIMBLK2
  1

  9
$DIMSTYLE
  2
STANDARD
  9
$DIMCLRD
 70
     0
  9
$DIMCLRE
 70
     0
  9
$DIMCLRT
 70
     0
  9
$DIMTFAC
 40
1.0
  9
$DIMGAP
 40
2.299999999999999
  9
$DIMJUST
 70
     0
  9
$DIMSD1
 70
     0
  9
$DIMSD2
 70
     0
  9
$DIMTOLJ
 70
     1
  9
$DIMTZIN
 70
     0
  9
$DIMALTZ
 70
     0
  9
$DIMALTTZ
 70
     0
  9
$DIMFIT
 70
     3
  9
$DIMUPT
 70
     0
  9
$DIMUNIT
 70
     2
  9
$DIMDEC
 70
     2
  9
$DIMTDEC
 70
     4
  9
$DIMALTU
 70
     2
  9
$DIMALTTD
 70
     2
  9
$DIMTXSTY
  7
SIMPLEX
  9
$DIMAUNIT
 70
     0
  9
$LUNITS
 70
     2
  9
$LUPREC
 70
     2
  9
$SKETCHINC
 40
0.1
  9
$FILLETRAD
 40
0.0
  9
$AUNITS
 70
     0
  9
$AUPREC
 70
     0
  9
$MENU
  1
c:\tdm21\cad\caduti13\tdm13
  9
$ELEVATION
 40
0.0
  9
$PELEVATION
 40
0.0
  9
$THICKNESS
 40
0.0
  9
$LIMCHECK
 70
     0
  9
$BLIPMODE
 70
     0
  9
$CHAMFERA
 40
0.0
  9
$CHAMFERB
 40
0.0
  9
$CHAMFERC
 40
0.0
  9
$CHAMFERD
 40
0.0
  9
$SKPOLY
 70
     0
  9
$TDCREATE
 40
2452457.739712152
  9
$TDUPDATE
 40
2452457.739712152
  9
$TDINDWG
 40
0.0004812500
  9
$TDUSRTIMER
 40
0.0004806713
  9
$USRTIMER
 70
     1
  9
$ANGBASE
 50
0.0
  9
$ANGDIR
 70
     0
  9
$PDMODE
 70
     1
  9
$PDSIZE
 40
0.0
  9
$PLINEWID
 40
0.0
  9
$COORDS
 70
     1
  9
$SPLFRAME
 70
     0
  9
$SPLINETYPE
 70
     6
  9
$SPLINESEGS
 70
     8
  9
$ATTDIA
 70
     0
  9
$ATTREQ
 70
     1
  9
$HANDLING
 70
  4097
  9
$HANDSEED
  5
4A2
  9
$SURFTAB1
 70
     6
  9
$SURFTAB2
 70
     6
  9
$SURFTYPE
 70
     6
  9
$SURFU
 70
     6
  9
$SURFV
 70
     6
  9
$UCSNAME
  2

  9
$UCSORG
 10
0.0
 20
0.0
 30
0.0
  9
$UCSXDIR
 10
1.0
 20
0.0
 30
0.0
  9
$UCSYDIR
 10
0.0
 20
1.0
 30
0.0
  9
$PUCSNAME
  2

  9
$PUCSORG
 10
0.0
 20
0.0
 30
0.0
  9
$PUCSXDIR
 10
1.0
 20
0.0
 30
0.0
  9
$PUCSYDIR
 10
0.0
 20
1.0
 30
0.0
  9
$USERI1
 70
     0
  9
$USERI2
 70
     0
  9
$USERI3
 70
     0
  9
$USERI4
 70
     0
  9
$USERI5
 70
     0
  9
$USERR1
 40
0.0
  9
$USERR2
 40
0.0
  9
$USERR3
 40
0.0
  9
$USERR4
 40
0.0
  9
$USERR5
 40
0.0
  9
$WORLDVIEW
 70
     1
  9
$SHADEDGE
 70
     3
  9
$SHADEDIF
 70
    70
  9
$TILEMODE
 70
     1
  9
$MAXACTVP
 70
    16
  9
$PINSBASE
 10
0.0
 20
0.0
 30
0.0
  9
$PLIMCHECK
 70
     0
  9
$PEXTMIN
 10
0.0
 20
0.0
 30
0.0
  9
$PEXTMAX
 10
0.0
 20
0.0
 30
0.0
  9
$PLIMMIN
 10
0.0
 20
0.0
  9
$PLIMMAX
 10
12.0
 20
9.0
  9
$UNITMODE
 70
     0
  9
$VISRETAIN
 70
     0
  9
$PLINEGEN
 70
     0
  9
$PSLTSCALE
 70
     1
  9
$TREEDEPTH
 70
  3020
  9
$PICKSTYLE
 70
     1
  9
$CMLSTYLE
  2
STANDARD
  9
$CMLJUST
 70
     0
  9
$CMLSCALE
 40
1.0
  9
$SAVEIMAGES
 70
     1
  0
ENDSEC
  0
SECTION
  2
CLASSES
  0
CLASS
  1
ACDBDICTIONARYWDFLT
  2
AcDbDictionaryWithDefault
  3
AutoCAD 2000
 90
    32768
280
     0
281
     0
  0
CLASS
  1
ACDBPLACEHOLDER
  2
AcDbPlaceHolder
  3
AutoCAD 2000
 90
    32768
280
     0
281
     0
  0
CLASS
  1
LAYOUT
  2
AcDbLayout
  3
AutoCAD 2000
 90
    32768
280
     0
281
     0
  0
CLASS
  1
LONG_TRANSACTION
  2
AcDbLongTransaction
  3
AutoCAD 2000
 90
    32768
280
     0
281
     0
  0
CLASS
  1
LWPOLYLINE
  2
AcDbPolyline
  3
AutoCAD 2000
 90
    32768
280
     0
281
     1
  0
CLASS
  1
HATCH
  2
AcDbHatch
  3
AutoCAD 2000
 90
    32768
280
     0
281
     1
  0
CLASS
  1
XRECORD
  2
AcDbXrecord
  3
AutoCAD 2000
 90
    32768
280
     0
281
     0
  0
ENDSEC
  0
SECTION
  2
TABLES
  0
TABLE
  2
VPORT
  5
8
330
0
100
AcDbSymbolTable
 70
     3
  0
VPORT
  5
49D
330
8
100
AcDbSymbolTableRecord
100
AcDbViewportTableRecord
  2
*ACTIVE
 70
     0
 10
0.0
 20
0.0
 11
1.0
 21
1.0
 12
-9.430281202693441
 22
10.93055821248634
 13
0.0
 23
0.0
 14
5.0
 24
5.0
 15
5.0
 25
5.0
 16
0.0
 26
0.0
 36
1.0
 17
0.0
 27
0.0
 37
0.0
 40
151.8876644595148
 41
2.184713375796178
 42
50.0
 43
0.0
 44
0.0
 50
0.0
 51
0.0
 71
     0
 72
   100
 73
     1
 74
     1
 75
     0
 76
     0
 77
     0
 78
     0
  0
ENDTAB
  0
TABLE
  2
LTYPE
  5
5
330
0
100
AcDbSymbolTable
 70
     3
  0
LTYPE
  5
12
330
5
100
AcDbSymbolTableRecord
100
AcDbLinetypeTableRecord
  2
BYBLOCK
 70
     0
  3

 72
    65
 73
     0
 40
0.0
  0
LTYPE
  5
13
330
5
100
AcDbSymbolTableRecord
100
AcDbLinetypeTableRecord
  2
BYLAYER
 70
     0
  3

 72
    65
 73
     0
 40
0.0
  0
LTYPE
  5
14
330
5
100
AcDbSymbolTableRecord
100
AcDbLinetypeTableRecord
  2
CONTINUOUS
 70
     0
  3
Solid line
 72
    65
 73
     0
 40
0.0
  0
LTYPE
  5
1F
330
5
100
AcDbSymbolTableRecord
100
AcDbLinetypeTableRecord
  2
CENTER
 70
     0
  3
____ . ____ . ____
 72
    65
 73
     4
 40
1.5
 49
1.0
 74
     0
 49
-0.25
 74
     0
 49
0.0
 74
     0
 49
-0.25
 74
     0
  0
LTYPE
  5
20
330
5
100
AcDbSymbolTableRecord
100
AcDbLinetypeTableRecord
  2
HIDDEN
 70
     0
  3
_ _ _ _ _ _ _ _ _ _ _ _ _ _ _ _ _ _ _ _ _ _ _
 72
    65
 73
     2
 40
0.375
 49
0.25
 74
     0
 49
-0.125
 74
     0
  0
ENDTAB
  0
TABLE
  2
LAYER
  5
2
330
0
100
AcDbSymbolTable
 70
    15
  0
LAYER
  5
F
330
2
100
AcDbSymbolTableRecord
100
AcDbLayerTableRecord
  2
0
 70
     0
 62
     7
  6
CONTINUOUS
  0
LAYER
  5
23
330
2
100
AcDbSymbolTableRecord
100
AcDbLayerTableRecord
  2
1
 70
     0
 62
     4
  6
CONTINUOUS
  0
LAYER
  5
24
330
2
100
AcDbSymbolTableRecord
100
AcDbLayerTableRecord
  2
SK1
 70
     0
 62
     4
  6
CONTINUOUS
  0
LAYER
  5
25
330
2
100
AcDbSymbolTableRecord
100
AcDbLayerTableRecord
  2
2
 70
     0
 62
     7
  6
CONTINUOUS
  0
LAYER
  5
26
330
2
100
AcDbSymbolTableRecord
100
AcDbLayerTableRecord
  2
2L
 70
     0
 62
     7
  6
CONTINUOUS
  0
LAYER
  5
27
330
2
100
AcDbSymbolTableRecord
100
AcDbLayerTableRecord
  2
SK2
 70
     0
 62
     7
  6
CONTINUOUS
  0
LAYER
  5
28
330
2
100
AcDbSymbolTableRecord
100
AcDbLayerTableRecord
  2
3
 70
     0
 62
     1
  6
HIDDEN
  0
LAYER
  5
29
330
2
100
AcDbSymbolTableRecord
100
AcDbLayerTableRecord
  2
SK3
 70
     0
 62
     1
  6
HIDDEN
  0
LAYER
  5
2A
330
2
100
AcDbSymbolTableRecord
100
AcDbLayerTableRecord
  2
4
 70
     0
 62
    -2
  6
CENTER
  0
LAYER
  5
2B
330
2
100
AcDbSymbolTableRecord
100
AcDbLayerTableRecord
  2
SK4
 70
     0
 62
     2
  6
CENTER
  0
LAYER
  5
2C
330
2
100
AcDbSymbolTableRecord
100
AcDbLayerTableRecord
  2
5
 70
     0
 62
    -7
  6
CONTINUOUS
  0
LAYER
  5
2D
330
2
100
AcDbSymbolTableRecord
100
AcDbLayerTableRecord
  2
6
 70
     0
 62
     5
  6
CONTINUOUS
  0
LAYER
  5
2E
330
2
100
AcDbSymbolTableRecord
100
AcDbLayerTableRecord
  2
SK6
 70
     0
 62
     5
  6
CONTINUOUS
  0
LAYER
  5
2F
330
2
100
AcDbSymbolTableRecord
100
AcDbLayerTableRecord
  2
DEFPOINTS
 70
     0
 62
     7
  6
CONTINUOUS
  0
LAYER
  5
399
330
2
100
AcDbSymbolTableRecord
100
AcDbLayerTableRecord
  2
1__1
 70
     0
 62
     1
  6
CONTINUOUS
  0
ENDTAB
  0
TABLE
  2
STYLE
  5
3
330
0
100
AcDbSymbolTable
 70
     3
  0
STYLE
  5
10
330
3
100
AcDbSymbolTableRecord
100
AcDbTextStyleTableRecord
  2
STANDARD
 70
     0
 40
0.0
 41
1.0
 50
0.0
 71
     0
 42
5.0
  3
txt
  4

  0
STYLE
  5
1D
330
3
100
AcDbSymbolTableRecord
100
AcDbTextStyleTableRecord
  2
TXT
 70
     0
 40
8.0
 41
1.0
 50
0.0
 71
     0
 42
8.0
  3
txt
  4

  0
STYLE
  5
1E
330
3
100
AcDbSymbolTableRecord
100
AcDbTextStyleTableRecord
  2
SIMPLEX
 70
     0
 40
0.0
 41
1.0
 50
0.0
 71
     0
 42
4.57
  3
simplex
  4

  0
ENDTAB
  0
TABLE
  2
VIEW
  5
6
330
0
100
AcDbSymbolTable
 70
     0
  0
ENDTAB
  0
TABLE
  2
UCS
  5
7
330
0
100
AcDbSymbolTable
 70
     0
  0
ENDTAB
  0
TABLE
  2
APPID
  5
9
330
0
100
AcDbSymbolTable
 70
     1
  0
APPID
  5
11
330
9
100
AcDbSymbolTableRecord
100
AcDbRegAppTableRecord
  2
ACAD
 70
     0
  0
ENDTAB
  0
TABLE
  2
DIMSTYLE
  5
A
330
0
100
AcDbSymbolTable
 70
     1
  0
DIMSTYLE
105
3F
102
{ACAD_REACTORS
330
3D5
330
425
330
3D6
330
3D4
330
3D3
330
3D2
330
3D1
102
}
330
A
100
AcDbSymbolTableRecord
100
AcDbDimStyleTableRecord
  2
STANDARD
 70
     0
  3

  4

  5

  6

  7

 40
0.0
 41
4.57
 42
0.0
 43
0.38
 44
5.0
 45
0.0
 46
0.0
 47
0.0
 48
0.0
140
4.57
141
0.09
142
0.0
143
25.4
144
1.0
145
0.0
146
1.0
147
2.299999999999999
 71
     0
 72
     0
 73
     0
 74
     0
 75
     0
 76
     0
 77
     1
 78
     8
170
     0
171
     2
172
     0
173
     0
174
     0
175
     0
176
     0
177
     0
178
     0
270
     2
271
     2
272
     4
273
     2
274
     2
340
1E
275
     0
280
     0
281
     0
282
     0
283
     1
284
     0
285
     0
286
     0
287
     3
288
     0
  0
ENDTAB
  0
TABLE
  2
BLOCK_RECORD
  5
1
330
0
100
AcDbSymbolTable
 70
     7
  0
BLOCK_RECORD
  5
18
102
{ACAD_XDICTIONARY
360
49E
102
}
330
1
100
AcDbSymbolTableRecord
100
AcDbBlockTableRecord
  2
*MODEL_SPACE
  0
BLOCK_RECORD
  5
338
102
{ACAD_XDICTIONARY
360
4A0
102
}
330
1
100
AcDbSymbolTableRecord
100
AcDbBlockTableRecord
  2
*PAPER_SPACE
  0
BLOCK_RECORD
  5
345
330
1
100
AcDbSymbolTableRecord
100
AcDbBlockTableRecord
  2
*D0
  0
BLOCK_RECORD
  5
351
330
1
100
AcDbSymbolTableRecord
100
AcDbBlockTableRecord
  2
*D1
  0
BLOCK_RECORD
  5
35D
330
1
100
AcDbSymbolTableRecord
100
AcDbBlockTableRecord
  2
*D2
  0
BLOCK_RECORD
  5
369
330
1
100
AcDbSymbolTableRecord
100
AcDbBlockTableRecord
  2
*D3
  0
BLOCK_RECORD
  5
375
330
1
100
AcDbSymbolTableRecord
100
AcDbBlockTableRecord
  2
*D4
  0
BLOCK_RECORD
  5
381
330
1
100
AcDbSymbolTableRecord
100
AcDbBlockTableRecord
  2
*D5
  0
BLOCK_RECORD
  5
38D
330
1
100
AcDbSymbolTableRecord
100
AcDbBlockTableRecord
  2
*D6
  0
ENDTAB
  0
ENDSEC
  0
SECTION
  2
BLOCKS
  0
BLOCK
  5
32
330
18
100
AcDbEntity
  8
0
100
AcDbBlockBegin
  2
*MODEL_SPACE
 70
     0
 10
0.0
 20
0.0
 30
0.0
  3
*MODEL_SPACE
  1

  0
ENDBLK
  5
33
330
18
100
AcDbEntity
  8
0
100
AcDbBlockEnd
  0
BLOCK
  5
339
330
338
100
AcDbEntity
 67
     1
  8
0
100
AcDbBlockBegin
  2
*PAPER_SPACE
 70
     0
 10
0.0
 20
0.0
 30
0.0
  3
*PAPER_SPACE
  1

  0
ENDBLK
  5
33A
330
338
100
AcDbEntity
 67
     1
  8
0
100
AcDbBlockEnd
  0
BLOCK
  5
34F
330
345
100
AcDbEntity
  8
0
100
AcDbBlockBegin
  2
*D0
 70
     1
 10
0.0
 20
0.0
 30
0.0
  3
*D0
  1

  0
LINE
  5
426
330
345
100
AcDbEntity
  8
SK2
 62
     0
100
AcDbLine
 10
82.0
 20
-18.99999994764012
 30
0.0
 11
82.0
 21
-60.0
 31
0.0
  0
LINE
  5
427
330
345
100
AcDbEntity
  8
SK2
 62
     0
100
AcDbLine
 10
55.0
 20
-43.5
 30
0.0
 11
55.0
 21
-60.0
 31
0.0
  0
LINE
  5
428
330
345
100
AcDbEntity
  8
SK2
 62
     0
100
AcDbLine
 10
77.43000000000001
 20
-55.0
 30
0.0
 11
59.57
 21
-55.0
 31
0.0
  0
SOLID
  5
429
330
345
100
AcDbEntity
  8
SK2
 62
     0
100
AcDbTrace
 10
77.43000000000001
 20
-54.23833333333333
 30
0.0
 11
77.43000000000001
 21
-55.76166666666667
 31
0.0
 12
82.0
 22
-55.0
 32
0.0
 13
82.0
 23
-55.0
 33
0.0
  0
SOLID
  5
42A
330
345
100
AcDbEntity
  8
SK2
 62
     0
100
AcDbTrace
 10
59.57
 20
-54.23833333333333
 30
0.0
 11
59.57
 21
-55.76166666666667
 31
0.0
 12
55.0
 22
-55.0
 32
0.0
 13
55.0
 23
-55.0
 33
0.0
  0
MTEXT
  5
42B
330
345
100
AcDbEntity
  8
SK2
 62
     0
100
AcDbMText
 10
68.5
 20
-50.415
 30
0.0
 40
4.57
 41
0.0
 71
     5
 72
     1
  1
\A1;27
  7
SIMPLEX
1001
ACAD
1000
MTEXTBEGIN
1070
    73
1070
     1
1070
    44
1040
1.0
1070
    74
1070
     0
1000
MTEXTEND
  0
POINT
  5
42C
330
345
100
AcDbEntity
  8
DEFPOINTS
 62
     0
100
AcDbPoint
 10
82.0
 20
-18.99999994764012
 30
0.0
  0
POINT
  5
42D
330
345
100
AcDbEntity
  8
DEFPOINTS
 62
     0
100
AcDbPoint
 10
55.0
 20
-43.5
 30
0.0
  0
POINT
  5
42E
330
345
100
AcDbEntity
  8
DEFPOINTS
 62
     0
100
AcDbPoint
 10
55.0
 20
-55.0
 30
0.0
  0
ENDBLK
  5
350
330
345
100
AcDbEntity
  8
0
100
AcDbBlockEnd
  0
BLOCK
  5
35B
330
351
100
AcDbEntity
  8
0
100
AcDbBlockBegin
  2
*D1
 70
     1
 10
0.0
 20
0.0
 30
0.0
  3
*D1
  1

  0
LINE
  5
42F
330
351
100
AcDbEntity
  8
SK2
 62
     0
100
AcDbLine
 10
0.0
 20
34.92499999999999
 30
0.0
 11
0.0000000000000018
 21
65.0
 31
0.0
  0
LINE
  5
430
330
351
100
AcDbEntity
  8
SK2
 62
     0
100
AcDbLine
 10
38.0
 20
49.38652999999999
 30
0.0
 11
38.0
 21
65.0
 31
0.0
  0
LINE
  5
431
330
351
100
AcDbEntity
  8
SK2
 62
     0
100
AcDbLine
 10
4.570000000000002
 20
60.0
 30
0.0
 11
33.42999999999999
 21
60.0
 31
0.0
  0
SOLID
  5
432
330
351
100
AcDbEntity
  8
SK2
 62
     0
100
AcDbTrace
 10
4.570000000000002
 20
60.76166666666667
 30
0.0
 11
4.570000000000002
 21
59.23833333333333
 31
0.0
 12
0.0000000000000015
 22
60.0
 32
0.0
 13
0.0000000000000015
 23
60.0
 33
0.0
  0
SOLID
  5
433
330
351
100
AcDbEntity
  8
SK2
 62
     0
100
AcDbTrace
 10
33.42999999999999
 20
60.76166666666667
 30
0.0
 11
33.42999999999999
 21
59.23833333333333
 31
0.0
 12
38.0
 22
60.0
 32
0.0
 13
38.0
 23
60.0
 33
0.0
  0
MTEXT
  5
434
330
351
100
AcDbEntity
  8
SK2
 62
     0
100
AcDbMText
 10
19.0
 20
64.58499999999999
 30
0.0
 40
4.57
 41
0.0
 71
     5
 72
     1
  1
\A1;38
  7
SIMPLEX
1001
ACAD
1000
MTEXTBEGIN
1070
    73
1070
     1
1070
    44
1040
1.0
1070
    74
1070
     0
1000
MTEXTEND
  0
POINT
  5
435
330
351
100
AcDbEntity
  8
DEFPOINTS
 62
     0
100
AcDbPoint
 10
0.0
 20
34.92499999999999
 30
0.0
  0
POINT
  5
436
330
351
100
AcDbEntity
  8
DEFPOINTS
 62
     0
100
AcDbPoint
 10
38.0
 20
49.38652999999999
 30
0.0
  0
POINT
  5
437
330
351
100
AcDbEntity
  8
DEFPOINTS
 62
     0
100
AcDbPoint
 10
38.0
 20
60.0
 30
0.0
  0
ENDBLK
  5
35C
330
351
100
AcDbEntity
  8
0
100
AcDbBlockEnd
  0
BLOCK
  5
367
330
35D
100
AcDbEntity
  8
0
100
AcDbBlockBegin
  2
*D2
 70
     1
 10
0.0
 20
0.0
 30
0.0
  3
*D2
  1

  0
LINE
  5
438
330
35D
100
AcDbEntity
  8
SK2
 62
     0
100
AcDbLine
 10
-101.8
 20
19.21432999958978
 30
0.0
 11
-101.8
 21
80.0
 31
0.0
  0
LINE
  5
439
330
35D
100
AcDbEntity
  8
SK2
 62
     0
100
AcDbLine
 10
0.0
 20
34.92499999999999
 30
0.0
 11
0.0000000000000028
 21
80.0
 31
0.0
  0
LINE
  5
43A
330
35D
100
AcDbEntity
  8
SK2
 62
     0
100
AcDbLine
 10
-97.23000000000002
 20
75.0
 30
0.0
 11
-4.569999999999997
 21
75.0
 31
0.0
  0
SOLID
  5
43B
330
35D
100
AcDbEntity
  8
SK2
 62
     0
100
AcDbTrace
 10
-97.23000000000002
 20
75.76166666666667
 30
0.0
 11
-97.23000000000002
 21
74.23833333333333
 31
0.0
 12
-101.8
 22
75.0
 32
0.0
 13
-101.8
 23
75.0
 33
0.0
  0
SOLID
  5
43C
330
35D
100
AcDbEntity
  8
SK2
 62
     0
100
AcDbTrace
 10
-4.569999999999997
 20
75.76166666666667
 30
0.0
 11
-4.569999999999997
 21
74.23833333333333
 31
0.0
 12
0.0000000000000025
 22
75.0
 32
0.0
 13
0.0000000000000025
 23
75.0
 33
0.0
  0
MTEXT
  5
43D
330
35D
100
AcDbEntity
  8
SK2
 62
     0
100
AcDbMText
 10
-50.9
 20
79.58499999999999
 30
0.0
 40
4.57
 41
0.0
 71
     5
 72
     1
  1
\A1;101.8
  7
SIMPLEX
1001
ACAD
1000
MTEXTBEGIN
1070
    73
1070
     1
1070
    44
1040
1.0
1070
    74
1070
     0
1000
MTEXTEND
  0
POINT
  5
43E
330
35D
100
AcDbEntity
  8
DEFPOINTS
 62
     0
100
AcDbPoint
 10
-101.8
 20
19.21432999958978
 30
0.0
  0
POINT
  5
43F
330
35D
100
AcDbEntity
  8
DEFPOINTS
 62
     0
100
AcDbPoint
 10
0.0
 20
34.92499999999999
 30
0.0
  0
POINT
  5
440
330
35D
100
AcDbEntity
  8
DEFPOINTS
 62
     0
100
AcDbPoint
 10
0.0000000000000025
 20
75.0
 30
0.0
  0
ENDBLK
  5
368
330
35D
100
AcDbEntity
  8
0
100
AcDbBlockEnd
  0
BLOCK
  5
373
330
369
100
AcDbEntity
  8
0
100
AcDbBlockBegin
  2
*D3
 70
     1
 10
0.0
 20
0.0
 30
0.0
  3
*D3
  1

  0
LINE
  5
441
330
369
100
AcDbEntity
  8
SK2
 62
     0
100
AcDbLine
 10
0.0
 20
34.92499999999999
 30
0.0
 11
-17.99999999999998
 21
34.925
 31
0.0
  0
LINE
  5
442
330
369
100
AcDbEntity
  8
SK2
 62
     0
100
AcDbLine
 10
0.0
 20
-34.92499999999999
 30
0.0
 11
-18.0
 21
-34.92499999999999
 31
0.0
  0
LINE
  5
443
330
369
100
AcDbEntity
  8
SK2
 62
     0
100
AcDbLine
 10
-12.99999999999998
 20
30.355
 30
0.0
 11
-13.0
 21
-30.35499999999999
 31
0.0
  0
SOLID
  5
444
330
369
100
AcDbEntity
  8
SK2
 62
     0
100
AcDbTrace
 10
-13.76166666666665
 20
30.355
 30
0.0
 11
-12.23833333333331
 21
30.355
 31
0.0
 12
-12.99999999999998
 22
34.92499999999999
 32
0.0
 13
-12.99999999999998
 23
34.92499999999999
 33
0.0
  0
SOLID
  5
445
330
369
100
AcDbEntity
  8
SK2
 62
     0
100
AcDbTrace
 10
-13.76166666666666
 20
-30.35499999999999
 30
0.0
 11
-12.23833333333333
 21
-30.35499999999999
 31
0.0
 12
-13.0
 22
-34.92499999999999
 32
0.0
 13
-13.0
 23
-34.92499999999999
 33
0.0
  0
MTEXT
  5
446
330
369
100
AcDbEntity
  8
SK2
 62
     0
100
AcDbMText
 10
-17.58499999999999
 20
0.0000000000000014
 30
0.0
 40
4.57
 41
0.0
 71
     5
 72
     1
  1
\A1;%%C69.85
  7
SIMPLEX
 11
0.0000000000000001
 21
1.0
 31
0.0
1001
ACAD
1000
MTEXTBEGIN
1070
    73
1070
     1
1070
    44
1040
1.0
1070
    74
1070
     0
1000
MTEXTEND
  0
POINT
  5
447
330
369
100
AcDbEntity
  8
DEFPOINTS
 62
     0
100
AcDbPoint
 10
0.0
 20
34.92499999999999
 30
0.0
  0
POINT
  5
448
330
369
100
AcDbEntity
  8
DEFPOINTS
 62
     0
100
AcDbPoint
 10
0.0
 20
-34.92499999999999
 30
0.0
  0
POINT
  5
449
330
369
100
AcDbEntity
  8
DEFPOINTS
 62
     0
100
AcDbPoint
 10
-13.0
 20
-34.92499999999999
 30
0.0
  0
ENDBLK
  5
374
330
369
100
AcDbEntity
  8
0
100
AcDbBlockEnd
  0
BLOCK
  5
37F
330
375
100
AcDbEntity
  8
0
100
AcDbBlockBegin
  2
*D4
 70
     1
 10
0.0
 20
0.0
 30
0.0
  3
*D4
  1

  0
LINE
  5
44A
330
375
100
AcDbEntity
  8
SK2
 62
     0
100
AcDbLine
 10
3.599999999999994
 20
-49.98653
 30
0.0
 11
-137.0
 21
-49.98652999999997
 31
0.0
  0
LINE
  5
44B
330
375
100
AcDbEntity
  8
SK2
 62
     0
100
AcDbLine
 10
3.599999999999994
 20
49.98653
 30
0.0
 11
-137.0
 21
49.98653000000004
 31
0.0
  0
LINE
  5
44C
330
375
100
AcDbEntity
  8
SK2
 62
     0
100
AcDbLine
 10
-132.0
 20
-45.41652999999996
 30
0.0
 11
-132.0
 21
45.41653000000003
 31
0.0
  0
SOLID
  5
44D
330
375
100
AcDbEntity
  8
SK2
 62
     0
100
AcDbTrace
 10
-132.7616666666666
 20
-45.41652999999996
 30
0.0
 11
-131.2383333333333
 21
-45.41652999999996
 31
0.0
 12
-132.0
 22
-49.98652999999997
 32
0.0
 13
-132.0
 23
-49.98652999999997
 33
0.0
  0
SOLID
  5
44E
330
375
100
AcDbEntity
  8
SK2
 62
     0
100
AcDbTrace
 10
-132.7616666666666
 20
45.41653000000003
 30
0.0
 11
-131.2383333333333
 21
45.41653000000003
 31
0.0
 12
-132.0
 22
49.98653000000004
 32
0.0
 13
-132.0
 23
49.98653000000004
 33
0.0
  0
MTEXT
  5
44F
330
375
100
AcDbEntity
  8
SK2
 62
     0
100
AcDbMText
 10
-136.585
 20
0.0000000000000157
 30
0.0
 40
4.57
 41
0.0
 71
     5
 72
     1
  1
\A1;%%C99.97
  7
SIMPLEX
 11
0.0000000000000001
 21
1.0
 31
0.0
1001
ACAD
1000
MTEXTBEGIN
1070
    73
1070
     1
1070
    44
1040
1.0
1070
    74
1070
     0
1000
MTEXTEND
  0
POINT
  5
450
330
375
100
AcDbEntity
  8
DEFPOINTS
 62
     0
100
AcDbPoint
 10
3.599999999999994
 20
-49.98653
 30
0.0
  0
POINT
  5
451
330
375
100
AcDbEntity
  8
DEFPOINTS
 62
     0
100
AcDbPoint
 10
3.599999999999994
 20
49.98653
 30
0.0
  0
POINT
  5
452
330
375
100
AcDbEntity
  8
DEFPOINTS
 62
     0
100
AcDbPoint
 10
-132.0
 20
49.98653000000004
 30
0.0
  0
ENDBLK
  5
380
330
375
100
AcDbEntity
  8
0
100
AcDbBlockEnd
  0
BLOCK
  5
38B
330
381
100
AcDbEntity
  8
0
100
AcDbBlockBegin
  2
*D5
 70
     1
 10
0.0
 20
0.0
 30
0.0
  3
*D5
  1

  0
LINE
  5
453
330
381
100
AcDbEntity
  8
SK2
 62
     0
100
AcDbLine
 10
-88.26133
 20
12.0
 30
0.0
 11
-122.0
 21
12.00000000000001
 31
0.0
  0
LINE
  5
454
330
381
100
AcDbEntity
  8
SK2
 62
     0
100
AcDbLine
 10
-88.26133
 20
-12.0
 30
0.0
 11
-122.0
 21
-11.99999999999999
 31
0.0
  0
LINE
  5
455
330
381
100
AcDbEntity
  8
SK2
 62
     0
100
AcDbLine
 10
-117.0
 20
7.430000000000007
 30
0.0
 11
-117.0
 21
-7.429999999999991
 31
0.0
  0
SOLID
  5
456
330
381
100
AcDbEntity
  8
SK2
 62
     0
100
AcDbTrace
 10
-117.7616666666666
 20
7.430000000000007
 30
0.0
 11
-116.2383333333333
 21
7.430000000000007
 31
0.0
 12
-117.0
 22
12.00000000000001
 32
0.0
 13
-117.0
 23
12.00000000000001
 33
0.0
  0
SOLID
  5
457
330
381
100
AcDbEntity
  8
SK2
 62
     0
100
AcDbTrace
 10
-117.7616666666666
 20
-7.429999999999991
 30
0.0
 11
-116.2383333333333
 21
-7.429999999999991
 31
0.0
 12
-117.0
 22
-11.99999999999999
 32
0.0
 13
-117.0
 23
-11.99999999999999
 33
0.0
  0
MTEXT
  5
458
330
381
100
AcDbEntity
  8
SK2
 62
     0
100
AcDbMText
 10
-121.5849999999999
 20
-0.00000000000001
 30
0.0
 40
4.57
 41
0.0
 71
     5
 72
     1
  1
\A1;M24
  7
SIMPLEX
 11
0.0000000000000001
 21
1.0
 31
0.0
1001
ACAD
1000
MTEXTBEGIN
1070
    73
1070
     1
1070
    44
1040
1.0
1070
    74
1070
     0
1000
MTEXTEND
  0
POINT
  5
459
330
381
100
AcDbEntity
  8
DEFPOINTS
 62
     0
100
AcDbPoint
 10
-88.26133
 20
12.0
 30
0.0
  0
POINT
  5
45A
330
381
100
AcDbEntity
  8
DEFPOINTS
 62
     0
100
AcDbPoint
 10
-88.26133
 20
-12.0
 30
0.0
  0
POINT
  5
45B
330
381
100
AcDbEntity
  8
DEFPOINTS
 62
     0
100
AcDbPoint
 10
-117.0
 20
-11.99999999999999
 30
0.0
  0
ENDBLK
  5
38C
330
381
100
AcDbEntity
  8
0
100
AcDbBlockEnd
  0
BLOCK
  5
397
330
38D
100
AcDbEntity
  8
0
100
AcDbBlockBegin
  2
*D6
 70
     1
 10
0.0
 20
0.0
 30
0.0
  3
*D6
  1

  0
LINE
  5
45C
330
38D
100
AcDbEntity
  8
2
 62
     0
100
AcDbLine
 10
0.0000110929963191
 20
34.92501612098317
 30
0.0
 11
0.0000110929963218
 21
80.0
 31
0.0
  0
LINE
  5
45D
330
38D
100
AcDbEntity
  8
2
 62
     0
100
AcDbLine
 10
55.0
 20
43.5
 30
0.0
 11
55.0
 21
80.0
 31
0.0
  0
LINE
  5
45E
330
38D
100
AcDbEntity
  8
2
 62
     0
100
AcDbLine
 10
4.570011092996321
 20
75.0
 30
0.0
 11
50.43
 21
75.0
 31
0.0
  0
SOLID
  5
45F
330
38D
100
AcDbEntity
  8
2
 62
     0
100
AcDbTrace
 10
4.570011092996321
 20
75.76166666666667
 30
0.0
 11
4.570011092996321
 21
74.23833333333333
 31
0.0
 12
0.0000110929963215
 22
75.0
 32
0.0
 13
0.0000110929963215
 23
75.0
 33
0.0
  0
SOLID
  5
460
330
38D
100
AcDbEntity
  8
2
 62
     0
100
AcDbTrace
 10
50.43
 20
75.76166666666667
 30
0.0
 11
50.43
 21
74.23833333333333
 31
0.0
 12
55.0
 22
75.0
 32
0.0
 13
55.0
 23
75.0
 33
0.0
  0
MTEXT
  5
461
330
38D
100
AcDbEntity
  8
2
 62
     0
100
AcDbMText
 10
27.50000554649816
 20
79.58499999999999
 30
0.0
 40
4.57
 41
0.0
 71
     5
 72
     1
  1
\A1;55
  7
SIMPLEX
1001
ACAD
1000
MTEXTBEGIN
1070
    73
1070
     1
1070
    44
1040
1.0
1070
    74
1070
     0
1000
MTEXTEND
  0
POINT
  5
462
330
38D
100
AcDbEntity
  8
DEFPOINTS
 62
     0
100
AcDbPoint
 10
0.0000110929963191
 20
34.92501612098317
 30
0.0
  0
POINT
  5
463
330
38D
100
AcDbEntity
  8
DEFPOINTS
 62
     0
100
AcDbPoint
 10
55.0
 20
43.5
 30
0.0
  0
POINT
  5
464
330
38D
100
AcDbEntity
  8
DEFPOINTS
 62
     0
100
AcDbPoint
 10
55.0
 20
75.0
 30
0.0
  0
ENDBLK
  5
398
330
38D
100
AcDbEntity
  8
0
100
AcDbBlockEnd
  0
ENDSEC
  0
SECTION
  2
ENTITIES
  0
POINT
  5
39A
330
18
100
AcDbEntity
  8
1__1
 62
     7
100
AcDbPoint
 10
-0.0000000000000142
 20
0.0
 30
0.0
  0
LINE
  5
39B
330
18
100
AcDbEntity
  8
1
100
AcDbLine
 10
62.0
 20
-6.757999999999995
 30
0.0
 11
62.0
 21
0.0
 31
0.0
  0
LINE
  5
39C
330
18
100
AcDbEntity
  8
1
100
AcDbLine
 10
62.0
 20
8.000000000000007
 30
0.0
 11
63.0
 21
7.000000000000007
 31
0.0
  0
LINE
  5
39D
330
18
100
AcDbEntity
  8
1
100
AcDbLine
 10
62.0
 20
6.757000000000005
 30
0.0
 11
62.0
 21
0.0
 31
0.0
  0
LINE
  5
39E
330
18
100
AcDbEntity
  8
1
100
AcDbLine
 10
55.0
 20
8.000000000000007
 30
0.0
 11
61.722
 21
-7.364
 31
0.0
  0
LINE
  5
39F
330
18
100
AcDbEntity
  8
1
100
AcDbLine
 10
55.0
 20
-8.0
 30
0.0
 11
61.722
 21
7.364000000000004
 31
0.0
  0
ARC
  5
3A0
330
18
100
AcDbEntity
  8
1
100
AcDbCircle
 10
62.96099999999999
 20
-4.979999999999996
 30
0.0
 40
2.02
100
AcDbArc
 50
241.5954589999999
 51
271.106018
  0
ARC
  5
3A1
330
18
100
AcDbEntity
  8
1
100
AcDbCircle
 10
60.10199999999999
 20
-6.252999999999996
 30
0.0
 40
1.964
100
AcDbArc
 50
297.204193
 51
345.128662
  0
ARC
  5
3A2
330
18
100
AcDbEntity
  8
1
100
AcDbCircle
 10
62.96099999999999
 20
4.980000000000003
 30
0.0
 40
2.02
100
AcDbArc
 50
88.893997
 51
118.404533
  0
ARC
  5
3A3
330
18
100
AcDbEntity
  8
1
100
AcDbCircle
 10
60.10199999999999
 20
6.253
 30
0.0
 40
1.964
100
AcDbArc
 50
14.871332
 51
62.795799
  0
ARC
  5
3A4
330
18
100
AcDbEntity
  8
1
100
AcDbCircle
 10
53.99999999999998
 20
43.5
 30
0.0
 40
1.0
100
AcDbArc
 50
0.0
 51
90.0
  0
ARC
  5
3A5
330
18
100
AcDbEntity
  8
SK1
100
AcDbCircle
 10
55.39999999999999
 20
20.3
 30
0.0
 40
0.6
100
AcDbArc
 50
228.159058
 51
269.976685
  0
LINE
  5
3A6
330
18
100
AcDbEntity
  8
SK1
100
AcDbLine
 10
55.39999999999999
 20
19.7
 30
0.0
 11
56.30099999999998
 21
19.7
 31
0.0
  0
ARC
  5
3A7
330
18
100
AcDbEntity
  8
SK1
100
AcDbCircle
 10
56.30099999999998
 20
20.3
 30
0.0
 40
0.6
100
AcDbArc
 50
270.0
 51
284.962006
  0
ARC
  5
3A8
330
18
100
AcDbEntity
  8
SK1
100
AcDbCircle
 10
81.0
 20
19.0
 30
0.0
 40
1.0
100
AcDbArc
 50
0.0
 51
90.0
  0
LINE
  5
3A9
330
18
100
AcDbEntity
  8
SK1
100
AcDbLine
 10
82.0
 20
19.0
 30
0.0
 11
82.0
 21
-19.0
 31
0.0
  0
ARC
  5
3AA
330
18
100
AcDbEntity
  8
SK1
100
AcDbCircle
 10
81.0
 20
-19.0
 30
0.0
 40
1.0
100
AcDbArc
 50
270.0
 51
0.000003
  0
ARC
  5
3AB
330
18
100
AcDbEntity
  8
SK1
100
AcDbCircle
 10
56.30199999999999
 20
-20.3
 30
0.0
 40
0.6
100
AcDbArc
 50
75.164597
 51
90.13114200000002
  0
LINE
  5
3AC
330
18
100
AcDbEntity
  8
SK1
100
AcDbLine
 10
56.30099999999998
 20
-19.69999999999999
 30
0.0
 11
55.39999999999999
 21
-19.69999999999999
 31
0.0
  0
ARC
  5
3AD
330
18
100
AcDbEntity
  8
SK1
100
AcDbCircle
 10
55.39999999999999
 20
-20.3
 30
0.0
 40
0.6
100
AcDbArc
 50
90.0
 51
131.809723
  0
LINE
  5
3AE
330
18
100
AcDbEntity
  8
1
100
AcDbLine
 10
55.0
 20
43.5
 30
0.0
 11
55.0
 21
-43.5
 31
0.0
  0
ARC
  5
3AF
330
18
100
AcDbEntity
  8
1
100
AcDbCircle
 10
53.99999999999998
 20
-43.5
 30
0.0
 40
1.0
100
AcDbArc
 50
270.0
 51
0.000003
  0
LINE
  5
3B0
330
18
100
AcDbEntity
  8
1
100
AcDbLine
 10
38.99999999999996
 20
44.5
 30
0.0
 11
53.99999999999998
 21
44.5
 31
0.0
  0
LINE
  5
3B1
330
18
100
AcDbEntity
  8
SK4
100
AcDbLine
 10
60.0
 20
-33.35
 30
0.0
 11
35.09999999999998
 21
-33.35
 31
0.0
  0
LINE
  5
3B2
330
18
100
AcDbEntity
  8
SK4
100
AcDbLine
 10
60.0
 20
33.35
 30
0.0
 11
35.09999999999998
 21
33.35
 31
0.0
  0
LINE
  5
3B3
330
18
100
AcDbEntity
  8
4
100
AcDbLine
 10
-101.8
 20
0.0
 30
0.0
 11
63.0
 21
0.0
 31
0.0
  0
ARC
  5
3B4
330
18
100
AcDbEntity
  8
1
100
AcDbCircle
 10
38.99999999999996
 20
45.49999999999999
 30
0.0
 40
1.0
100
AcDbArc
 50
180.000015
 51
270.0
  0
LINE
  5
3B5
330
18
100
AcDbEntity
  8
SK1
100
AcDbLine
 10
56.38099999999998
 20
-8.0
 30
0.0
 11
56.38099999999998
 21
-19.516
 31
0.0
  0
LINE
  5
3B6
330
18
100
AcDbEntity
  8
SK1
100
AcDbLine
 10
56.38099999999998
 20
19.50799999999999
 30
0.0
 11
56.38099999999998
 21
8.000000000000007
 31
0.0
  0
LINE
  5
3B7
330
18
100
AcDbEntity
  8
SK1
100
AcDbLine
 10
57.5
 20
-8.0
 30
0.0
 11
57.5
 21
-20.0
 31
0.0
  0
LINE
  5
3B8
330
18
100
AcDbEntity
  8
SK1
100
AcDbLine
 10
57.5
 20
20.0
 30
0.0
 11
57.5
 21
8.000000000000007
 31
0.0
  0
LINE
  5
3B9
330
18
100
AcDbEntity
  8
SK1
100
AcDbLine
 10
81.0
 20
-20.0
 30
0.0
 11
80.39999999999999
 21
-20.0
 31
0.0
  0
LINE
  5
3BA
330
18
100
AcDbEntity
  8
SK1
100
AcDbLine
 10
80.39999999999999
 20
-20.0
 30
0.0
 11
77.2
 21
-20.0
 31
0.0
  0
LINE
  5
3BB
330
18
100
AcDbEntity
  8
SK1
100
AcDbLine
 10
77.2
 20
-20.0
 30
0.0
 11
57.5
 21
-20.0
 31
0.0
  0
LINE
  5
3BC
330
18
100
AcDbEntity
  8
SK1
100
AcDbLine
 10
57.5
 20
-20.0
 30
0.0
 11
56.45599999999999
 21
-19.71999999999999
 31
0.0
  0
LINE
  5
3BD
330
18
100
AcDbEntity
  8
SK1
100
AcDbLine
 10
56.45599999999999
 20
19.72
 30
0.0
 11
57.5
 21
20.0
 31
0.0
  0
LINE
  5
3BE
330
18
100
AcDbEntity
  8
SK1
100
AcDbLine
 10
57.5
 20
20.0
 30
0.0
 11
77.2
 21
20.0
 31
0.0
  0
LINE
  5
3BF
330
18
100
AcDbEntity
  8
SK1
100
AcDbLine
 10
77.2
 20
20.0
 30
0.0
 11
80.39999999999999
 21
20.0
 31
0.0
  0
LINE
  5
3C0
330
18
100
AcDbEntity
  8
SK1
100
AcDbLine
 10
80.39999999999999
 20
20.0
 30
0.0
 11
81.0
 21
20.0
 31
0.0
  0
LINE
  5
3C1
330
18
100
AcDbEntity
  8
1
100
AcDbLine
 10
63.0
 20
7.000000000000007
 30
0.0
 11
63.0
 21
0.0
 31
0.0
  0
LINE
  5
3C2
330
18
100
AcDbEntity
  8
1
100
AcDbLine
 10
55.0
 20
8.000000000000007
 30
0.0
 11
62.0
 21
8.000000000000007
 31
0.0
  0
LINE
  5
3C3
330
18
100
AcDbEntity
  8
1
100
AcDbLine
 10
63.0
 20
-7.0
 30
0.0
 11
63.0
 21
0.0
 31
0.0
  0
LINE
  5
3C4
330
18
100
AcDbEntity
  8
1
100
AcDbLine
 10
55.0
 20
-8.0
 30
0.0
 11
62.0
 21
-8.0
 31
0.0
  0
LINE
  5
3C5
330
18
100
AcDbEntity
  8
1
100
AcDbLine
 10
62.0
 20
-8.0
 30
0.0
 11
63.0
 21
-7.0
 31
0.0
  0
LINE
  5
3C6
330
18
100
AcDbEntity
  8
SK2
100
AcDbLine
 10
55.0
 20
33.35
 30
0.0
 11
79.50599999999998
 21
52.73699999999999
 31
0.0
  0
LINE
  5
3C7
330
18
100
AcDbEntity
  8
SK2
100
AcDbLine
 10
82.0
 20
0.0
 30
0.0
 11
99.20999999999999
 21
-30.31985254610413
 31
0.0
  0
TEXT
  5
3C8
330
18
100
AcDbEntity
  8
SK2
100
AcDbText
 10
98.33399999999999
 20
-35.62591943308007
 30
0.0
 40
3.499151999999999
  1
M20
 41
0.8890459999999999
100
AcDbText
  0
TEXT
  5
3C9
330
18
100
AcDbEntity
  8
SK2
100
AcDbText
 10
79.815
 20
52.61600000000001
 30
0.0
 40
3.499151999999999
  1
M12(4x)
 41
0.8890459999999999
100
AcDbText
  0
LINE
  5
3CA
330
18
100
AcDbEntity
  8
SK4
100
AcDbLine
 10
-104.2980246826459
 20
0.0
 30
0.0
 11
85.17899999999999
 21
0.0
 31
0.0
  0
LINE
  5
3CB
330
18
100
AcDbEntity
  8
SK2
100
AcDbLine
 10
81.0
 20
20.0
 30
0.0
 11
105.0
 21
20.0
 31
0.0
  0
LINE
  5
3CC
330
18
100
AcDbEntity
  8
SK2
100
AcDbLine
 10
81.0
 20
-20.0
 30
0.0
 11
105.0
 21
-20.0
 31
0.0
  0
LINE
  5
3CD
330
18
100
AcDbEntity
  8
SK2
100
AcDbLine
 10
100.0
 20
15.43
 30
0.0
 11
100.0
 21
-15.43
 31
0.0
  0
SOLID
  5
3CE
330
18
100
AcDbEntity
  8
SK2
100
AcDbTrace
 10
99.23833333333334
 20
15.43
 30
0.0
 11
100.7616666666666
 21
15.43
 31
0.0
 12
100.0
 22
20.0
 32
0.0
 13
100.0
 23
20.0
 33
0.0
  0
SOLID
  5
3CF
330
18
100
AcDbEntity
  8
SK2
100
AcDbTrace
 10
99.23833333333334
 20
-15.43
 30
0.0
 11
100.7616666666666
 21
-15.43
 31
0.0
 12
100.0
 22
-20.0
 32
0.0
 13
100.0
 23
-20.0
 33
0.0
  0
TEXT
  5
3D7
330
18
100
AcDbEntity
  8
6
100
AcDbText
 10
-70.0
 20
17.0
 30
0.0
 40
3.5
  1
SK50 MAS-BT
  7
SIMPLEX
100
AcDbText
  0
ARC
  5
3D8
330
18
100
AcDbEntity
  8
1
  6
CONTINUOUS
 62
     4
100
AcDbCircle
 10
-100.7999948599014
 20
19.21433594419816
 30
0.0
 40
1.000005140116246
100
AcDbArc
 50
98.29873759425451
 51
180.0003405992197
  0
LINE
  5
3D9
330
18
100
AcDbEntity
  8
1
  6
CONTINUOUS
 62
     4
100
AcDbLine
 10
0.6036700000000011
 20
34.65
 30
0.0
 11
2.200000000000002
 21
34.65
 31
0.0
  0
LINE
  5
3DA
330
18
100
AcDbEntity
  8
1
  6
CONTINUOUS
 62
     4
100
AcDbLine
 10
3.599999999999994
 20
-49.98653
 30
0.0
 11
15.70019999999999
 21
-49.98653
 31
0.0
  0
LINE
  5
3DB
330
18
100
AcDbEntity
  8
1
  6
CONTINUOUS
 62
     4
100
AcDbLine
 10
30.69979999999999
 20
-49.98653
 30
0.0
 11
37.4
 21
-49.98653
 31
0.0
  0
LINE
  5
3DC
330
18
100
AcDbEntity
  8
1
  6
CONTINUOUS
 62
     4
100
AcDbLine
 10
30.69979999999999
 20
-9.115200000000001
 30
0.0
 11
30.69979999999999
 21
-49.98653
 31
0.0
  0
LINE
  5
3DD
330
18
100
AcDbEntity
  8
1
  6
CONTINUOUS
 62
     4
100
AcDbLine
 10
15.70019999999999
 20
-12.85
 30
0.0
 11
15.70019999999999
 21
-49.98653
 31
0.0
  0
LINE
  5
3DE
330
18
100
AcDbEntity
  8
1
  6
CONTINUOUS
 62
     4
100
AcDbLine
 10
19.7
 20
-12.85
 30
0.0
 11
19.7
 21
-43.05867
 31
0.0
  0
LINE
  5
3DF
330
18
100
AcDbEntity
  8
1
  6
CONTINUOUS
 62
     4
100
AcDbLine
 10
0.0
 20
34.92499999999999
 30
0.0
 11
0.0
 21
0.0
 31
0.0
  0
LINE
  5
3E0
330
18
100
AcDbEntity
  8
1
  6
CONTINUOUS
 62
     4
100
AcDbLine
 10
15.70019999999999
 20
-49.98653
 30
0.0
 11
19.7
 21
-43.05867
 31
0.0
  0
LINE
  5
3E1
330
18
100
AcDbEntity
  8
1
  6
CONTINUOUS
 62
     4
100
AcDbLine
 10
19.7
 20
-42.5
 30
0.0
 11
26.7
 21
-42.5
 31
0.0
  0
LINE
  5
3E2
330
18
100
AcDbEntity
  8
1
  6
CONTINUOUS
 62
     4
100
AcDbLine
 10
26.7
 20
11.89126999999999
 30
0.0
 11
26.7
 21
43.05867
 31
0.0
  0
LINE
  5
3E3
330
18
100
AcDbEntity
  8
1
  6
CONTINUOUS
 62
     4
100
AcDbLine
 10
19.7
 20
12.85
 30
0.0
 11
19.7
 21
43.05867
 31
0.0
  0
ARC
  5
3E4
330
18
100
AcDbEntity
  8
1
  6
CONTINUOUS
 62
     4
100
AcDbCircle
 10
-100.7999948599014
 20
-19.21433594419816
 30
0.0
 40
1.000005140116246
100
AcDbArc
 50
179.9996594242833
 51
261.7012624292486
  0
LINE
  5
3E5
330
18
100
AcDbEntity
  8
1
  6
CONTINUOUS
 62
     4
100
AcDbLine
 10
0.0
 20
-34.92499999999999
 30
0.0
 11
-100.94433
 21
-20.20387
 31
0.0
  0
LINE
  5
3E6
330
18
100
AcDbEntity
  8
1
  6
CONTINUOUS
 62
     4
100
AcDbLine
 10
0.6036700000000011
 20
-34.64999999999999
 30
0.0
 11
2.200000000000002
 21
-34.64999999999999
 31
0.0
  0
LINE
  5
3E7
330
18
100
AcDbEntity
  8
1
  6
CONTINUOUS
 62
     4
100
AcDbLine
 10
0.0
 20
-34.92499999999999
 30
0.0
 11
0.0
 21
0.0
 31
0.0
  0
LINE
  5
3E8
330
18
100
AcDbEntity
  8
1
  6
CONTINUOUS
 62
     4
100
AcDbLine
 10
-101.8
 20
0.0
 30
0.0
 11
-101.8
 21
-19.21433
 31
0.0
  0
LINE
  5
3E9
330
18
100
AcDbEntity
  8
SK3
100
AcDbLine
 10
-100.0822
 20
-12.50826999999999
 30
0.0
 11
-101.8
 21
-13.5
 31
0.0
  0
LINE
  5
3EA
330
18
100
AcDbEntity
  8
1
  6
CONTINUOUS
 62
     4
100
AcDbLine
 10
0.0
 20
34.92499999999999
 30
0.0
 11
-100.94433
 21
20.20386999999999
 31
0.0
  0
ARC
  5
3EB
330
18
100
AcDbEntity
  8
1
  6
CONTINUOUS
 62
     4
100
AcDbCircle
 10
22.0
 20
0.8499999999999998
 30
0.0
 40
12.0
100
AcDbArc
 50
0.0000000235031287
 51
90.0000000235031
  0
LINE
  5
3EC
330
18
100
AcDbEntity
  8
SK3
100
AcDbLine
 10
-101.8
 20
10.0
 30
0.0
 11
-101.8
 21
10.0
 31
0.0
  0
LINE
  5
3ED
330
18
100
AcDbEntity
  8
1
  6
CONTINUOUS
 62
     4
100
AcDbLine
 10
34.0
 20
0.0
 30
0.0
 11
34.0
 21
0.8500000000000014
 31
0.0
  0
LINE
  5
3EE
330
18
100
AcDbEntity
  8
1
  6
CONTINUOUS
 62
     4
100
AcDbLine
 10
-101.8
 20
0.0
 30
0.0
 11
-101.8
 21
19.21433
 31
0.0
  0
LINE
  5
3EF
330
18
100
AcDbEntity
  8
1
  6
CONTINUOUS
 62
     4
100
AcDbLine
 10
38.0
 20
0.0
 30
0.0
 11
38.0
 21
49.38652999999999
 31
0.0
  0
LINE
  5
3F0
330
18
100
AcDbEntity
  8
1
  6
CONTINUOUS
 62
     4
100
AcDbLine
 10
30.69979999999999
 20
49.98653
 30
0.0
 11
26.7
 21
43.05867
 31
0.0
  0
LINE
  5
3F1
330
18
100
AcDbEntity
  8
1
  6
CONTINUOUS
 62
     4
100
AcDbLine
 10
15.70019999999999
 20
49.98653
 30
0.0
 11
19.7
 21
43.05867
 31
0.0
  0
LINE
  5
3F2
330
18
100
AcDbEntity
  8
SK3
100
AcDbLine
 10
-88.55
 20
0.0
 30
0.0
 11
-88.55
 21
12.50826999999999
 31
0.0
  0
LINE
  5
3F3
330
18
100
AcDbEntity
  8
SK3
100
AcDbLine
 10
-100.08227
 20
12.50826999999999
 30
0.0
 11
-101.8
 21
13.5
 31
0.0
  0
LINE
  5
3F4
330
18
100
AcDbEntity
  8
SK3
100
AcDbLine
 10
-100.0822
 20
-12.50826999999999
 30
0.0
 11
-88.55
 21
-12.50826999999999
 31
0.0
  0
LINE
  5
3F5
330
18
100
AcDbEntity
  8
SK3
100
AcDbLine
 10
-100.08227
 20
12.50826999999999
 30
0.0
 11
-88.55
 21
12.50826999999999
 31
0.0
  0
LINE
  5
3F6
330
18
100
AcDbEntity
  8
SK3
100
AcDbLine
 10
-87.39053
 20
-10.5
 30
0.0
 11
-39.8
 21
-10.5
 31
0.0
  0
LINE
  5
3F7
330
18
100
AcDbEntity
  8
SK3
100
AcDbLine
 10
-87.39053
 20
10.5
 30
0.0
 11
-39.8
 21
10.5
 31
0.0
  0
LINE
  5
3F8
330
18
100
AcDbEntity
  8
1
  6
CONTINUOUS
 62
     4
100
AcDbLine
 10
3.599999999999994
 20
49.98653
 30
0.0
 11
15.70019999999999
 21
49.98653
 31
0.0
  0
LINE
  5
3F9
330
18
100
AcDbEntity
  8
1
  6
CONTINUOUS
 62
     4
100
AcDbLine
 10
26.7
 20
42.5
 30
0.0
 11
19.7
 21
42.5
 31
0.0
  0
LINE
  5
3FA
330
18
100
AcDbEntity
  8
1
  6
CONTINUOUS
 62
     4
100
AcDbLine
 10
3.0
 20
12.85
 30
0.0
 11
22.0
 21
12.85
 31
0.0
  0
LINE
  5
3FB
330
18
100
AcDbEntity
  8
1
  6
CONTINUOUS
 62
     4
100
AcDbLine
 10
30.69979999999999
 20
9.115200000000001
 30
0.0
 11
30.69979999999999
 21
49.98653
 31
0.0
  0
LINE
  5
3FC
330
18
100
AcDbEntity
  8
1
  6
CONTINUOUS
 62
     4
100
AcDbLine
 10
15.70019999999999
 20
12.85
 30
0.0
 11
15.70019999999999
 21
49.98653
 31
0.0
  0
LINE
  5
3FD
330
18
100
AcDbEntity
  8
SK3
100
AcDbLine
 10
-33.73779999999999
 20
0.0
 30
0.0
 11
-39.8
 21
10.5
 31
0.0
  0
LINE
  5
3FE
330
18
100
AcDbEntity
  8
SK3
100
AcDbLine
 10
-87.39053
 20
10.5
 30
0.0
 11
-87.39053
 21
-10.5
 31
0.0
  0
LINE
  5
3FF
330
18
100
AcDbEntity
  8
SK3
100
AcDbLine
 10
-39.8
 20
0.0
 30
0.0
 11
-39.8
 21
10.5
 31
0.0
  0
LINE
  5
400
330
18
100
AcDbEntity
  8
SK3
100
AcDbLine
 10
-56.79999999999999
 20
0.0
 30
0.0
 11
-56.79999999999999
 21
12.0
 31
0.0
  0
LINE
  5
401
330
18
100
AcDbEntity
  8
1
  6
CONTINUOUS
 62
     4
100
AcDbLine
 10
30.69979999999999
 20
49.98653
 30
0.0
 11
37.4
 21
49.98653
 31
0.0
  0
LINE
  5
402
330
18
100
AcDbEntity
  8
1
  6
CONTINUOUS
 62
     4
100
AcDbLine
 10
26.7
 20
-43.05867
 30
0.0
 11
30.69979999999999
 21
-49.98653
 31
0.0
  0
ARC
  5
403
330
18
100
AcDbEntity
  8
1
  6
CONTINUOUS
 62
     4
100
AcDbCircle
 10
37.4
 20
49.38653
 30
0.0
 40
0.6000000000000007
100
AcDbArc
 50
0.0
 51
89.99999999999992
  0
LINE
  5
404
330
18
100
AcDbEntity
  8
1
  6
CONTINUOUS
 62
     4
100
AcDbLine
 10
38.0
 20
0.0
 30
0.0
 11
38.0
 21
-49.38653
 31
0.0
  0
LINE
  5
405
330
18
100
AcDbEntity
  8
1
  6
CONTINUOUS
 62
     4
100
AcDbLine
 10
34.0
 20
0.0
 30
0.0
 11
34.0
 21
-0.8500000000000014
 31
0.0
  0
LINE
  5
406
330
18
100
AcDbEntity
  8
1
  6
CONTINUOUS
 62
     4
100
AcDbLine
 10
26.7
 20
-11.89126999999999
 30
0.0
 11
26.7
 21
-43.05867
 31
0.0
  0
ARC
  5
407
330
18
100
AcDbEntity
  8
1
  6
CONTINUOUS
 62
     4
100
AcDbCircle
 10
3.599999999999994
 20
-49.38653
 30
0.0
 40
0.6000000000000015
100
AcDbArc
 50
180.0
 51
270.0
  0
ARC
  5
408
330
18
100
AcDbEntity
  8
1
  6
CONTINUOUS
 62
     4
100
AcDbCircle
 10
37.4
 20
-49.38653
 30
0.0
 40
0.6000000000000015
100
AcDbArc
 50
270.0000000000001
 51
0.0
  0
LINE
  5
409
330
18
100
AcDbEntity
  8
SK3
100
AcDbLine
 10
-100.08227
 20
12.50826999999999
 30
0.0
 11
-100.0822
 21
-12.50826999999999
 31
0.0
  0
ARC
  5
40A
330
18
100
AcDbEntity
  8
1
  6
CONTINUOUS
 62
     4
100
AcDbCircle
 10
0.6036392431483791
 20
35.45000177144554
 30
0.0
 40
0.7999855478990882
100
AcDbArc
 50
221.014037850304
 51
270.0024836043007
  0
ARC
  5
40B
330
18
100
AcDbEntity
  8
1
  6
CONTINUOUS
 62
     4
100
AcDbCircle
 10
2.200000000000002
 20
35.45
 30
0.0
 40
0.7999999999999972
100
AcDbArc
 50
270.0000000235031
 51
0.0000000235031287
  0
LINE
  5
40C
330
18
100
AcDbEntity
  8
SK3
100
AcDbLine
 10
-39.8
 20
0.0
 30
0.0
 11
-39.8
 21
-10.5
 31
0.0
  0
LINE
  5
40D
330
18
100
AcDbEntity
  8
SK3
100
AcDbLine
 10
-56.79999999999999
 20
0.0
 30
0.0
 11
-56.79999999999999
 21
-12.0
 31
0.0
  0
LINE
  5
40E
330
18
100
AcDbEntity
  8
SK3
100
AcDbLine
 10
-88.55
 20
-12.50826999999999
 30
0.0
 11
-87.39053
 21
-10.5
 31
0.0
  0
ARC
  5
40F
330
18
100
AcDbEntity
  8
1
  6
CONTINUOUS
 62
     4
100
AcDbCircle
 10
0.6036392431483791
 20
-35.45000177144554
 30
0.0
 40
0.7999855478990882
100
AcDbArc
 50
89.99751641920235
 51
138.985962173199
  0
LINE
  5
410
330
18
100
AcDbEntity
  8
SK3
100
AcDbLine
 10
-87.39053
 20
10.5
 30
0.0
 11
-88.55
 21
12.50826999999999
 31
0.0
  0
ARC
  5
411
330
18
100
AcDbEntity
  8
1
  6
CONTINUOUS
 62
     4
100
AcDbCircle
 10
22.0
 20
-0.8500000000000005
 30
0.0
 40
12.0
100
AcDbArc
 50
270.0
 51
0.0000000000000027
  0
LINE
  5
412
330
18
100
AcDbEntity
  8
1
  6
CONTINUOUS
 62
     4
100
AcDbLine
 10
3.0
 20
-12.85
 30
0.0
 11
22.0
 21
-12.85
 31
0.0
  0
LINE
  5
413
330
18
100
AcDbEntity
  8
SK3
100
AcDbLine
 10
-33.73779999999999
 20
0.0
 30
0.0
 11
-39.8
 21
-10.5
 31
0.0
  0
LINE
  5
414
330
18
100
AcDbEntity
  8
SK3
100
AcDbLine
 10
-101.8
 20
-10.0
 30
0.0
 11
-101.8
 21
-10.0
 31
0.0
  0
ARC
  5
415
330
18
100
AcDbEntity
  8
1
  6
CONTINUOUS
 62
     4
100
AcDbCircle
 10
2.200000000000002
 20
-35.45
 30
0.0
 40
0.7999999999999972
100
AcDbArc
 50
0.0
 51
90.0
  0
LINE
  5
416
330
18
100
AcDbEntity
  8
SK3
100
AcDbLine
 10
-88.55
 20
0.0
 30
0.0
 11
-88.55
 21
-12.50826999999999
 31
0.0
  0
ARC
  5
417
330
18
100
AcDbEntity
  8
1
  6
CONTINUOUS
 62
     4
100
AcDbCircle
 10
3.599999999999994
 20
49.38653
 30
0.0
 40
0.6000000000000015
100
AcDbArc
 50
90.0000000235031
 51
180.0000000235031
  0
LINE
  5
418
330
18
100
AcDbEntity
  8
SK3
100
AcDbLine
 10
-88.26133
 20
12.0
 30
0.0
 11
-56.79999999999999
 21
12.0
 31
0.0
  0
LINE
  5
419
330
18
100
AcDbEntity
  8
SK3
100
AcDbLine
 10
-88.26133
 20
-12.0
 30
0.0
 11
-56.79999999999999
 21
-12.0
 31
0.0
  0
LINE
  5
41A
330
18
100
AcDbEntity
  8
1
  6
CONTINUOUS
 62
     4
100
AcDbLine
 10
3.0
 20
-49.38653
 30
0.0
 11
3.0
 21
0.1919299999999993
 31
0.0
  0
LINE
  5
41B
330
18
100
AcDbEntity
  8
1
  6
CONTINUOUS
 62
     4
100
AcDbLine
 10
3.0
 20
0.1919299999999993
 30
0.0
 11
3.0
 21
0.1921999999999997
 31
0.0
  0
LINE
  5
41C
330
18
100
AcDbEntity
  8
1
  6
CONTINUOUS
 62
     4
100
AcDbLine
 10
3.0
 20
0.1921999999999997
 30
0.0
 11
3.0
 21
49.38652999999999
 31
0.0
  0
ARC
  5
41D
330
18
100
AcDbEntity
  8
1
100
AcDbCircle
 10
38.99999999999996
 20
-45.49999999999999
 30
0.0
 40
1.0
100
AcDbArc
 50
90.00000000000003
 51
179.9999849999999
  0
LINE
  5
41E
330
18
100
AcDbEntity
  8
1
100
AcDbLine
 10
38.99999999999996
 20
-44.5
 30
0.0
 11
53.99999999999998
 21
-44.5
 31
0.0
  0
LINE
  5
41F
330
18
100
AcDbEntity
  8
SK2
100
AcDbLine
 10
53.99999999999998
 20
44.5
 30
0.0
 11
120.0
 21
44.49999999999998
 31
0.0
  0
LINE
  5
420
330
18
100
AcDbEntity
  8
SK2
100
AcDbLine
 10
53.99999999999998
 20
-44.5
 30
0.0
 11
119.9999999999999
 21
-44.50000000000001
 31
0.0
  0
LINE
  5
421
330
18
100
AcDbEntity
  8
SK2
100
AcDbLine
 10
115.0
 20
39.92999999999998
 30
0.0
 11
114.9999999999999
 21
-39.93000000000002
 31
0.0
  0
SOLID
  5
422
330
18
100
AcDbEntity
  8
SK2
100
AcDbTrace
 10
114.2383333333333
 20
39.92999999999998
 30
0.0
 11
115.7616666666666
 21
39.92999999999998
 31
0.0
 12
115.0
 22
44.49999999999998
 32
0.0
 13
115.0
 23
44.49999999999998
 33
0.0
  0
SOLID
  5
423
330
18
100
AcDbEntity
  8
SK2
100
AcDbTrace
 10
114.2383333333333
 20
-39.93000000000002
 30
0.0
 11
115.7616666666666
 21
-39.93000000000002
 31
0.0
 12
114.9999999999999
 22
-44.50000000000001
 32
0.0
 13
114.9999999999999
 23
-44.50000000000001
 33
0.0
  0
LINE
  5
465
330
18
100
AcDbEntity
  8
SK2
100
AcDbLine
 10
3.599999999999994
 20
-49.98653
 30
0.0
 11
-137.0
 21
-49.98652999999997
 31
0.0
  0
LINE
  5
466
330
18
100
AcDbEntity
  8
SK2
100
AcDbLine
 10
3.599999999999994
 20
49.98653
 30
0.0
 11
-137.0
 21
49.98653000000004
 31
0.0
  0
LINE
  5
467
330
18
100
AcDbEntity
  8
SK2
100
AcDbLine
 10
-132.0
 20
-45.41652999999996
 30
0.0
 11
-132.0
 21
45.41653000000003
 31
0.0
  0
SOLID
  5
468
330
18
100
AcDbEntity
  8
SK2
100
AcDbTrace
 10
-132.7616666666666
 20
-45.41652999999996
 30
0.0
 11
-131.2383333333333
 21
-45.41652999999996
 31
0.0
 12
-132.0
 22
-49.98652999999997
 32
0.0
 13
-132.0
 23
-49.98652999999997
 33
0.0
  0
SOLID
  5
469
330
18
100
AcDbEntity
  8
SK2
100
AcDbTrace
 10
-132.7616666666666
 20
45.41653000000003
 30
0.0
 11
-131.2383333333333
 21
45.41653000000003
 31
0.0
 12
-132.0
 22
49.98653000000004
 32
0.0
 13
-132.0
 23
49.98653000000004
 33
0.0
  0
LINE
  5
46C
330
18
100
AcDbEntity
  8
2
100
AcDbLine
 10
0.0000110929963191
 20
34.92501612098317
 30
0.0
 11
0.0000110929963218
 21
80.0
 31
0.0
  0
LINE
  5
46D
330
18
100
AcDbEntity
  8
2
100
AcDbLine
 10
55.0
 20
43.5
 30
0.0
 11
55.0
 21
80.0
 31
0.0
  0
LINE
  5
46E
330
18
100
AcDbEntity
  8
2
100
AcDbLine
 10
4.570011092996321
 20
75.0
 30
0.0
 11
50.43
 21
75.0
 31
0.0
  0
SOLID
  5
46F
330
18
100
AcDbEntity
  8
2
100
AcDbTrace
 10
4.570011092996321
 20
75.76166666666667
 30
0.0
 11
4.570011092996321
 21
74.23833333333333
 31
0.0
 12
0.0000110929963215
 22
75.0
 32
0.0
 13
0.0000110929963215
 23
75.0
 33
0.0
  0
SOLID
  5
470
330
18
100
AcDbEntity
  8
2
100
AcDbTrace
 10
50.43
 20
75.76166666666667
 30
0.0
 11
50.43
 21
74.23833333333333
 31
0.0
 12
55.0
 22
75.0
 32
0.0
 13
55.0
 23
75.0
 33
0.0
  0
LINE
  5
472
330
18
100
AcDbEntity
  8
SK2
100
AcDbLine
 10
-88.26133
 20
12.0
 30
0.0
 11
-122.0
 21
12.00000000000001
 31
0.0
  0
LINE
  5
473
330
18
100
AcDbEntity
  8
SK2
100
AcDbLine
 10
-88.26133
 20
-12.0
 30
0.0
 11
-122.0
 21
-11.99999999999999
 31
0.0
  0
LINE
  5
474
330
18
100
AcDbEntity
  8
SK2
100
AcDbLine
 10
-117.0
 20
7.430000000000007
 30
0.0
 11
-117.0
 21
-7.429999999999991
 31
0.0
  0
SOLID
  5
475
330
18
100
AcDbEntity
  8
SK2
100
AcDbTrace
 10
-117.7616666666666
 20
7.430000000000007
 30
0.0
 11
-116.2383333333333
 21
7.430000000000007
 31
0.0
 12
-117.0
 22
12.00000000000001
 32
0.0
 13
-117.0
 23
12.00000000000001
 33
0.0
  0
SOLID
  5
476
330
18
100
AcDbEntity
  8
SK2
100
AcDbTrace
 10
-117.7616666666666
 20
-7.429999999999991
 30
0.0
 11
-116.2383333333333
 21
-7.429999999999991
 31
0.0
 12
-117.0
 22
-11.99999999999999
 32
0.0
 13
-117.0
 23
-11.99999999999999
 33
0.0
  0
LINE
  5
478
330
18
100
AcDbEntity
  8
SK2
100
AcDbLine
 10
0.0
 20
34.92499999999999
 30
0.0
 11
-17.99999999999998
 21
34.925
 31
0.0
  0
LINE
  5
479
330
18
100
AcDbEntity
  8
SK2
100
AcDbLine
 10
0.0
 20
-34.92499999999999
 30
0.0
 11
-18.0
 21
-34.92499999999999
 31
0.0
  0
LINE
  5
47A
330
18
100
AcDbEntity
  8
SK2
100
AcDbLine
 10
-12.99999999999998
 20
30.355
 30
0.0
 11
-13.0
 21
-30.35499999999999
 31
0.0
  0
SOLID
  5
47B
330
18
100
AcDbEntity
  8
SK2
100
AcDbTrace
 10
-13.76166666666665
 20
30.355
 30
0.0
 11
-12.23833333333331
 21
30.355
 31
0.0
 12
-12.99999999999998
 22
34.92499999999999
 32
0.0
 13
-12.99999999999998
 23
34.92499999999999
 33
0.0
  0
SOLID
  5
47C
330
18
100
AcDbEntity
  8
SK2
100
AcDbTrace
 10
-13.76166666666666
 20
-30.35499999999999
 30
0.0
 11
-12.23833333333333
 21
-30.35499999999999
 31
0.0
 12
-13.0
 22
-34.92499999999999
 32
0.0
 13
-13.0
 23
-34.92499999999999
 33
0.0
  0
LINE
  5
47E
330
18
100
AcDbEntity
  8
SK2
100
AcDbLine
 10
-101.8
 20
19.21432999958978
 30
0.0
 11
-101.8
 21
80.0
 31
0.0
  0
LINE
  5
47F
330
18
100
AcDbEntity
  8
SK2
100
AcDbLine
 10
0.0
 20
34.92499999999999
 30
0.0
 11
0.0000000000000028
 21
80.0
 31
0.0
  0
LINE
  5
480
330
18
100
AcDbEntity
  8
SK2
100
AcDbLine
 10
-97.23000000000002
 20
75.0
 30
0.0
 11
-4.569999999999997
 21
75.0
 31
0.0
  0
SOLID
  5
481
330
18
100
AcDbEntity
  8
SK2
100
AcDbTrace
 10
-97.23000000000002
 20
75.76166666666667
 30
0.0
 11
-97.23000000000002
 21
74.23833333333333
 31
0.0
 12
-101.8
 22
75.0
 32
0.0
 13
-101.8
 23
75.0
 33
0.0
  0
SOLID
  5
482
330
18
100
AcDbEntity
  8
SK2
100
AcDbTrace
 10
-4.569999999999997
 20
75.76166666666667
 30
0.0
 11
-4.569999999999997
 21
74.23833333333333
 31
0.0
 12
0.0000000000000025
 22
75.0
 32
0.0
 13
0.0000000000000025
 23
75.0
 33
0.0
  0
LINE
  5
484
330
18
100
AcDbEntity
  8
SK2
100
AcDbLine
 10
0.0
 20
34.92499999999999
 30
0.0
 11
0.0000000000000018
 21
65.0
 31
0.0
  0
LINE
  5
485
330
18
100
AcDbEntity
  8
SK2
100
AcDbLine
 10
38.0
 20
49.38652999999999
 30
0.0
 11
38.0
 21
65.0
 31
0.0
  0
LINE
  5
486
330
18
100
AcDbEntity
  8
SK2
100
AcDbLine
 10
4.570000000000002
 20
60.0
 30
0.0
 11
33.42999999999999
 21
60.0
 31
0.0
  0
SOLID
  5
487
330
18
100
AcDbEntity
  8
SK2
100
AcDbTrace
 10
4.570000000000002
 20
60.76166666666667
 30
0.0
 11
4.570000000000002
 21
59.23833333333333
 31
0.0
 12
0.0000000000000015
 22
60.0
 32
0.0
 13
0.0000000000000015
 23
60.0
 33
0.0
  0
SOLID
  5
488
330
18
100
AcDbEntity
  8
SK2
100
AcDbTrace
 10
33.42999999999999
 20
60.76166666666667
 30
0.0
 11
33.42999999999999
 21
59.23833333333333
 31
0.0
 12
38.0
 22
60.0
 32
0.0
 13
38.0
 23
60.0
 33
0.0
  0
LINE
  5
48A
330
18
100
AcDbEntity
  8
SK2
100
AcDbLine
 10
82.0
 20
-18.99999994764012
 30
0.0
 11
82.0
 21
-60.0
 31
0.0
  0
LINE
  5
48B
330
18
100
AcDbEntity
  8
SK2
100
AcDbLine
 10
55.0
 20
-43.5
 30
0.0
 11
55.0
 21
-60.0
 31
0.0
  0
LINE
  5
48C
330
18
100
AcDbEntity
  8
SK2
100
AcDbLine
 10
77.43000000000001
 20
-55.0
 30
0.0
 11
59.57
 21
-55.0
 31
0.0
  0
SOLID
  5
48D
330
18
100
AcDbEntity
  8
SK2
100
AcDbTrace
 10
77.43000000000001
 20
-54.23833333333333
 30
0.0
 11
77.43000000000001
 21
-55.76166666666667
 31
0.0
 12
82.0
 22
-55.0
 32
0.0
 13
82.0
 23
-55.0
 33
0.0
  0
SOLID
  5
48E
330
18
100
AcDbEntity
  8
SK2
100
AcDbTrace
 10
59.57
 20
-54.23833333333333
 30
0.0
 11
59.57
 21
-55.76166666666667
 31
0.0
 12
55.0
 22
-55.0
 32
0.0
 13
55.0
 23
-55.0
 33
0.0
  0
TEXT
  5
490
330
18
100
AcDbEntity
  8
SK2
100
AcDbText
 10
64.80047619047619
 20
-52.7
 30
0.0
 40
4.57
  1
27
  7
SIMPLEX
100
AcDbText
  0
TEXT
  5
491
330
18
100
AcDbEntity
  8
SK2
100
AcDbText
 10
15.30047619047619
 20
62.3
 30
0.0
 40
4.57
  1
38
  7
SIMPLEX
100
AcDbText
  0
TEXT
  5
492
330
18
100
AcDbEntity
  8
SK2
100
AcDbText
 10
-59.16952380952381
 20
77.3
 30
0.0
 40
4.57
  1
101.8
  7
SIMPLEX
100
AcDbText
  0
TEXT
  5
493
330
18
100
AcDbEntity
  8
SK2
100
AcDbText
 10
-15.29999999999999
 20
-11.20738095238095
 30
0.0
 40
4.57
  1
%%c
 50
90.0
  7
SIMPLEX
100
AcDbText
  0
TEXT
  5
494
330
18
100
AcDbEntity
  8
SK2
100
AcDbText
 10
-15.29999999999999
 20
-7.072619047619046
 30
0.0
 40
4.57
  1
69.85
 50
90.0
  7
SIMPLEX
100
AcDbText
  0
TEXT
  5
495
330
18
100
AcDbEntity
  8
SK2
100
AcDbText
 10
-119.3
 20
-6.419761904761915
 30
0.0
 40
4.57
  1
M24
 50
90.0
  7
SIMPLEX
100
AcDbText
  0
TEXT
  5
496
330
18
100
AcDbEntity
  8
2
100
AcDbText
 10
23.80048173697435
 20
77.3
 30
0.0
 40
4.57
  1
55
  7
SIMPLEX
100
AcDbText
  0
TEXT
  5
497
330
18
100
AcDbEntity
  8
SK2
100
AcDbText
 10
-134.3
 20
-7.507857142857125
 30
0.0
 40
4.57
  1
%%c
 50
90.0
  7
SIMPLEX
100
AcDbText
  0
TEXT
  5
498
330
18
100
AcDbEntity
  8
SK2
100
AcDbText
 10
-134.3
 20
-3.373095238095221
 30
0.0
 40
4.57
  1
100
 50
90.0
  7
SIMPLEX
100
AcDbText
  0
TEXT
  5
499
330
18
100
AcDbEntity
  8
SK2
100
AcDbText
 10
112.7
 20
-5.658095238095238
 30
0.0
 40
4.57
  1
%%c
 50
90.0
  7
SIMPLEX
100
AcDbText
  0
TEXT
  5
49A
330
18
100
AcDbEntity
  8
SK2
100
AcDbText
 10
112.7
 20
-1.523333333333333
 30
0.0
 40
4.57
  1
89
 50
90.0
  7
SIMPLEX
100
AcDbText
  0
TEXT
  5
49B
330
18
100
AcDbEntity
  8
SK2
100
AcDbText
 10
97.70000000000001
 20
-5.766904761904745
 30
0.0
 40
4.57
  1
%%c
 50
90.0
  7
SIMPLEX
100
AcDbText
  0
TEXT
  5
49C
330
18
100
AcDbEntity
  8
SK2
100
AcDbText
 10
97.70000000000001
 20
-1.632142857142841
 30
0.0
 40
4.57
  1
40
 50
90.0
  7
SIMPLEX
100
AcDbText
  0
ENDSEC
  0
SECTION
  2
OBJECTS
  0
DICTIONARY
  5
C
330
0
100
AcDbDictionary
  3
ACAD_GROUP
350
D
  3
ACAD_LAYOUT
350
301
  3
ACAD_MLINESTYLE
350
E
  3
ACAD_PLOTSETTINGS
350
302
1001
ACAD
1000
TREAT_AS_HARD
1070
     0
  0
DICTIONARY
  5
49E
330
18
100
AcDbDictionary
  3
ACAD_LAYOUTSELFREF
350
49F
  0
DICTIONARY
  5
4A0
330
338
100
AcDbDictionary
  3
ACAD_LAYOUTSELFREF
350
4A1
  0
DICTIONARY
  5
D
102
{ACAD_REACTORS
330
C
102
}
330
C
100
AcDbDictionary
1001
ACAD
1000
TREAT_AS_HARD
1070
     0
  0
DICTIONARY
  5
301
102
{ACAD_REACTORS
330
C
102
}
330
C
100
AcDbDictionary
1001
ACAD
1000
TREAT_AS_HARD
1070
     0
  0
DICTIONARY
  5
E
102
{ACAD_REACTORS
330
C
102
}
330
C
100
AcDbDictionary
  3
STANDARD
350
1B
1001
ACAD
1000
TREAT_AS_HARD
1070
     0
  0
DICTIONARY
  5
302
102
{ACAD_REACTORS
330
C
102
}
330
C
100
AcDbDictionary
1001
ACAD
1000
TREAT_AS_HARD
1070
     0
  0
XRECORD
  5
49F
102
{ACAD_REACTORS
330
49E
102
}
330
49E
100
AcDbXrecord
340
18
  0
XRECORD
  5
4A1
102
{ACAD_REACTORS
330
4A0
102
}
330
4A0
100
AcDbXrecord
340
338
  0
MLINESTYLE
  5
1B
102
{ACAD_REACTORS
330
E
102
}
330
E
100
AcDbMlineStyle
  2
STANDARD
 70
     0
  3

 62
     0
 51
90.0
 52
90.0
 71
     2
 49
0.5
 62
   256
  6
BYLAYER
 49
-0.5
 62
   256
  6
BYLAYER
  0
ENDSEC
  0
EOF
