  0
SECTION
  2
HEADER
  9
$ACADVER
  1
AC1012
  9
$DWGCODEPAGE
  3
ANSI_1252
  9
$INSBASE
 10
0.0
 20
0.0
 30
0.0
  9
$EXTMIN
 10
-104.3128645302645
 20
-51.08993416313296
 30
-0.0015258207003583
  9
$EXTMAX
 10
160.0442058982375
 20
81.8743904422438
 30
0.0000000349246037
  9
$LIMMIN
 10
-170.0
 20
-170.0
  9
$LIMMAX
 10
519.0
 20
260.0
  9
$ORTHOMODE
 70
     1
  9
$REGENMODE
 70
     1
  9
$FILLMODE
 70
     1
  9
$QTEXTMODE
 70
     0
  9
$MIRRTEXT
 70
     0
  9
$DRAGMODE
 70
     2
  9
$LTSCALE
 40
15.0
  9
$OSMODE
 70
     0
  9
$ATTMODE
 70
     1
  9
$TEXTSIZE
 40
4.57
  9
$TRACEWID
 40
0.05
  9
$TEXTSTYLE
  7
SIMPLEX
  9
$CLAYER
  8
SK2
  9
$CELTYPE
  6
BYLAYER
  9
$CECOLOR
 62
   256
  9
$CELTSCALE
 40
1.0
  9
$DELOBJ
 70
     1
  9
$DISPSILH
 70
     0
  9
$DIMSCALE
 40
0.0
  9
$DIMASZ
 40
4.57
  9
$DIMEXO
 40
0.0
  9
$DIMDLI
 40
0.38
  9
$DIMRND
 40
0.0
  9
$DIMDLE
 40
0.0
  9
$DIMEXE
 40
5.0
  9
$DIMTP
 40
0.0
  9
$DIMTM
 40
0.0
  9
$DIMTXT
 40
4.57
  9
$DIMCEN
 40
0.09
  9
$DIMTSZ
 40
0.0
  9
$DIMTOL
 70
     0
  9
$DIMLIM
 70
     0
  9
$DIMTIH
 70
     0
  9
$DIMTOH
 70
     0
  9
$DIMSE1
 70
     0
  9
$DIMSE2
 70
     0
  9
$DIMTAD
 70
     1
  9
$DIMZIN
 70
     8
  9
$DIMBLK
  1

  9
$DIMASO
 70
     1
  9
$DIMSHO
 70
     1
  9
$DIMPOST
  1

  9
$DIMAPOST
  1

  9
$DIMALT
 70
     0
  9
$DIMALTD
 70
     2
  9
$DIMALTF
 40
25.4
  9
$DIMLFAC
 40
1.0
  9
$DIMTOFL
 70
     0
  9
$DIMTVP
 40
0.0
  9
$DIMTIX
 70
     0
  9
$DIMSOXD
 70
     0
  9
$DIMSAH
 70
     0
  9
$DIMBLK1
  1

  9
$DIMBLK2
  1

  9
$DIMSTYLE
  2
STANDARD
  9
$DIMCLRD
 70
     0
  9
$DIMCLRE
 70
     0
  9
$DIMCLRT
 70
     0
  9
$DIMTFAC
 40
1.0
  9
$DIMGAP
 40
2.299999999999999
  9
$DIMJUST
 70
     0
  9
$DIMSD1
 70
     0
  9
$DIMSD2
 70
     0
  9
$DIMTOLJ
 70
     1
  9
$DIMTZIN
 70
     0
  9
$DIMALTZ
 70
     0
  9
$DIMALTTZ
 70
     0
  9
$DIMFIT
 70
     3
  9
$DIMUPT
 70
     0
  9
$DIMUNIT
 70
     2
  9
$DIMDEC
 70
     2
  9
$DIMTDEC
 70
     4
  9
$DIMALTU
 70
     2
  9
$DIMALTTD
 70
     2
  9
$DIMTXSTY
  7
SIMPLEX
  9
$DIMAUNIT
 70
     0
  9
$LUNITS
 70
     2
  9
$LUPREC
 70
     2
  9
$SKETCHINC
 40
0.1
  9
$FILLETRAD
 40
0.0
  9
$AUNITS
 70
     0
  9
$AUPREC
 70
     0
  9
$MENU
  1
c:\tdm21\cad\caduti13\tdm13
  9
$ELEVATION
 40
0.0
  9
$PELEVATION
 40
0.0
  9
$THICKNESS
 40
0.0
  9
$LIMCHECK
 70
     0
  9
$BLIPMODE
 70
     0
  9
$CHAMFERA
 40
0.0
  9
$CHAMFERB
 40
0.0
  9
$CHAMFERC
 40
0.0
  9
$CHAMFERD
 40
0.0
  9
$SKPOLY
 70
     0
  9
$TDCREATE
 40
2452418.952028472
  9
$TDUPDATE
 40
2452418.952028472
  9
$TDINDWG
 40
0.0012109954
  9
$TDUSRTIMER
 40
0.0012109954
  9
$USRTIMER
 70
     1
  9
$ANGBASE
 50
0.0
  9
$ANGDIR
 70
     0
  9
$PDMODE
 70
     1
  9
$PDSIZE
 40
0.0
  9
$PLINEWID
 40
0.0
  9
$COORDS
 70
     1
  9
$SPLFRAME
 70
     0
  9
$SPLINETYPE
 70
     6
  9
$SPLINESEGS
 70
     8
  9
$ATTDIA
 70
     0
  9
$ATTREQ
 70
     1
  9
$HANDLING
 70
  4097
  9
$HANDSEED
  5
415
  9
$SURFTAB1
 70
     6
  9
$SURFTAB2
 70
     6
  9
$SURFTYPE
 70
     6
  9
$SURFU
 70
     6
  9
$SURFV
 70
     6
  9
$UCSNAME
  2

  9
$UCSORG
 10
0.0
 20
0.0
 30
0.0
  9
$UCSXDIR
 10
1.0
 20
0.0
 30
0.0
  9
$UCSYDIR
 10
0.0
 20
1.0
 30
0.0
  9
$PUCSNAME
  2

  9
$PUCSORG
 10
0.0
 20
0.0
 30
0.0
  9
$PUCSXDIR
 10
1.0
 20
0.0
 30
0.0
  9
$PUCSYDIR
 10
0.0
 20
1.0
 30
0.0
  9
$USERI1
 70
     0
  9
$USERI2
 70
     0
  9
$USERI3
 70
     0
  9
$USERI4
 70
     0
  9
$USERI5
 70
     0
  9
$USERR1
 40
0.0
  9
$USERR2
 40
0.0
  9
$USERR3
 40
0.0
  9
$USERR4
 40
0.0
  9
$USERR5
 40
0.0
  9
$WORLDVIEW
 70
     1
  9
$SHADEDGE
 70
     3
  9
$SHADEDIF
 70
    70
  9
$TILEMODE
 70
     1
  9
$MAXACTVP
 70
    16
  9
$PINSBASE
 10
0.0
 20
0.0
 30
0.0
  9
$PLIMCHECK
 70
     0
  9
$PEXTMIN
 10
0.0
 20
0.0
 30
0.0
  9
$PEXTMAX
 10
0.0
 20
0.0
 30
0.0
  9
$PLIMMIN
 10
0.0
 20
0.0
  9
$PLIMMAX
 10
12.0
 20
9.0
  9
$UNITMODE
 70
     0
  9
$VISRETAIN
 70
     0
  9
$PLINEGEN
 70
     0
  9
$PSLTSCALE
 70
     1
  9
$TREEDEPTH
 70
  3020
  9
$PICKSTYLE
 70
     1
  9
$CMLSTYLE
  2
STANDARD
  9
$CMLJUST
 70
     0
  9
$CMLSCALE
 40
1.0
  9
$SAVEIMAGES
 70
     1
  0
ENDSEC
  0
SECTION
  2
CLASSES
  0
CLASS
  1
ACDBDICTIONARYWDFLT
  2
AcDbDictionaryWithDefault
  3
AutoCAD 2000
 90
    32768
280
     0
281
     0
  0
CLASS
  1
ACDBPLACEHOLDER
  2
AcDbPlaceHolder
  3
AutoCAD 2000
 90
    32768
280
     0
281
     0
  0
CLASS
  1
LAYOUT
  2
AcDbLayout
  3
AutoCAD 2000
 90
    32768
280
     0
281
     0
  0
CLASS
  1
LONG_TRANSACTION
  2
AcDbLongTransaction
  3
AutoCAD 2000
 90
    32768
280
     0
281
     0
  0
CLASS
  1
LWPOLYLINE
  2
AcDbPolyline
  3
AutoCAD 2000
 90
    32768
280
     0
281
     1
  0
CLASS
  1
HATCH
  2
AcDbHatch
  3
AutoCAD 2000
 90
    32768
280
     0
281
     1
  0
CLASS
  1
XRECORD
  2
AcDbXrecord
  3
AutoCAD 2000
 90
    32768
280
     0
281
     0
  0
ENDSEC
  0
SECTION
  2
TABLES
  0
TABLE
  2
VPORT
  5
8
330
0
100
AcDbSymbolTable
 70
     3
  0
VPORT
  5
410
330
8
100
AcDbSymbolTableRecord
100
AcDbViewportTableRecord
  2
*ACTIVE
 70
     0
 10
0.0
 20
0.0
 11
1.0
 21
1.0
 12
27.8656706839865
 22
15.39222813955541
 13
0.0
 23
0.0
 14
5.0
 24
5.0
 15
5.0
 25
5.0
 16
0.0
 26
0.0
 36
1.0
 17
0.0
 27
0.0
 37
0.0
 40
142.9643246053767
 41
2.07250755287009
 42
50.0
 43
0.0
 44
0.0
 50
0.0
 51
0.0
 71
     0
 72
   100
 73
     1
 74
     1
 75
     0
 76
     0
 77
     0
 78
     0
  0
ENDTAB
  0
TABLE
  2
LTYPE
  5
5
330
0
100
AcDbSymbolTable
 70
     3
  0
LTYPE
  5
12
330
5
100
AcDbSymbolTableRecord
100
AcDbLinetypeTableRecord
  2
BYBLOCK
 70
     0
  3

 72
    65
 73
     0
 40
0.0
  0
LTYPE
  5
13
330
5
100
AcDbSymbolTableRecord
100
AcDbLinetypeTableRecord
  2
BYLAYER
 70
     0
  3

 72
    65
 73
     0
 40
0.0
  0
LTYPE
  5
14
330
5
100
AcDbSymbolTableRecord
100
AcDbLinetypeTableRecord
  2
CONTINUOUS
 70
     0
  3
Solid line
 72
    65
 73
     0
 40
0.0
  0
LTYPE
  5
1F
330
5
100
AcDbSymbolTableRecord
100
AcDbLinetypeTableRecord
  2
CENTER
 70
     0
  3
____ . ____ . ____
 72
    65
 73
     4
 40
1.5
 49
1.0
 74
     0
 49
-0.25
 74
     0
 49
0.0
 74
     0
 49
-0.25
 74
     0
  0
LTYPE
  5
20
330
5
100
AcDbSymbolTableRecord
100
AcDbLinetypeTableRecord
  2
HIDDEN
 70
     0
  3
_ _ _ _ _ _ _ _ _ _ _ _ _ _ _ _ _ _ _ _ _ _ _
 72
    65
 73
     2
 40
0.375
 49
0.25
 74
     0
 49
-0.125
 74
     0
  0
ENDTAB
  0
TABLE
  2
LAYER
  5
2
330
0
100
AcDbSymbolTable
 70
    15
  0
LAYER
  5
F
330
2
100
AcDbSymbolTableRecord
100
AcDbLayerTableRecord
  2
0
 70
     0
 62
     7
  6
CONTINUOUS
  0
LAYER
  5
23
330
2
100
AcDbSymbolTableRecord
100
AcDbLayerTableRecord
  2
1
 70
     0
 62
     4
  6
CONTINUOUS
  0
LAYER
  5
24
330
2
100
AcDbSymbolTableRecord
100
AcDbLayerTableRecord
  2
SK1
 70
     0
 62
     4
  6
CONTINUOUS
  0
LAYER
  5
25
330
2
100
AcDbSymbolTableRecord
100
AcDbLayerTableRecord
  2
2
 70
     0
 62
     7
  6
CONTINUOUS
  0
LAYER
  5
26
330
2
100
AcDbSymbolTableRecord
100
AcDbLayerTableRecord
  2
2L
 70
     0
 62
     7
  6
CONTINUOUS
  0
LAYER
  5
27
330
2
100
AcDbSymbolTableRecord
100
AcDbLayerTableRecord
  2
SK2
 70
     0
 62
     7
  6
CONTINUOUS
  0
LAYER
  5
28
330
2
100
AcDbSymbolTableRecord
100
AcDbLayerTableRecord
  2
3
 70
     0
 62
     1
  6
HIDDEN
  0
LAYER
  5
29
330
2
100
AcDbSymbolTableRecord
100
AcDbLayerTableRecord
  2
SK3
 70
     0
 62
     1
  6
HIDDEN
  0
LAYER
  5
2A
330
2
100
AcDbSymbolTableRecord
100
AcDbLayerTableRecord
  2
4
 70
     0
 62
     2
  6
CENTER
  0
LAYER
  5
2B
330
2
100
AcDbSymbolTableRecord
100
AcDbLayerTableRecord
  2
SK4
 70
     0
 62
     2
  6
CENTER
  0
LAYER
  5
2C
330
2
100
AcDbSymbolTableRecord
100
AcDbLayerTableRecord
  2
5
 70
     0
 62
     7
  6
CONTINUOUS
  0
LAYER
  5
2D
330
2
100
AcDbSymbolTableRecord
100
AcDbLayerTableRecord
  2
6
 70
     0
 62
     5
  6
CONTINUOUS
  0
LAYER
  5
2E
330
2
100
AcDbSymbolTableRecord
100
AcDbLayerTableRecord
  2
SK6
 70
     0
 62
     5
  6
CONTINUOUS
  0
LAYER
  5
2F
330
2
100
AcDbSymbolTableRecord
100
AcDbLayerTableRecord
  2
DEFPOINTS
 70
     0
 62
     7
  6
CONTINUOUS
  0
LAYER
  5
35D
330
2
100
AcDbSymbolTableRecord
100
AcDbLayerTableRecord
  2
1__1
 70
     0
 62
     1
  6
CONTINUOUS
  0
ENDTAB
  0
TABLE
  2
STYLE
  5
3
330
0
100
AcDbSymbolTable
 70
     3
  0
STYLE
  5
10
330
3
100
AcDbSymbolTableRecord
100
AcDbTextStyleTableRecord
  2
STANDARD
 70
     0
 40
0.0
 41
1.0
 50
0.0
 71
     0
 42
5.0
  3
txt
  4

  0
STYLE
  5
1D
330
3
100
AcDbSymbolTableRecord
100
AcDbTextStyleTableRecord
  2
TXT
 70
     0
 40
8.0
 41
1.0
 50
0.0
 71
     0
 42
8.0
  3
txt
  4

  0
STYLE
  5
1E
330
3
100
AcDbSymbolTableRecord
100
AcDbTextStyleTableRecord
  2
SIMPLEX
 70
     0
 40
0.0
 41
1.0
 50
0.0
 71
     0
 42
4.57
  3
simplex
  4

  0
ENDTAB
  0
TABLE
  2
VIEW
  5
6
330
0
100
AcDbSymbolTable
 70
     0
  0
ENDTAB
  0
TABLE
  2
UCS
  5
7
330
0
100
AcDbSymbolTable
 70
     0
  0
ENDTAB
  0
TABLE
  2
APPID
  5
9
330
0
100
AcDbSymbolTable
 70
     1
  0
APPID
  5
11
330
9
100
AcDbSymbolTableRecord
100
AcDbRegAppTableRecord
  2
ACAD
 70
     0
  0
ENDTAB
  0
TABLE
  2
DIMSTYLE
  5
A
330
0
100
AcDbSymbolTable
 70
     1
  0
DIMSTYLE
105
3F
102
{ACAD_REACTORS
330
3C7
330
3F0
330
3D4
102
}
330
A
100
AcDbSymbolTableRecord
100
AcDbDimStyleTableRecord
  2
STANDARD
 70
     0
  3

  4

  5

  6

  7

 40
0.0
 41
4.57
 42
0.0
 43
0.38
 44
5.0
 45
0.0
 46
0.0
 47
0.0
 48
0.0
140
4.57
141
0.09
142
0.0
143
25.4
144
1.0
145
0.0
146
1.0
147
2.299999999999999
 71
     0
 72
     0
 73
     0
 74
     0
 75
     0
 76
     0
 77
     1
 78
     8
170
     0
171
     2
172
     0
173
     0
174
     0
175
     0
176
     0
177
     0
178
     0
270
     2
271
     2
272
     4
273
     2
274
     2
340
1E
275
     0
280
     0
281
     0
282
     0
283
     1
284
     0
285
     0
286
     0
287
     3
288
     0
  0
ENDTAB
  0
TABLE
  2
BLOCK_RECORD
  5
1
330
0
100
AcDbSymbolTable
 70
     3
  0
BLOCK_RECORD
  5
18
102
{ACAD_XDICTIONARY
360
411
102
}
330
1
100
AcDbSymbolTableRecord
100
AcDbBlockTableRecord
  2
*MODEL_SPACE
  0
BLOCK_RECORD
  5
338
102
{ACAD_XDICTIONARY
360
413
102
}
330
1
100
AcDbSymbolTableRecord
100
AcDbBlockTableRecord
  2
*PAPER_SPACE
  0
BLOCK_RECORD
  5
345
330
1
100
AcDbSymbolTableRecord
100
AcDbBlockTableRecord
  2
*D0
  0
BLOCK_RECORD
  5
351
330
1
100
AcDbSymbolTableRecord
100
AcDbBlockTableRecord
  2
*D1
  0
BLOCK_RECORD
  5
3F1
330
1
100
AcDbSymbolTableRecord
100
AcDbBlockTableRecord
  2
*D2
  0
ENDTAB
  0
ENDSEC
  0
SECTION
  2
BLOCKS
  0
BLOCK
  5
32
330
18
100
AcDbEntity
  8
0
100
AcDbBlockBegin
  2
*MODEL_SPACE
 70
     0
 10
0.0
 20
0.0
 30
0.0
  3
*MODEL_SPACE
  1

  0
ENDBLK
  5
33
330
18
100
AcDbEntity
  8
0
100
AcDbBlockEnd
  0
BLOCK
  5
339
330
338
100
AcDbEntity
 67
     1
  8
0
100
AcDbBlockBegin
  2
*PAPER_SPACE
 70
     0
 10
0.0
 20
0.0
 30
0.0
  3
*PAPER_SPACE
  1

  0
ENDBLK
  5
33A
330
338
100
AcDbEntity
 67
     1
  8
0
100
AcDbBlockEnd
  0
BLOCK
  5
34F
330
345
100
AcDbEntity
  8
0
100
AcDbBlockBegin
  2
*D0
 70
     1
 10
0.0
 20
0.0
 30
0.0
  3
*D0
  1

  0
LINE
  5
3D5
330
345
100
AcDbEntity
  8
2
 62
     0
100
AcDbLine
 10
0.0
 20
38.064
 30
0.0
 11
0.0000000000000026
 21
80.0
 31
0.0
  0
LINE
  5
3D6
330
345
100
AcDbEntity
  8
2
 62
     0
100
AcDbLine
 10
35.0
 20
29.0
 30
0.0
 11
35.0
 21
80.0
 31
0.0
  0
LINE
  5
3D7
330
345
100
AcDbEntity
  8
2
 62
     0
100
AcDbLine
 10
4.570000000000002
 20
75.0
 30
0.0
 11
30.43
 21
75.0
 31
0.0
  0
SOLID
  5
3D8
330
345
100
AcDbEntity
  8
2
 62
     0
100
AcDbTrace
 10
4.570000000000002
 20
75.76166666666667
 30
0.0
 11
4.570000000000002
 21
74.23833333333333
 31
0.0
 12
0.0000000000000023
 22
75.0
 32
0.0
 13
0.0000000000000023
 23
75.0
 33
0.0
  0
SOLID
  5
3D9
330
345
100
AcDbEntity
  8
2
 62
     0
100
AcDbTrace
 10
30.43
 20
75.76166666666667
 30
0.0
 11
30.43
 21
74.23833333333333
 31
0.0
 12
35.0
 22
75.0
 32
0.0
 13
35.0
 23
75.0
 33
0.0
  0
MTEXT
  5
3DA
330
345
100
AcDbEntity
  8
2
 62
     0
100
AcDbMText
 10
17.5
 20
79.58499999999999
 30
0.0
 40
4.57
 41
0.0
 71
     5
 72
     1
  1
\A1;35
  7
SIMPLEX
1001
ACAD
1000
MTEXTBEGIN
1070
    73
1070
     1
1070
    44
1040
1.0
1070
    74
1070
     0
1000
MTEXTEND
  0
POINT
  5
3DB
330
345
100
AcDbEntity
  8
DEFPOINTS
 62
     0
100
AcDbPoint
 10
0.0
 20
38.064
 30
0.0
  0
POINT
  5
3DC
330
345
100
AcDbEntity
  8
DEFPOINTS
 62
     0
100
AcDbPoint
 10
35.0
 20
29.0
 30
0.0
  0
POINT
  5
3DD
330
345
100
AcDbEntity
  8
DEFPOINTS
 62
     0
100
AcDbPoint
 10
35.0
 20
75.0
 30
0.0
  0
ENDBLK
  5
350
330
345
100
AcDbEntity
  8
0
100
AcDbBlockEnd
  0
BLOCK
  5
35B
330
351
100
AcDbEntity
  8
0
100
AcDbBlockBegin
  2
*D1
 70
     1
 10
0.0
 20
0.0
 30
0.0
  3
*D1
  1

  0
LINE
  5
3E7
330
351
100
AcDbEntity
  8
SK2
 62
     0
100
AcDbLine
 10
121.0
 20
-12.49999994764012
 30
0.0
 11
121.0
 21
-50.0
 31
0.0
  0
LINE
  5
3E8
330
351
100
AcDbEntity
  8
SK2
 62
     0
100
AcDbLine
 10
100.0
 20
-29.0
 30
0.0
 11
100.0
 21
-50.0
 31
0.0
  0
LINE
  5
3E9
330
351
100
AcDbEntity
  8
SK2
 62
     0
100
AcDbLine
 10
116.43
 20
-45.0
 30
0.0
 11
104.5699999999999
 21
-45.0
 31
0.0
  0
SOLID
  5
3EA
330
351
100
AcDbEntity
  8
SK2
 62
     0
100
AcDbTrace
 10
116.43
 20
-44.23833333333333
 30
0.0
 11
116.43
 21
-45.76166666666667
 31
0.0
 12
121.0
 22
-45.0
 32
0.0
 13
121.0
 23
-45.0
 33
0.0
  0
SOLID
  5
3EB
330
351
100
AcDbEntity
  8
SK2
 62
     0
100
AcDbTrace
 10
104.5699999999999
 20
-44.23833333333333
 30
0.0
 11
104.5699999999999
 21
-45.76166666666667
 31
0.0
 12
100.0
 22
-45.0
 32
0.0
 13
100.0
 23
-45.0
 33
0.0
  0
MTEXT
  5
3EC
330
351
100
AcDbEntity
  8
SK2
 62
     0
100
AcDbMText
 10
110.4999999999999
 20
-40.415
 30
0.0
 40
4.57
 41
0.0
 71
     5
 72
     1
  1
\A1;21
  7
SIMPLEX
1001
ACAD
1000
MTEXTBEGIN
1070
    73
1070
     1
1070
    44
1040
1.0
1070
    74
1070
     0
1000
MTEXTEND
  0
POINT
  5
3ED
330
351
100
AcDbEntity
  8
DEFPOINTS
 62
     0
100
AcDbPoint
 10
121.0
 20
-12.49999994764012
 30
0.0
  0
POINT
  5
3EE
330
351
100
AcDbEntity
  8
DEFPOINTS
 62
     0
100
AcDbPoint
 10
100.0
 20
-29.0
 30
0.0
  0
POINT
  5
3EF
330
351
100
AcDbEntity
  8
DEFPOINTS
 62
     0
100
AcDbPoint
 10
100.0
 20
-45.0
 30
0.0
  0
ENDBLK
  5
35C
330
351
100
AcDbEntity
  8
0
100
AcDbBlockEnd
  0
BLOCK
  5
3FB
330
3F1
100
AcDbEntity
  8
0
100
AcDbBlockBegin
  2
*D2
 70
     1
 10
0.0
 20
0.0
 30
0.0
  3
*D2
  1

  0
LINE
  5
3F2
330
3F1
100
AcDbEntity
  8
2
 62
     0
100
AcDbLine
 10
0.0
 20
38.064
 30
0.0
 11
0.0000000000000026
 21
80.0
 31
0.0
  0
LINE
  5
3F3
330
3F1
100
AcDbEntity
  8
2
 62
     0
100
AcDbLine
 10
100.0
 20
29.0
 30
0.0
 11
100.0
 21
80.0
 31
0.0
  0
LINE
  5
3F4
330
3F1
100
AcDbEntity
  8
2
 62
     0
100
AcDbLine
 10
4.570000000000002
 20
75.0
 30
0.0
 11
95.43000000000001
 21
75.0
 31
0.0
  0
SOLID
  5
3F5
330
3F1
100
AcDbEntity
  8
2
 62
     0
100
AcDbTrace
 10
4.570000000000002
 20
75.76166666666667
 30
0.0
 11
4.570000000000002
 21
74.23833333333333
 31
0.0
 12
0.0000000000000023
 22
75.0
 32
0.0
 13
0.0000000000000023
 23
75.0
 33
0.0
  0
SOLID
  5
3F6
330
3F1
100
AcDbEntity
  8
2
 62
     0
100
AcDbTrace
 10
95.43000000000001
 20
75.76166666666667
 30
0.0
 11
95.43000000000001
 21
74.23833333333333
 31
0.0
 12
100.0
 22
75.0
 32
0.0
 13
100.0
 23
75.0
 33
0.0
  0
MTEXT
  5
3F7
330
3F1
100
AcDbEntity
  8
2
 62
     0
100
AcDbMText
 10
50.0
 20
79.58499999999999
 30
0.0
 40
4.57
 41
0.0
 71
     5
 72
     1
  1
\A1;100
  7
SIMPLEX
1001
ACAD
1000
MTEXTBEGIN
1070
    73
1070
     1
1070
    44
1040
1.0
1070
    74
1070
     0
1000
MTEXTEND
  0
POINT
  5
3F8
330
3F1
100
AcDbEntity
  8
DEFPOINTS
 62
     0
100
AcDbPoint
 10
0.0
 20
38.064
 30
0.0
  0
POINT
  5
3F9
330
3F1
100
AcDbEntity
  8
DEFPOINTS
 62
     0
100
AcDbPoint
 10
100.0
 20
29.0
 30
0.0
  0
POINT
  5
3FA
330
3F1
100
AcDbEntity
  8
DEFPOINTS
 62
     0
100
AcDbPoint
 10
100.0
 20
75.0
 30
0.0
  0
ENDBLK
  5
3FC
330
3F1
100
AcDbEntity
  8
0
100
AcDbBlockEnd
  0
ENDSEC
  0
SECTION
  2
ENTITIES
  0
LINE
  5
35E
330
18
100
AcDbEntity
  8
1
100
AcDbLine
 10
100.0
 20
6.0
 30
0.0
 11
105.219
 21
-5.387
 31
0.0
  0
LINE
  5
35F
330
18
100
AcDbEntity
  8
1
100
AcDbLine
 10
105.219
 20
5.386999999999993
 30
0.0
 11
100.0
 21
-6.0
 31
0.0
  0
LINE
  5
360
330
18
100
AcDbEntity
  8
1
100
AcDbLine
 10
105.4999999999999
 20
6.0
 30
0.0
 11
106.2999999999999
 21
5.199999999999995
 31
0.0
  0
LINE
  5
361
330
18
100
AcDbEntity
  8
1
100
AcDbLine
 10
105.4999999999999
 20
4.945999999999997
 30
0.0
 11
105.4999999999999
 21
0.0
 31
0.0
  0
LINE
  5
362
330
18
100
AcDbEntity
  8
1
100
AcDbLine
 10
105.4999999999999
 20
-4.947000000000002
 30
0.0
 11
105.4999999999999
 21
0.0
 31
0.0
  0
ARC
  5
363
330
18
100
AcDbEntity
  8
1
100
AcDbCircle
 10
106.082
 20
4.5
 30
0.0
 40
0.733
100
AcDbArc
 50
72.702049
 51
142.4743799999999
  0
ARC
  5
364
330
18
100
AcDbEntity
  8
1
100
AcDbCircle
 10
103.699
 20
4.103000000000001
 30
0.0
 40
1.99
100
AcDbArc
 50
25.096882
 51
72.42096700000001
  0
ARC
  5
365
330
18
100
AcDbEntity
  8
1
100
AcDbCircle
 10
106.082
 20
-4.5
 30
0.0
 40
0.733
100
AcDbArc
 50
217.52562
 51
287.297943
  0
ARC
  5
366
330
18
100
AcDbEntity
  8
1
100
AcDbCircle
 10
103.699
 20
-4.103000000000001
 30
0.0
 40
1.99
100
AcDbArc
 50
287.579041
 51
334.9031069999999
  0
LINE
  5
367
330
18
100
AcDbEntity
  8
1
100
AcDbLine
 10
19.10000000000001
 20
39.0
 30
0.0
 11
19.10000000000001
 21
-39.0
 31
0.0
  0
LINE
  5
368
330
18
100
AcDbEntity
  8
1
100
AcDbLine
 10
3.200000000000002
 20
-29.975
 30
0.0
 11
19.10000000000001
 21
-29.975
 31
0.0
  0
LINE
  5
369
330
18
100
AcDbEntity
  8
1
100
AcDbLine
 10
3.200000000000002
 20
-12.825
 30
0.0
 11
19.10000000000001
 21
-12.825
 31
0.0
  0
LINE
  5
36A
330
18
100
AcDbEntity
  8
1
100
AcDbLine
 10
3.200000000000002
 20
12.875
 30
0.0
 11
19.10000000000001
 21
12.875
 31
0.0
  0
LINE
  5
36B
330
18
100
AcDbEntity
  8
1
100
AcDbLine
 10
3.200000000000002
 20
36.027
 30
0.0
 11
3.200000000000002
 21
-36.027
 31
0.0
  0
LINE
  5
36C
330
18
100
AcDbEntity
  8
1
100
AcDbLine
 10
0.7000000000000029
 20
35.027
 30
0.0
 11
0.7000000000000029
 21
-35.027
 31
0.0
  0
POINT
  5
36D
330
18
100
AcDbEntity
  8
1__1
 62
     7
100
AcDbPoint
 10
0.0
 20
0.0
 30
0.0
  0
ARC
  5
36E
330
18
100
AcDbEntity
  8
1
100
AcDbCircle
 10
2.200000000000002
 20
36.027
 30
0.0
 40
1.0
100
AcDbArc
 50
270.0
 51
359.999969
  0
LINE
  5
36F
330
18
100
AcDbEntity
  8
1
100
AcDbLine
 10
2.200000000000002
 20
35.027
 30
0.0
 11
0.7000000000000029
 21
35.027
 31
0.0
  0
ARC
  5
370
330
18
100
AcDbEntity
  8
1
100
AcDbCircle
 10
2.200000000000002
 20
-36.027
 30
0.0
 40
1.0
100
AcDbArc
 50
0.000003
 51
89.99999200000001
  0
LINE
  5
371
330
18
100
AcDbEntity
  8
1
100
AcDbLine
 10
0.7000000000000029
 20
-35.027
 30
0.0
 11
2.200000000000002
 21
-35.027
 31
0.0
  0
ARC
  5
372
330
18
100
AcDbEntity
  8
1
100
AcDbCircle
 10
18.1
 20
47.75
 30
0.0
 40
1.0
100
AcDbArc
 50
0.000007
 51
90.0
  0
ARC
  5
373
330
18
100
AcDbEntity
  8
1
100
AcDbCircle
 10
4.200000000000002
 20
47.75
 30
0.0
 40
1.0
100
AcDbArc
 50
90.000008
 51
180.0
  0
ARC
  5
374
330
18
100
AcDbEntity
  8
1
100
AcDbCircle
 10
18.1
 20
-47.75
 30
0.0
 40
1.0
100
AcDbArc
 50
270.0
 51
0.0
  0
LINE
  5
375
330
18
100
AcDbEntity
  8
4
100
AcDbLine
 10
0.0
 20
38.064
 30
0.0
 11
0.0
 21
-37.635
 31
0.0
  0
ARC
  5
376
330
18
100
AcDbEntity
  8
1
100
AcDbCircle
 10
4.200000000000002
 20
-47.75
 30
0.0
 40
1.0
100
AcDbArc
 50
180.0
 51
270.0
  0
LINE
  5
377
330
18
100
AcDbEntity
  8
SK4
100
AcDbLine
 10
11.15
 20
51.69599999999999
 30
0.0
 11
11.15
 21
0.0
 31
0.0
  0
ARC
  5
378
330
18
100
AcDbEntity
  8
1
100
AcDbCircle
 10
-99.24999999999998
 20
-17.92399999999999
 30
0.0
 40
2.5
100
AcDbArc
 50
180.0
 51
261.69812
  0
ARC
  5
379
330
18
100
AcDbEntity
  8
1
100
AcDbCircle
 10
-99.24999999999998
 20
17.92399999999999
 30
0.0
 40
2.5
100
AcDbArc
 50
98.30191000000001
 51
180.0
  0
LINE
  5
37A
330
18
100
AcDbEntity
  8
1
100
AcDbLine
 10
99.0
 20
30.0
 30
0.0
 11
24.10000000000001
 21
30.0
 31
0.0
  0
ARC
  5
37B
330
18
100
AcDbEntity
  8
1
100
AcDbCircle
 10
99.0
 20
29.0
 30
0.0
 40
1.0
100
AcDbArc
 50
0.000003
 51
90.000008
  0
ARC
  5
37C
330
18
100
AcDbEntity
  8
1
100
AcDbCircle
 10
99.0
 20
-29.0
 30
0.0
 40
1.0
100
AcDbArc
 50
270.0
 51
0.000003
  0
ARC
  5
37D
330
18
100
AcDbEntity
  8
1
100
AcDbCircle
 10
24.10000000000001
 20
-35.0
 30
0.0
 40
5.0
100
AcDbArc
 50
90.0
 51
180.0
  0
ARC
  5
37E
330
18
100
AcDbEntity
  8
SK1
100
AcDbCircle
 10
100.4
 20
13.79999999999999
 30
0.0
 40
0.6
100
AcDbArc
 50
228.160629
 51
269.978149
  0
LINE
  5
37F
330
18
100
AcDbEntity
  8
SK1
100
AcDbLine
 10
100.4
 20
13.19999999999999
 30
0.0
 11
101.3009999999999
 21
13.19999999999999
 31
0.0
  0
ARC
  5
380
330
18
100
AcDbEntity
  8
SK1
100
AcDbCircle
 10
101.3009999999999
 20
13.79999999999999
 30
0.0
 40
0.6
100
AcDbArc
 50
270.0014649999999
 51
284.9636229999999
  0
ARC
  5
381
330
18
100
AcDbEntity
  8
SK1
100
AcDbCircle
 10
120.0
 20
12.5
 30
0.0
 40
1.0
100
AcDbArc
 50
0.0
 51
90.0
  0
LINE
  5
382
330
18
100
AcDbEntity
  8
SK1
100
AcDbLine
 10
121.0
 20
12.5
 30
0.0
 11
121.0
 21
-12.5
 31
0.0
  0
ARC
  5
383
330
18
100
AcDbEntity
  8
SK1
100
AcDbCircle
 10
120.0
 20
-12.5
 30
0.0
 40
1.0
100
AcDbArc
 50
270.0
 51
0.000003
  0
ARC
  5
384
330
18
100
AcDbEntity
  8
SK1
100
AcDbCircle
 10
101.302
 20
-13.8
 30
0.0
 40
0.6
100
AcDbArc
 50
75.164597
 51
90.13114200000002
  0
LINE
  5
385
330
18
100
AcDbEntity
  8
SK1
100
AcDbLine
 10
101.3009999999999
 20
-13.2
 30
0.0
 11
100.4
 21
-13.2
 31
0.0
  0
ARC
  5
386
330
18
100
AcDbEntity
  8
SK1
100
AcDbCircle
 10
100.4
 20
-13.8
 30
0.0
 40
0.6
100
AcDbArc
 50
90.0
 51
131.809479
  0
LINE
  5
387
330
18
100
AcDbEntity
  8
SK4
100
AcDbLine
 10
11.15
 20
-51.088
 30
0.0
 11
11.15
 21
0.0
 31
0.0
  0
LINE
  5
388
330
18
100
AcDbEntity
  8
4
100
AcDbLine
 10
-104.2659999999999
 20
0.0
 30
0.0
 11
106.3
 21
0.0
 31
0.0
  0
LINE
  5
389
330
18
100
AcDbEntity
  8
1
100
AcDbLine
 10
99.0
 20
-30.0
 30
0.0
 11
24.10000000000001
 21
-30.0
 31
0.0
  0
ARC
  5
38A
330
18
100
AcDbEntity
  8
1
100
AcDbCircle
 10
24.10000000000001
 20
35.0
 30
0.0
 40
5.0
100
AcDbArc
 50
180.000015
 51
270.0
  0
LINE
  5
38B
330
18
100
AcDbEntity
  8
1
100
AcDbLine
 10
100.0
 20
29.0
 30
0.0
 11
100.0
 21
-29.0
 31
0.0
  0
LINE
  5
38C
330
18
100
AcDbEntity
  8
SK1
100
AcDbLine
 10
102.4999999999999
 20
-6.0
 30
0.0
 11
102.4999999999999
 21
-13.5
 31
0.0
  0
LINE
  5
38D
330
18
100
AcDbEntity
  8
SK1
100
AcDbLine
 10
102.4999999999999
 20
13.5
 30
0.0
 11
102.4999999999999
 21
6.0
 31
0.0
  0
LINE
  5
38E
330
18
100
AcDbEntity
  8
SK1
100
AcDbLine
 10
101.381
 20
-6.0
 30
0.0
 11
101.381
 21
-12.84799999999999
 31
0.0
  0
LINE
  5
38F
330
18
100
AcDbEntity
  8
SK1
100
AcDbLine
 10
101.381
 20
12.791
 30
0.0
 11
101.381
 21
6.0
 31
0.0
  0
LINE
  5
390
330
18
100
AcDbEntity
  8
SK1
100
AcDbLine
 10
120.0
 20
-13.5
 30
0.0
 11
119.4
 21
-13.5
 31
0.0
  0
LINE
  5
391
330
18
100
AcDbEntity
  8
SK1
100
AcDbLine
 10
119.4
 20
-13.5
 30
0.0
 11
116.2
 21
-13.5
 31
0.0
  0
LINE
  5
392
330
18
100
AcDbEntity
  8
SK1
100
AcDbLine
 10
116.2
 20
-13.5
 30
0.0
 11
102.4999999999999
 21
-13.5
 31
0.0
  0
LINE
  5
393
330
18
100
AcDbEntity
  8
SK1
100
AcDbLine
 10
102.4999999999999
 20
-13.5
 30
0.0
 11
101.456
 21
-13.22
 31
0.0
  0
LINE
  5
394
330
18
100
AcDbEntity
  8
SK1
100
AcDbLine
 10
101.456
 20
13.22
 30
0.0
 11
102.4999999999999
 21
13.5
 31
0.0
  0
LINE
  5
395
330
18
100
AcDbEntity
  8
SK1
100
AcDbLine
 10
102.4999999999999
 20
13.5
 30
0.0
 11
116.2
 21
13.5
 31
0.0
  0
LINE
  5
396
330
18
100
AcDbEntity
  8
SK1
100
AcDbLine
 10
116.2
 20
13.5
 30
0.0
 11
119.4
 21
13.5
 31
0.0
  0
LINE
  5
397
330
18
100
AcDbEntity
  8
SK1
100
AcDbLine
 10
119.4
 20
13.5
 30
0.0
 11
120.0
 21
13.5
 31
0.0
  0
LINE
  5
398
330
18
100
AcDbEntity
  8
1
100
AcDbLine
 10
-99.611
 20
20.399
 30
0.0
 11
0.7000000000000029
 21
35.027
 31
0.0
  0
LINE
  5
399
330
18
100
AcDbEntity
  8
1
100
AcDbLine
 10
-101.7499999999999
 20
0.0159999999999983
 30
0.0
 11
-101.7499999999999
 21
17.92399999999999
 31
0.0
  0
LINE
  5
39A
330
18
100
AcDbEntity
  8
1
100
AcDbLine
 10
-99.611
 20
-20.398
 30
0.0
 11
0.7020000000000124
 21
-35.027
 31
0.0
  0
LINE
  5
39B
330
18
100
AcDbEntity
  8
1
100
AcDbLine
 10
-101.7499999999999
 20
-0.0159999999999983
 30
0.0
 11
-101.7499999999999
 21
-17.925
 31
0.0
  0
LINE
  5
39C
330
18
100
AcDbEntity
  8
1
100
AcDbLine
 10
3.200000000000002
 20
-47.75
 30
0.0
 11
3.200000000000002
 21
-36.027
 31
0.0
  0
LINE
  5
39D
330
18
100
AcDbEntity
  8
1
100
AcDbLine
 10
11.15
 20
-45.625
 30
0.0
 11
9.275000000000005
 21
-45.625
 31
0.0
  0
LINE
  5
39E
330
18
100
AcDbEntity
  8
1
100
AcDbLine
 10
9.275000000000005
 20
-45.625
 30
0.0
 11
7.16800000000002
 21
-48.75
 31
0.0
  0
LINE
  5
39F
330
18
100
AcDbEntity
  8
1
100
AcDbLine
 10
7.16800000000002
 20
-48.75
 30
0.0
 11
4.200000000000002
 21
-48.75
 31
0.0
  0
LINE
  5
3A0
330
18
100
AcDbEntity
  8
1
100
AcDbLine
 10
19.10000000000001
 20
-47.75
 30
0.0
 11
19.10000000000001
 21
-19.968
 31
0.0
  0
LINE
  5
3A1
330
18
100
AcDbEntity
  8
1
100
AcDbLine
 10
11.15
 20
-45.625
 30
0.0
 11
13.025
 21
-45.625
 31
0.0
  0
LINE
  5
3A2
330
18
100
AcDbEntity
  8
1
100
AcDbLine
 10
13.025
 20
-45.625
 30
0.0
 11
15.132
 21
-48.75
 31
0.0
  0
LINE
  5
3A3
330
18
100
AcDbEntity
  8
1
100
AcDbLine
 10
15.132
 20
-48.75
 30
0.0
 11
18.1
 21
-48.75
 31
0.0
  0
LINE
  5
3A4
330
18
100
AcDbEntity
  8
1
100
AcDbLine
 10
3.200000000000002
 20
47.75
 30
0.0
 11
3.200000000000002
 21
36.027
 31
0.0
  0
LINE
  5
3A5
330
18
100
AcDbEntity
  8
1
100
AcDbLine
 10
11.15
 20
45.625
 30
0.0
 11
9.275000000000005
 21
45.625
 31
0.0
  0
LINE
  5
3A6
330
18
100
AcDbEntity
  8
1
100
AcDbLine
 10
9.275000000000005
 20
45.625
 30
0.0
 11
7.16800000000002
 21
48.75
 31
0.0
  0
LINE
  5
3A7
330
18
100
AcDbEntity
  8
1
100
AcDbLine
 10
7.16800000000002
 20
48.75
 30
0.0
 11
4.200000000000002
 21
48.75
 31
0.0
  0
LINE
  5
3A8
330
18
100
AcDbEntity
  8
1
100
AcDbLine
 10
19.10000000000001
 20
47.75
 30
0.0
 11
19.10000000000001
 21
20.0
 31
0.0
  0
LINE
  5
3A9
330
18
100
AcDbEntity
  8
1
100
AcDbLine
 10
11.15
 20
45.625
 30
0.0
 11
13.025
 21
45.625
 31
0.0
  0
LINE
  5
3AA
330
18
100
AcDbEntity
  8
1
100
AcDbLine
 10
13.025
 20
45.625
 30
0.0
 11
15.132
 21
48.75
 31
0.0
  0
LINE
  5
3AB
330
18
100
AcDbEntity
  8
1
100
AcDbLine
 10
15.132
 20
48.75
 30
0.0
 11
18.1
 21
48.75
 31
0.0
  0
LINE
  5
3AC
330
18
100
AcDbEntity
  8
1
100
AcDbLine
 10
7.16800000000002
 20
12.875
 30
0.0
 11
7.16800000000002
 21
48.75
 31
0.0
  0
LINE
  5
3AD
330
18
100
AcDbEntity
  8
1
100
AcDbLine
 10
7.16800000000002
 20
-29.975
 30
0.0
 11
7.16800000000002
 21
-12.825
 31
0.0
  0
LINE
  5
3AE
330
18
100
AcDbEntity
  8
1
100
AcDbLine
 10
7.16800000000002
 20
-48.75
 30
0.0
 11
7.16800000000002
 21
-38.329
 31
0.0
  0
LINE
  5
3AF
330
18
100
AcDbEntity
  8
1
100
AcDbLine
 10
9.275000000000005
 20
-34.426
 30
0.0
 11
9.275000000000005
 21
-45.625
 31
0.0
  0
LINE
  5
3B0
330
18
100
AcDbEntity
  8
1
100
AcDbLine
 10
9.275000000000005
 20
-12.825
 30
0.0
 11
9.275000000000005
 21
-29.975
 31
0.0
  0
LINE
  5
3B1
330
18
100
AcDbEntity
  8
1
100
AcDbLine
 10
9.275000000000005
 20
45.625
 30
0.0
 11
9.275000000000005
 21
12.875
 31
0.0
  0
LINE
  5
3B2
330
18
100
AcDbEntity
  8
1
100
AcDbLine
 10
15.132
 20
-38.329
 30
0.0
 11
15.132
 21
-48.75
 31
0.0
  0
LINE
  5
3B3
330
18
100
AcDbEntity
  8
1
100
AcDbLine
 10
15.132
 20
-12.825
 30
0.0
 11
15.132
 21
-29.975
 31
0.0
  0
LINE
  5
3B4
330
18
100
AcDbEntity
  8
1
100
AcDbLine
 10
15.132
 20
48.75
 30
0.0
 11
15.132
 21
12.875
 31
0.0
  0
LINE
  5
3B5
330
18
100
AcDbEntity
  8
1
100
AcDbLine
 10
13.025
 20
12.875
 30
0.0
 11
13.025
 21
45.625
 31
0.0
  0
LINE
  5
3B6
330
18
100
AcDbEntity
  8
1
100
AcDbLine
 10
13.025
 20
-29.975
 30
0.0
 11
13.025
 21
-12.825
 31
0.0
  0
LINE
  5
3B7
330
18
100
AcDbEntity
  8
1
100
AcDbLine
 10
13.025
 20
-45.625
 30
0.0
 11
13.025
 21
-34.426
 31
0.0
  0
LINE
  5
3B8
330
18
100
AcDbEntity
  8
SK2
100
AcDbLine
 10
121.0
 20
0.0
 30
0.0
 11
136.866
 21
-16.558
 31
0.0
  0
LINE
  5
3B9
330
18
100
AcDbEntity
  8
1
100
AcDbLine
 10
3.200000000000002
 20
-38.329
 30
0.0
 11
7.16800000000002
 21
-38.329
 31
0.0
  0
LINE
  5
3BA
330
18
100
AcDbEntity
  8
1
100
AcDbLine
 10
7.16800000000002
 20
-38.329
 30
0.0
 11
9.275000000000005
 21
-34.426
 31
0.0
  0
LINE
  5
3BB
330
18
100
AcDbEntity
  8
1
100
AcDbLine
 10
9.275000000000005
 20
-34.426
 30
0.0
 11
13.025
 21
-34.426
 31
0.0
  0
LINE
  5
3BC
330
18
100
AcDbEntity
  8
1
100
AcDbLine
 10
13.025
 20
-34.426
 30
0.0
 11
15.132
 21
-38.329
 31
0.0
  0
LINE
  5
3BD
330
18
100
AcDbEntity
  8
1
100
AcDbLine
 10
15.132
 20
-38.329
 30
0.0
 11
19.10000000000001
 21
-38.329
 31
0.0
  0
LINE
  5
3BE
330
18
100
AcDbEntity
  8
1
100
AcDbLine
 10
106.2999999999999
 20
-5.200000000000002
 30
0.0
 11
106.2999999999999
 21
0.0
 31
0.0
  0
LINE
  5
3BF
330
18
100
AcDbEntity
  8
1
100
AcDbLine
 10
100.0
 20
0.0
 30
0.0
 11
100.0
 21
-6.0
 31
0.0
  0
LINE
  5
3C0
330
18
100
AcDbEntity
  8
1
100
AcDbLine
 10
100.0
 20
-6.0
 30
0.0
 11
105.4999999999999
 21
-6.0
 31
0.0
  0
LINE
  5
3C1
330
18
100
AcDbEntity
  8
1
100
AcDbLine
 10
105.4999999999999
 20
-6.0
 30
0.0
 11
106.2999999999999
 21
-5.200000000000002
 31
0.0
  0
LINE
  5
3C2
330
18
100
AcDbEntity
  8
1
100
AcDbLine
 10
106.2999999999999
 20
5.199999999999995
 30
0.0
 11
106.2999999999999
 21
0.0
 31
0.0
  0
LINE
  5
3C3
330
18
100
AcDbEntity
  8
1
100
AcDbLine
 10
100.0
 20
0.0
 30
0.0
 11
100.0
 21
6.0
 31
0.0
  0
LINE
  5
3C4
330
18
100
AcDbEntity
  8
1
100
AcDbLine
 10
100.0
 20
6.0
 30
0.0
 11
105.4999999999999
 21
6.0
 31
0.0
  0
TEXT
  5
3C5
330
18
100
AcDbEntity
  8
SK2
100
AcDbText
 10
136.147
 20
-21.575
 30
0.0
 40
3.499151999999999
  1
M12
 41
0.8890459999999999
100
AcDbText
  0
LINE
  5
3C6
330
18
100
AcDbEntity
  8
SK4
100
AcDbLine
 10
-104.2659999999999
 20
0.0
 30
0.0
 11
126.0334425490446
 21
0.0
 31
0.0
  0
LINE
  5
3C8
330
18
100
AcDbEntity
  8
SK2
100
AcDbLine
 10
120.0
 20
13.5
 30
0.0
 11
145.0
 21
13.49999999999999
 31
0.0
  0
LINE
  5
3C9
330
18
100
AcDbEntity
  8
SK2
100
AcDbLine
 10
120.0
 20
-13.5
 30
0.0
 11
145.0
 21
-13.50000000000001
 31
0.0
  0
LINE
  5
3CA
330
18
100
AcDbEntity
  8
SK2
100
AcDbLine
 10
140.0
 20
8.929999999999994
 30
0.0
 11
140.0
 21
-8.930000000000008
 31
0.0
  0
SOLID
  5
3CB
330
18
100
AcDbEntity
  8
SK2
100
AcDbTrace
 10
139.2383333333333
 20
8.929999999999994
 30
0.0
 11
140.7616666666666
 21
8.929999999999994
 31
0.0
 12
140.0
 22
13.49999999999999
 32
0.0
 13
140.0
 23
13.49999999999999
 33
0.0
  0
SOLID
  5
3CC
330
18
100
AcDbEntity
  8
SK2
100
AcDbTrace
 10
139.2383333333333
 20
-8.930000000000008
 30
0.0
 11
140.7616666666666
 21
-8.930000000000008
 31
0.0
 12
140.0
 22
-13.5
 32
0.0
 13
140.0
 23
-13.5
 33
0.0
  0
LINE
  5
3CE
330
18
100
AcDbEntity
  8
SK2
100
AcDbLine
 10
98.99999986037366
 20
29.99999999999999
 30
0.0
 11
160.0
 21
29.99999999999997
 31
0.0
  0
LINE
  5
3CF
330
18
100
AcDbEntity
  8
SK2
100
AcDbLine
 10
99.0
 20
-30.0
 30
0.0
 11
160.0
 21
-30.00000000000001
 31
0.0
  0
LINE
  5
3D0
330
18
100
AcDbEntity
  8
SK2
100
AcDbLine
 10
155.0
 20
25.42999999999997
 30
0.0
 11
155.0
 21
-25.43000000000001
 31
0.0
  0
SOLID
  5
3D1
330
18
100
AcDbEntity
  8
SK2
100
AcDbTrace
 10
154.2383333333333
 20
25.42999999999997
 30
0.0
 11
155.7616666666666
 21
25.42999999999997
 31
0.0
 12
155.0
 22
29.99999999999997
 32
0.0
 13
155.0
 23
29.99999999999997
 33
0.0
  0
SOLID
  5
3D2
330
18
100
AcDbEntity
  8
SK2
100
AcDbTrace
 10
154.2383333333333
 20
-25.43000000000001
 30
0.0
 11
155.7616666666666
 21
-25.43000000000001
 31
0.0
 12
155.0
 22
-30.00000000000001
 32
0.0
 13
155.0
 23
-30.00000000000001
 33
0.0
  0
LINE
  5
3FE
330
18
100
AcDbEntity
  8
2
100
AcDbLine
 10
0.0
 20
38.064
 30
0.0
 11
0.0000000000000026
 21
80.0
 31
0.0
  0
LINE
  5
3FF
330
18
100
AcDbEntity
  8
2
100
AcDbLine
 10
100.0
 20
29.0
 30
0.0
 11
100.0
 21
80.0
 31
0.0
  0
LINE
  5
400
330
18
100
AcDbEntity
  8
2
100
AcDbLine
 10
4.570000000000002
 20
75.0
 30
0.0
 11
95.43000000000001
 21
75.0
 31
0.0
  0
SOLID
  5
401
330
18
100
AcDbEntity
  8
2
100
AcDbTrace
 10
4.570000000000002
 20
75.76166666666667
 30
0.0
 11
4.570000000000002
 21
74.23833333333333
 31
0.0
 12
0.0000000000000023
 22
75.0
 32
0.0
 13
0.0000000000000023
 23
75.0
 33
0.0
  0
SOLID
  5
402
330
18
100
AcDbEntity
  8
2
100
AcDbTrace
 10
95.43000000000001
 20
75.76166666666667
 30
0.0
 11
95.43000000000001
 21
74.23833333333333
 31
0.0
 12
100.0
 22
75.0
 32
0.0
 13
100.0
 23
75.0
 33
0.0
  0
LINE
  5
404
330
18
100
AcDbEntity
  8
SK2
100
AcDbLine
 10
121.0
 20
-12.49999994764012
 30
0.0
 11
121.0
 21
-50.0
 31
0.0
  0
LINE
  5
405
330
18
100
AcDbEntity
  8
SK2
100
AcDbLine
 10
100.0
 20
-29.0
 30
0.0
 11
100.0
 21
-50.0
 31
0.0
  0
LINE
  5
406
330
18
100
AcDbEntity
  8
SK2
100
AcDbLine
 10
116.43
 20
-45.0
 30
0.0
 11
104.5699999999999
 21
-45.0
 31
0.0
  0
SOLID
  5
407
330
18
100
AcDbEntity
  8
SK2
100
AcDbTrace
 10
116.43
 20
-44.23833333333333
 30
0.0
 11
116.43
 21
-45.76166666666667
 31
0.0
 12
121.0
 22
-45.0
 32
0.0
 13
121.0
 23
-45.0
 33
0.0
  0
SOLID
  5
408
330
18
100
AcDbEntity
  8
SK2
100
AcDbTrace
 10
104.5699999999999
 20
-44.23833333333333
 30
0.0
 11
104.5699999999999
 21
-45.76166666666667
 31
0.0
 12
100.0
 22
-45.0
 32
0.0
 13
100.0
 23
-45.0
 33
0.0
  0
TEXT
  5
40A
330
18
100
AcDbEntity
  8
SK2
100
AcDbText
 10
107.7797619047619
 20
-42.7
 30
0.0
 40
4.57
  1
21
  7
SIMPLEX
100
AcDbText
  0
TEXT
  5
40B
330
18
100
AcDbEntity
  8
2
100
AcDbText
 10
44.55952380952381
 20
77.3
 30
0.0
 40
4.57
  1
100
  7
SIMPLEX
100
AcDbText
  0
TEXT
  5
40C
330
18
100
AcDbEntity
  8
SK2
100
AcDbText
 10
152.7
 20
-5.766904761904768
 30
0.0
 40
4.57
  1
%%c
 50
90.0
  7
SIMPLEX
100
AcDbText
  0
TEXT
  5
40D
330
18
100
AcDbEntity
  8
SK2
100
AcDbText
 10
152.7
 20
-1.632142857142864
 30
0.0
 40
4.57
  1
60
 50
90.0
  7
SIMPLEX
100
AcDbText
  0
TEXT
  5
40E
330
18
100
AcDbEntity
  8
SK2
100
AcDbText
 10
137.7
 20
-5.766904761904757
 30
0.0
 40
4.57
  1
%%c
 50
90.0
  7
SIMPLEX
100
AcDbText
  0
TEXT
  5
40F
330
18
100
AcDbEntity
  8
SK2
100
AcDbText
 10
137.7
 20
-1.632142857142852
 30
0.0
 40
4.57
  1
27
 50
90.0
  7
SIMPLEX
100
AcDbText
  0
ENDSEC
  0
SECTION
  2
OBJECTS
  0
DICTIONARY
  5
C
330
0
100
AcDbDictionary
  3
ACAD_GROUP
350
D
  3
ACAD_LAYOUT
350
301
  3
ACAD_MLINESTYLE
350
E
  3
ACAD_PLOTSETTINGS
350
302
1001
ACAD
1000
TREAT_AS_HARD
1070
     0
  0
DICTIONARY
  5
411
330
18
100
AcDbDictionary
  3
ACAD_LAYOUTSELFREF
350
412
  0
DICTIONARY
  5
413
330
338
100
AcDbDictionary
  3
ACAD_LAYOUTSELFREF
350
414
  0
DICTIONARY
  5
D
102
{ACAD_REACTORS
330
C
102
}
330
C
100
AcDbDictionary
1001
ACAD
1000
TREAT_AS_HARD
1070
     0
  0
DICTIONARY
  5
301
102
{ACAD_REACTORS
330
C
102
}
330
C
100
AcDbDictionary
1001
ACAD
1000
TREAT_AS_HARD
1070
     0
  0
DICTIONARY
  5
E
102
{ACAD_REACTORS
330
C
102
}
330
C
100
AcDbDictionary
  3
STANDARD
350
1B
1001
ACAD
1000
TREAT_AS_HARD
1070
     0
  0
DICTIONARY
  5
302
102
{ACAD_REACTORS
330
C
102
}
330
C
100
AcDbDictionary
1001
ACAD
1000
TREAT_AS_HARD
1070
     0
  0
XRECORD
  5
412
102
{ACAD_REACTORS
330
411
102
}
330
411
100
AcDbXrecord
340
18
  0
XRECORD
  5
414
102
{ACAD_REACTORS
330
413
102
}
330
413
100
AcDbXrecord
340
338
  0
MLINESTYLE
  5
1B
102
{ACAD_REACTORS
330
E
102
}
330
E
100
AcDbMlineStyle
  2
STANDARD
 70
     0
  3

 62
     0
 51
90.0
 52
90.0
 71
     2
 49
0.5
 62
   256
  6
BYLAYER
 49
-0.5
 62
   256
  6
BYLAYER
  0
ENDSEC
  0
EOF
