  0
SECTION
  2
HEADER
  9
$ACADVER
  1
AC1012
  9
$DWGCODEPAGE
  3
ANSI_1252
  9
$INSBASE
 10
0.0
 20
0.0
 30
0.0
  9
$EXTMIN
 10
-104.8385298140794
 20
-85.01174816746697
 30
-0.0015258207003583
  9
$EXTMAX
 10
150.0039989773695
 20
81.8743904422438
 30
0.0000000349246037
  9
$LIMMIN
 10
-170.0
 20
-170.0
  9
$LIMMAX
 10
519.0
 20
260.0
  9
$ORTHOMODE
 70
     1
  9
$REGENMODE
 70
     1
  9
$FILLMODE
 70
     1
  9
$QTEXTMODE
 70
     0
  9
$MIRRTEXT
 70
     0
  9
$DRAGMODE
 70
     2
  9
$LTSCALE
 40
15.0
  9
$OSMODE
 70
     0
  9
$ATTMODE
 70
     1
  9
$TEXTSIZE
 40
4.57
  9
$TRACEWID
 40
0.05
  9
$TEXTSTYLE
  7
SIMPLEX
  9
$CLAYER
  8
SK2
  9
$CELTYPE
  6
BYLAYER
  9
$CECOLOR
 62
   256
  9
$CELTSCALE
 40
1.0
  9
$DELOBJ
 70
     1
  9
$DISPSILH
 70
     0
  9
$DIMSCALE
 40
0.0
  9
$DIMASZ
 40
4.57
  9
$DIMEXO
 40
0.0
  9
$DIMDLI
 40
0.38
  9
$DIMRND
 40
0.0
  9
$DIMDLE
 40
0.0
  9
$DIMEXE
 40
5.0
  9
$DIMTP
 40
0.0
  9
$DIMTM
 40
0.0
  9
$DIMTXT
 40
4.57
  9
$DIMCEN
 40
0.09
  9
$DIMTSZ
 40
0.0
  9
$DIMTOL
 70
     0
  9
$DIMLIM
 70
     0
  9
$DIMTIH
 70
     0
  9
$DIMTOH
 70
     0
  9
$DIMSE1
 70
     0
  9
$DIMSE2
 70
     0
  9
$DIMTAD
 70
     1
  9
$DIMZIN
 70
     8
  9
$DIMBLK
  1

  9
$DIMASO
 70
     1
  9
$DIMSHO
 70
     1
  9
$DIMPOST
  1

  9
$DIMAPOST
  1

  9
$DIMALT
 70
     0
  9
$DIMALTD
 70
     2
  9
$DIMALTF
 40
25.4
  9
$DIMLFAC
 40
1.0
  9
$DIMTOFL
 70
     0
  9
$DIMTVP
 40
0.0
  9
$DIMTIX
 70
     0
  9
$DIMSOXD
 70
     0
  9
$DIMSAH
 70
     0
  9
$DIMBLK1
  1

  9
$DIMBLK2
  1

  9
$DIMSTYLE
  2
STANDARD
  9
$DIMCLRD
 70
     0
  9
$DIMCLRE
 70
     0
  9
$DIMCLRT
 70
     0
  9
$DIMTFAC
 40
1.0
  9
$DIMGAP
 40
2.299999999999999
  9
$DIMJUST
 70
     0
  9
$DIMSD1
 70
     0
  9
$DIMSD2
 70
     0
  9
$DIMTOLJ
 70
     1
  9
$DIMTZIN
 70
     0
  9
$DIMALTZ
 70
     0
  9
$DIMALTTZ
 70
     0
  9
$DIMFIT
 70
     3
  9
$DIMUPT
 70
     0
  9
$DIMUNIT
 70
     2
  9
$DIMDEC
 70
     2
  9
$DIMTDEC
 70
     4
  9
$DIMALTU
 70
     2
  9
$DIMALTTD
 70
     2
  9
$DIMTXSTY
  7
SIMPLEX
  9
$DIMAUNIT
 70
     0
  9
$LUNITS
 70
     2
  9
$LUPREC
 70
     2
  9
$SKETCHINC
 40
0.1
  9
$FILLETRAD
 40
0.0
  9
$AUNITS
 70
     0
  9
$AUPREC
 70
     0
  9
$MENU
  1
c:\tdm21\cad\caduti13\tdm13
  9
$ELEVATION
 40
0.0
  9
$PELEVATION
 40
0.0
  9
$THICKNESS
 40
0.0
  9
$LIMCHECK
 70
     0
  9
$BLIPMODE
 70
     0
  9
$CHAMFERA
 40
0.0
  9
$CHAMFERB
 40
0.0
  9
$CHAMFERC
 40
0.0
  9
$CHAMFERD
 40
0.0
  9
$SKPOLY
 70
     0
  9
$TDCREATE
 40
2452418.919352199
  9
$TDUPDATE
 40
2452418.919352199
  9
$TDINDWG
 40
0.0159449074
  9
$TDUSRTIMER
 40
0.0159450231
  9
$USRTIMER
 70
     1
  9
$ANGBASE
 50
0.0
  9
$ANGDIR
 70
     0
  9
$PDMODE
 70
     1
  9
$PDSIZE
 40
0.0
  9
$PLINEWID
 40
0.0
  9
$COORDS
 70
     1
  9
$SPLFRAME
 70
     0
  9
$SPLINETYPE
 70
     6
  9
$SPLINESEGS
 70
     8
  9
$ATTDIA
 70
     0
  9
$ATTREQ
 70
     1
  9
$HANDLING
 70
  4097
  9
$HANDSEED
  5
434
  9
$SURFTAB1
 70
     6
  9
$SURFTAB2
 70
     6
  9
$SURFTYPE
 70
     6
  9
$SURFU
 70
     6
  9
$SURFV
 70
     6
  9
$UCSNAME
  2

  9
$UCSORG
 10
0.0
 20
0.0
 30
0.0
  9
$UCSXDIR
 10
1.0
 20
0.0
 30
0.0
  9
$UCSYDIR
 10
0.0
 20
1.0
 30
0.0
  9
$PUCSNAME
  2

  9
$PUCSORG
 10
0.0
 20
0.0
 30
0.0
  9
$PUCSXDIR
 10
1.0
 20
0.0
 30
0.0
  9
$PUCSYDIR
 10
0.0
 20
1.0
 30
0.0
  9
$USERI1
 70
     0
  9
$USERI2
 70
     0
  9
$USERI3
 70
     0
  9
$USERI4
 70
     0
  9
$USERI5
 70
     0
  9
$USERR1
 40
0.0
  9
$USERR2
 40
0.0
  9
$USERR3
 40
0.0
  9
$USERR4
 40
0.0
  9
$USERR5
 40
0.0
  9
$WORLDVIEW
 70
     1
  9
$SHADEDGE
 70
     3
  9
$SHADEDIF
 70
    70
  9
$TILEMODE
 70
     1
  9
$MAXACTVP
 70
    16
  9
$PINSBASE
 10
0.0
 20
0.0
 30
0.0
  9
$PLIMCHECK
 70
     0
  9
$PEXTMIN
 10
0.0
 20
0.0
 30
0.0
  9
$PEXTMAX
 10
0.0
 20
0.0
 30
0.0
  9
$PLIMMIN
 10
0.0
 20
0.0
  9
$PLIMMAX
 10
12.0
 20
9.0
  9
$UNITMODE
 70
     0
  9
$VISRETAIN
 70
     0
  9
$PLINEGEN
 70
     0
  9
$PSLTSCALE
 70
     1
  9
$TREEDEPTH
 70
  3020
  9
$PICKSTYLE
 70
     1
  9
$CMLSTYLE
  2
STANDARD
  9
$CMLJUST
 70
     0
  9
$CMLSCALE
 40
1.0
  9
$SAVEIMAGES
 70
     1
  0
ENDSEC
  0
SECTION
  2
CLASSES
  0
CLASS
  1
ACDBDICTIONARYWDFLT
  2
AcDbDictionaryWithDefault
  3
AutoCAD 2000
 90
    32768
280
     0
281
     0
  0
CLASS
  1
ACDBPLACEHOLDER
  2
AcDbPlaceHolder
  3
AutoCAD 2000
 90
    32768
280
     0
281
     0
  0
CLASS
  1
LAYOUT
  2
AcDbLayout
  3
AutoCAD 2000
 90
    32768
280
     0
281
     0
  0
CLASS
  1
LONG_TRANSACTION
  2
AcDbLongTransaction
  3
AutoCAD 2000
 90
    32768
280
     0
281
     0
  0
CLASS
  1
LWPOLYLINE
  2
AcDbPolyline
  3
AutoCAD 2000
 90
    32768
280
     0
281
     1
  0
CLASS
  1
HATCH
  2
AcDbHatch
  3
AutoCAD 2000
 90
    32768
280
     0
281
     1
  0
CLASS
  1
XRECORD
  2
AcDbXrecord
  3
AutoCAD 2000
 90
    32768
280
     0
281
     0
  0
ENDSEC
  0
SECTION
  2
TABLES
  0
TABLE
  2
VPORT
  5
8
330
0
100
AcDbSymbolTable
 70
     3
  0
VPORT
  5
42F
330
8
100
AcDbSymbolTableRecord
100
AcDbViewportTableRecord
  2
*ACTIVE
 70
     0
 10
0.0
 20
0.0
 11
1.0
 21
1.0
 12
22.58273458164501
 22
-1.568678862611591
 13
0.0
 23
0.0
 14
5.0
 24
5.0
 15
5.0
 25
5.0
 16
0.0
 26
0.0
 36
1.0
 17
0.0
 27
0.0
 37
0.0
 40
176.8861386097107
 41
2.07250755287009
 42
50.0
 43
0.0
 44
0.0
 50
0.0
 51
0.0
 71
     0
 72
   100
 73
     1
 74
     1
 75
     0
 76
     0
 77
     0
 78
     0
  0
ENDTAB
  0
TABLE
  2
LTYPE
  5
5
330
0
100
AcDbSymbolTable
 70
     4
  0
LTYPE
  5
12
330
5
100
AcDbSymbolTableRecord
100
AcDbLinetypeTableRecord
  2
BYBLOCK
 70
     0
  3

 72
    65
 73
     0
 40
0.0
  0
LTYPE
  5
13
330
5
100
AcDbSymbolTableRecord
100
AcDbLinetypeTableRecord
  2
BYLAYER
 70
     0
  3

 72
    65
 73
     0
 40
0.0
  0
LTYPE
  5
14
330
5
100
AcDbSymbolTableRecord
100
AcDbLinetypeTableRecord
  2
CONTINUOUS
 70
     0
  3
Solid line
 72
    65
 73
     0
 40
0.0
  0
LTYPE
  5
1F
330
5
100
AcDbSymbolTableRecord
100
AcDbLinetypeTableRecord
  2
CENTER
 70
     0
  3
____ . ____ . ____
 72
    65
 73
     4
 40
1.5
 49
1.0
 74
     0
 49
-0.25
 74
     0
 49
0.0
 74
     0
 49
-0.25
 74
     0
  0
LTYPE
  5
20
330
5
100
AcDbSymbolTableRecord
100
AcDbLinetypeTableRecord
  2
HIDDEN
 70
     0
  3
_ _ _ _ _ _ _ _ _ _ _ _ _ _ _ _ _ _ _ _ _ _ _
 72
    65
 73
     2
 40
0.375
 49
0.25
 74
     0
 49
-0.125
 74
     0
  0
LTYPE
  5
355
330
5
100
AcDbSymbolTableRecord
100
AcDbLinetypeTableRecord
  2
STRICHPUNKT
 70
     0
  3
__ . __ . __ . __ . __ . __ . __ . __ . __ . __ . __ . __ . _
 72
    65
 73
     4
 40
1.0
 49
0.5
 74
     0
 49
-0.25
 74
     0
 49
0.0
 74
     0
 49
-0.25
 74
     0
  0
ENDTAB
  0
TABLE
  2
LAYER
  5
2
330
0
100
AcDbSymbolTable
 70
    20
  0
LAYER
  5
F
330
2
100
AcDbSymbolTableRecord
100
AcDbLayerTableRecord
  2
0
 70
     0
 62
    -7
  6
CONTINUOUS
  0
LAYER
  5
23
330
2
100
AcDbSymbolTableRecord
100
AcDbLayerTableRecord
  2
1
 70
     0
 62
     4
  6
CONTINUOUS
  0
LAYER
  5
24
330
2
100
AcDbSymbolTableRecord
100
AcDbLayerTableRecord
  2
SK1
 70
     0
 62
     4
  6
CONTINUOUS
  0
LAYER
  5
25
330
2
100
AcDbSymbolTableRecord
100
AcDbLayerTableRecord
  2
2
 70
     0
 62
     7
  6
CONTINUOUS
  0
LAYER
  5
26
330
2
100
AcDbSymbolTableRecord
100
AcDbLayerTableRecord
  2
2L
 70
     0
 62
     7
  6
CONTINUOUS
  0
LAYER
  5
27
330
2
100
AcDbSymbolTableRecord
100
AcDbLayerTableRecord
  2
SK2
 70
     0
 62
     7
  6
CONTINUOUS
  0
LAYER
  5
28
330
2
100
AcDbSymbolTableRecord
100
AcDbLayerTableRecord
  2
3
 70
     0
 62
     1
  6
HIDDEN
  0
LAYER
  5
29
330
2
100
AcDbSymbolTableRecord
100
AcDbLayerTableRecord
  2
SK3
 70
     0
 62
     1
  6
HIDDEN
  0
LAYER
  5
2A
330
2
100
AcDbSymbolTableRecord
100
AcDbLayerTableRecord
  2
4
 70
     0
 62
    -2
  6
CENTER
  0
LAYER
  5
2B
330
2
100
AcDbSymbolTableRecord
100
AcDbLayerTableRecord
  2
SK4
 70
     0
 62
     2
  6
CENTER
  0
LAYER
  5
2C
330
2
100
AcDbSymbolTableRecord
100
AcDbLayerTableRecord
  2
5
 70
     0
 62
    -7
  6
CONTINUOUS
  0
LAYER
  5
2D
330
2
100
AcDbSymbolTableRecord
100
AcDbLayerTableRecord
  2
6
 70
     0
 62
     5
  6
CONTINUOUS
  0
LAYER
  5
2E
330
2
100
AcDbSymbolTableRecord
100
AcDbLayerTableRecord
  2
SK6
 70
     0
 62
     5
  6
CONTINUOUS
  0
LAYER
  5
2F
330
2
100
AcDbSymbolTableRecord
100
AcDbLayerTableRecord
  2
DEFPOINTS
 70
     0
 62
    -7
  6
CONTINUOUS
  0
LAYER
  5
356
330
2
100
AcDbSymbolTableRecord
100
AcDbLayerTableRecord
  2
1__1
 70
     0
 62
    -1
  6
CONTINUOUS
  0
LAYER
  5
358
330
2
100
AcDbSymbolTableRecord
100
AcDbLayerTableRecord
  2
BEMASS
 70
     0
 62
    -1
  6
CONTINUOUS
  0
ENDTAB
  0
TABLE
  2
STYLE
  5
3
330
0
100
AcDbSymbolTable
 70
     3
  0
STYLE
  5
10
330
3
100
AcDbSymbolTableRecord
100
AcDbTextStyleTableRecord
  2
STANDARD
 70
     0
 40
0.0
 41
1.0
 50
0.0
 71
     0
 42
5.0
  3
txt
  4

  0
STYLE
  5
1D
330
3
100
AcDbSymbolTableRecord
100
AcDbTextStyleTableRecord
  2
TXT
 70
     0
 40
8.0
 41
1.0
 50
0.0
 71
     0
 42
8.0
  3
txt
  4

  0
STYLE
  5
1E
330
3
100
AcDbSymbolTableRecord
100
AcDbTextStyleTableRecord
  2
SIMPLEX
 70
     0
 40
0.0
 41
1.0
 50
0.0
 71
     0
 42
4.57
  3
simplex
  4

  0
ENDTAB
  0
TABLE
  2
VIEW
  5
6
330
0
100
AcDbSymbolTable
 70
     0
  0
ENDTAB
  0
TABLE
  2
UCS
  5
7
330
0
100
AcDbSymbolTable
 70
     0
  0
ENDTAB
  0
TABLE
  2
APPID
  5
9
330
0
100
AcDbSymbolTable
 70
     1
  0
APPID
  5
11
330
9
100
AcDbSymbolTableRecord
100
AcDbRegAppTableRecord
  2
ACAD
 70
     0
  0
ENDTAB
  0
TABLE
  2
DIMSTYLE
  5
A
330
0
100
AcDbSymbolTable
 70
     1
  0
DIMSTYLE
105
3F
102
{ACAD_REACTORS
330
3E9
330
3F6
330
40F
330
3DC
102
}
330
A
100
AcDbSymbolTableRecord
100
AcDbDimStyleTableRecord
  2
STANDARD
 70
     0
  3

  4

  5

  6

  7

 40
0.0
 41
4.57
 42
0.0
 43
0.38
 44
5.0
 45
0.0
 46
0.0
 47
0.0
 48
0.0
140
4.57
141
0.09
142
0.0
143
25.4
144
1.0
145
0.0
146
1.0
147
2.299999999999999
 71
     0
 72
     0
 73
     0
 74
     0
 75
     0
 76
     0
 77
     1
 78
     8
170
     0
171
     2
172
     0
173
     0
174
     0
175
     0
176
     0
177
     0
178
     0
270
     2
271
     2
272
     4
273
     2
274
     2
340
1E
275
     0
280
     0
281
     0
282
     0
283
     1
284
     0
285
     0
286
     0
287
     3
288
     0
  0
ENDTAB
  0
TABLE
  2
BLOCK_RECORD
  5
1
330
0
100
AcDbSymbolTable
 70
     8
  0
BLOCK_RECORD
  5
18
102
{ACAD_XDICTIONARY
360
430
102
}
330
1
100
AcDbSymbolTableRecord
100
AcDbBlockTableRecord
  2
*MODEL_SPACE
  0
BLOCK_RECORD
  5
338
102
{ACAD_XDICTIONARY
360
432
102
}
330
1
100
AcDbSymbolTableRecord
100
AcDbBlockTableRecord
  2
*PAPER_SPACE
  0
BLOCK_RECORD
  5
345
330
1
100
AcDbSymbolTableRecord
100
AcDbBlockTableRecord
  2
G_F974
  0
BLOCK_RECORD
  5
349
330
1
100
AcDbSymbolTableRecord
100
AcDbBlockTableRecord
  2
G_F8FC
  0
BLOCK_RECORD
  5
34D
330
1
100
AcDbSymbolTableRecord
100
AcDbBlockTableRecord
  2
G_F96A
  0
BLOCK_RECORD
  5
351
330
1
100
AcDbSymbolTableRecord
100
AcDbBlockTableRecord
  2
G_F8E8
  0
BLOCK_RECORD
  5
3DD
330
1
100
AcDbSymbolTableRecord
100
AcDbBlockTableRecord
  2
*D4
  0
BLOCK_RECORD
  5
3EA
330
1
100
AcDbSymbolTableRecord
100
AcDbBlockTableRecord
  2
*D5
  0
BLOCK_RECORD
  5
3F7
330
1
100
AcDbSymbolTableRecord
100
AcDbBlockTableRecord
  2
*D6
  0
BLOCK_RECORD
  5
410
330
1
100
AcDbSymbolTableRecord
100
AcDbBlockTableRecord
  2
*D7
  0
ENDTAB
  0
ENDSEC
  0
SECTION
  2
BLOCKS
  0
BLOCK
  5
32
330
18
100
AcDbEntity
  8
0
100
AcDbBlockBegin
  2
*MODEL_SPACE
 70
     0
 10
0.0
 20
0.0
 30
0.0
  3
*MODEL_SPACE
  1

  0
ENDBLK
  5
33
330
18
100
AcDbEntity
  8
0
100
AcDbBlockEnd
  0
BLOCK
  5
339
330
338
100
AcDbEntity
 67
     1
  8
0
100
AcDbBlockBegin
  2
*PAPER_SPACE
 70
     0
 10
0.0
 20
0.0
 30
0.0
  3
*PAPER_SPACE
  1

  0
ENDBLK
  5
33A
330
338
100
AcDbEntity
 67
     1
  8
0
100
AcDbBlockEnd
  0
BLOCK
  5
347
330
345
100
AcDbEntity
  8
BEMASS
 62
     3
100
AcDbBlockBegin
  2
G_F974
 70
     0
 10
0.0
 20
0.0
 30
0.0
  3
G_F974
  1

  0
CIRCLE
  5
346
330
345
100
AcDbEntity
  8
BEMASS
  6
CONTINUOUS
 62
     3
100
AcDbCircle
 10
0.0
 20
0.0
 30
0.0
 40
0.25
  0
ENDBLK
  5
348
330
345
100
AcDbEntity
  8
0
100
AcDbBlockEnd
  0
BLOCK
  5
34B
330
349
100
AcDbEntity
  8
BEMASS
 62
     3
100
AcDbBlockBegin
  2
G_F8FC
 70
     0
 10
0.0
 20
0.0
 30
0.0
  3
G_F8FC
  1

  0
TEXT
  5
34A
330
349
100
AcDbEntity
  8
BEMASS
 62
     5
100
AcDbText
 10
-3.85
 20
-1.75
 30
0.0
 40
3.499151999999999
  1
M16
 41
0.8890459999999999
100
AcDbText
  0
ENDBLK
  5
34C
330
349
100
AcDbEntity
  8
0
100
AcDbBlockEnd
  0
BLOCK
  5
34F
330
34D
100
AcDbEntity
  8
BEMASS
 62
     3
100
AcDbBlockBegin
  2
G_F96A
 70
     0
 10
0.0
 20
0.0
 30
0.0
  3
G_F96A
  1

  0
CIRCLE
  5
34E
330
34D
100
AcDbEntity
  8
BEMASS
  6
CONTINUOUS
 62
     3
100
AcDbCircle
 10
0.0
 20
0.0
 30
0.0
 40
0.25
  0
ENDBLK
  5
350
330
34D
100
AcDbEntity
  8
0
100
AcDbBlockEnd
  0
BLOCK
  5
353
330
351
100
AcDbEntity
  8
BEMASS
 62
     3
100
AcDbBlockBegin
  2
G_F8E8
 70
     0
 10
0.0
 20
0.0
 30
0.0
  3
G_F8E8
  1

  0
TEXT
  5
352
330
351
100
AcDbEntity
  8
BEMASS
 62
     5
100
AcDbText
 10
-3.85
 20
-1.75
 30
0.0
 40
3.499151999999999
  1
M30
 41
0.8890459999999999
100
AcDbText
  0
ENDBLK
  5
354
330
351
100
AcDbEntity
  8
0
100
AcDbBlockEnd
  0
BLOCK
  5
3E7
330
3DD
100
AcDbEntity
  8
0
100
AcDbBlockBegin
  2
*D4
 70
     1
 10
0.0
 20
0.0
 30
0.0
  3
*D4
  1

  0
LINE
  5
3DE
330
3DD
100
AcDbEntity
  8
2
 62
     0
100
AcDbLine
 10
0.0
 20
37.53299999999999
 30
0.0
 11
0.0000000000000026
 21
80.0
 31
0.0
  0
LINE
  5
3DF
330
3DD
100
AcDbEntity
  8
2
 62
     0
100
AcDbLine
 10
70.00000000000003
 20
62.50000000000002
 30
0.0
 11
70.00000000000003
 21
80.0
 31
0.0
  0
LINE
  5
3E0
330
3DD
100
AcDbEntity
  8
2
 62
     0
100
AcDbLine
 10
4.570000000000002
 20
75.0
 30
0.0
 11
65.43000000000003
 21
75.0
 31
0.0
  0
SOLID
  5
3E1
330
3DD
100
AcDbEntity
  8
2
 62
     0
100
AcDbTrace
 10
4.570000000000002
 20
75.76166666666667
 30
0.0
 11
4.570000000000002
 21
74.23833333333333
 31
0.0
 12
0.0000000000000023
 22
75.0
 32
0.0
 13
0.0000000000000023
 23
75.0
 33
0.0
  0
SOLID
  5
3E2
330
3DD
100
AcDbEntity
  8
2
 62
     0
100
AcDbTrace
 10
65.43000000000003
 20
75.76166666666667
 30
0.0
 11
65.43000000000003
 21
74.23833333333333
 31
0.0
 12
70.00000000000003
 22
75.0
 32
0.0
 13
70.00000000000003
 23
75.0
 33
0.0
  0
MTEXT
  5
3E3
330
3DD
100
AcDbEntity
  8
2
 62
     0
100
AcDbMText
 10
35.00000000000002
 20
79.58499999999999
 30
0.0
 40
4.57
 41
0.0
 71
     5
 72
     1
  1
\A1;70
  7
SIMPLEX
1001
ACAD
1000
MTEXTBEGIN
1070
    73
1070
     1
1070
    44
1040
1.0
1070
    74
1070
     0
1000
MTEXTEND
  0
POINT
  5
3E4
330
3DD
100
AcDbEntity
  8
DEFPOINTS
 62
     0
100
AcDbPoint
 10
0.0
 20
37.53299999999999
 30
0.0
  0
POINT
  5
3E5
330
3DD
100
AcDbEntity
  8
DEFPOINTS
 62
     0
100
AcDbPoint
 10
70.00000000000003
 20
62.50000000000002
 30
0.0
  0
POINT
  5
3E6
330
3DD
100
AcDbEntity
  8
DEFPOINTS
 62
     0
100
AcDbPoint
 10
70.00000000000003
 20
75.0
 30
0.0
  0
ENDBLK
  5
3E8
330
3DD
100
AcDbEntity
  8
0
100
AcDbBlockEnd
  0
BLOCK
  5
3F4
330
3EA
100
AcDbEntity
  8
0
100
AcDbBlockBegin
  2
*D5
 70
     1
 10
0.0
 20
0.0
 30
0.0
  3
*D5
  1

  0
LINE
  5
3EB
330
3EA
100
AcDbEntity
  8
SK2
 62
     0
100
AcDbLine
 10
109.0
 20
29.99999999999999
 30
0.0
 11
135.0
 21
29.99999999999999
 31
0.0
  0
LINE
  5
3EC
330
3EA
100
AcDbEntity
  8
SK2
 62
     0
100
AcDbLine
 10
109.0
 20
-30.0
 30
0.0
 11
135.0
 21
-30.0
 31
0.0
  0
LINE
  5
3ED
330
3EA
100
AcDbEntity
  8
SK2
 62
     0
100
AcDbLine
 10
130.0
 20
25.42999999999999
 30
0.0
 11
130.0
 21
-25.43000000000001
 31
0.0
  0
SOLID
  5
3EE
330
3EA
100
AcDbEntity
  8
SK2
 62
     0
100
AcDbTrace
 10
129.2383333333333
 20
25.42999999999999
 30
0.0
 11
130.7616666666666
 21
25.42999999999999
 31
0.0
 12
130.0
 22
29.99999999999999
 32
0.0
 13
130.0
 23
29.99999999999999
 33
0.0
  0
SOLID
  5
3EF
330
3EA
100
AcDbEntity
  8
SK2
 62
     0
100
AcDbTrace
 10
129.2383333333333
 20
-25.43000000000001
 30
0.0
 11
130.7616666666666
 21
-25.43000000000001
 31
0.0
 12
130.0
 22
-30.0
 32
0.0
 13
130.0
 23
-30.0
 33
0.0
  0
MTEXT
  5
3F0
330
3EA
100
AcDbEntity
  8
SK2
 62
     0
100
AcDbMText
 10
125.415
 20
0.0000000000000121
 30
0.0
 40
4.57
 41
0.0
 71
     5
 72
     1
  1
\A1;60
  7
SIMPLEX
 11
0.0000000000000001
 21
1.0
 31
0.0
1001
ACAD
1000
MTEXTBEGIN
1070
    73
1070
     1
1070
    44
1040
1.0
1070
    74
1070
     0
1000
MTEXTEND
  0
POINT
  5
3F1
330
3EA
100
AcDbEntity
  8
DEFPOINTS
 62
     0
100
AcDbPoint
 10
109.0
 20
29.99999999999999
 30
0.0
  0
POINT
  5
3F2
330
3EA
100
AcDbEntity
  8
DEFPOINTS
 62
     0
100
AcDbPoint
 10
109.0
 20
-30.0
 30
0.0
  0
POINT
  5
3F3
330
3EA
100
AcDbEntity
  8
DEFPOINTS
 62
     0
100
AcDbPoint
 10
130.0
 20
-30.0
 30
0.0
  0
ENDBLK
  5
3F5
330
3EA
100
AcDbEntity
  8
0
100
AcDbBlockEnd
  0
BLOCK
  5
401
330
3F7
100
AcDbEntity
  8
0
100
AcDbBlockBegin
  2
*D6
 70
     1
 10
0.0
 20
0.0
 30
0.0
  3
*D6
  1

  0
LINE
  5
3F8
330
3F7
100
AcDbEntity
  8
SK2
 62
     0
100
AcDbLine
 10
69.0
 20
63.49999999999999
 30
0.0
 11
150.0
 21
63.49999999999996
 31
0.0
  0
LINE
  5
3F9
330
3F7
100
AcDbEntity
  8
SK2
 62
     0
100
AcDbLine
 10
69.0
 20
-63.49999999999999
 30
0.0
 11
150.0
 21
-63.50000000000002
 31
0.0
  0
LINE
  5
3FA
330
3F7
100
AcDbEntity
  8
SK2
 62
     0
100
AcDbLine
 10
145.0
 20
58.92999999999997
 30
0.0
 11
145.0
 21
-58.93000000000002
 31
0.0
  0
SOLID
  5
3FB
330
3F7
100
AcDbEntity
  8
SK2
 62
     0
100
AcDbTrace
 10
144.2383333333333
 20
58.92999999999997
 30
0.0
 11
145.7616666666666
 21
58.92999999999997
 31
0.0
 12
145.0
 22
63.49999999999996
 32
0.0
 13
145.0
 23
63.49999999999996
 33
0.0
  0
SOLID
  5
3FC
330
3F7
100
AcDbEntity
  8
SK2
 62
     0
100
AcDbTrace
 10
144.2383333333333
 20
-58.93000000000002
 30
0.0
 11
145.7616666666666
 21
-58.93000000000002
 31
0.0
 12
145.0
 22
-63.50000000000002
 32
0.0
 13
145.0
 23
-63.50000000000002
 33
0.0
  0
MTEXT
  5
3FD
330
3F7
100
AcDbEntity
  8
SK2
 62
     0
100
AcDbMText
 10
140.415
 20
-0.0000000000000012
 30
0.0
 40
4.57
 41
0.0
 71
     5
 72
     1
  1
\A1;127
  7
SIMPLEX
 11
0.0000000000000001
 21
1.0
 31
0.0
1001
ACAD
1000
MTEXTBEGIN
1070
    73
1070
     1
1070
    44
1040
1.0
1070
    74
1070
     0
1000
MTEXTEND
  0
POINT
  5
3FE
330
3F7
100
AcDbEntity
  8
DEFPOINTS
 62
     0
100
AcDbPoint
 10
69.0
 20
63.49999999999999
 30
0.0
  0
POINT
  5
3FF
330
3F7
100
AcDbEntity
  8
DEFPOINTS
 62
     0
100
AcDbPoint
 10
69.0
 20
-63.49999999999999
 30
0.0
  0
POINT
  5
400
330
3F7
100
AcDbEntity
  8
DEFPOINTS
 62
     0
100
AcDbPoint
 10
145.0
 20
-63.50000000000002
 30
0.0
  0
ENDBLK
  5
402
330
3F7
100
AcDbEntity
  8
0
100
AcDbBlockEnd
  0
BLOCK
  5
41A
330
410
100
AcDbEntity
  8
0
100
AcDbBlockBegin
  2
*D7
 70
     1
 10
0.0
 20
0.0
 30
0.0
  3
*D7
  1

  0
LINE
  5
411
330
410
100
AcDbEntity
  8
SK2
 62
     0
100
AcDbLine
 10
110.0
 20
-29.0
 30
0.0
 11
110.0
 21
-85.0
 31
0.0
  0
LINE
  5
412
330
410
100
AcDbEntity
  8
SK2
 62
     0
100
AcDbLine
 10
70.00000000000004
 20
-62.49999999999972
 30
0.0
 11
70.00000000000004
 21
-85.0
 31
0.0
  0
LINE
  5
413
330
410
100
AcDbEntity
  8
SK2
 62
     0
100
AcDbLine
 10
105.43
 20
-80.0
 30
0.0
 11
74.57000000000005
 21
-80.0
 31
0.0
  0
SOLID
  5
414
330
410
100
AcDbEntity
  8
SK2
 62
     0
100
AcDbTrace
 10
105.43
 20
-79.23833333333333
 30
0.0
 11
105.43
 21
-80.76166666666667
 31
0.0
 12
110.0
 22
-80.0
 32
0.0
 13
110.0
 23
-80.0
 33
0.0
  0
SOLID
  5
415
330
410
100
AcDbEntity
  8
SK2
 62
     0
100
AcDbTrace
 10
74.57000000000005
 20
-79.23833333333333
 30
0.0
 11
74.57000000000005
 21
-80.76166666666667
 31
0.0
 12
70.00000000000004
 22
-80.0
 32
0.0
 13
70.00000000000004
 23
-80.0
 33
0.0
  0
MTEXT
  5
416
330
410
100
AcDbEntity
  8
SK2
 62
     0
100
AcDbMText
 10
90.00000000000003
 20
-75.415
 30
0.0
 40
4.57
 41
0.0
 71
     5
 72
     1
  1
\A1;40
  7
SIMPLEX
1001
ACAD
1000
MTEXTBEGIN
1070
    73
1070
     1
1070
    44
1040
1.0
1070
    74
1070
     0
1000
MTEXTEND
  0
POINT
  5
417
330
410
100
AcDbEntity
  8
DEFPOINTS
 62
     0
100
AcDbPoint
 10
110.0
 20
-29.0
 30
0.0
  0
POINT
  5
418
330
410
100
AcDbEntity
  8
DEFPOINTS
 62
     0
100
AcDbPoint
 10
70.00000000000004
 20
-62.49999999999972
 30
0.0
  0
POINT
  5
419
330
410
100
AcDbEntity
  8
DEFPOINTS
 62
     0
100
AcDbPoint
 10
70.00000000000004
 20
-80.0
 30
0.0
  0
ENDBLK
  5
41B
330
410
100
AcDbEntity
  8
0
100
AcDbBlockEnd
  0
ENDSEC
  0
SECTION
  2
ENTITIES
  0
LINE
  5
35C
330
18
100
AcDbEntity
  8
1
100
AcDbLine
 10
19.09999999999999
 20
38.99999999999999
 30
0.0
 11
19.09999999999999
 21
-39.0
 31
0.0
  0
LINE
  5
35D
330
18
100
AcDbEntity
  8
1
100
AcDbLine
 10
3.199999999999995
 20
-29.975
 30
0.0
 11
19.09999999999999
 21
-29.975
 31
0.0
  0
LINE
  5
35E
330
18
100
AcDbEntity
  8
1
100
AcDbLine
 10
3.199999999999995
 20
-12.82499999999999
 30
0.0
 11
19.09999999999999
 21
-12.82499999999999
 31
0.0
  0
LINE
  5
35F
330
18
100
AcDbEntity
  8
1
100
AcDbLine
 10
3.199999999999995
 20
12.875
 30
0.0
 11
19.09999999999999
 21
12.875
 31
0.0
  0
LINE
  5
360
330
18
100
AcDbEntity
  8
1
100
AcDbLine
 10
3.199999999999995
 20
36.02699999999999
 30
0.0
 11
3.199999999999995
 21
-36.027
 31
0.0
  0
LINE
  5
361
330
18
100
AcDbEntity
  8
1
100
AcDbLine
 10
0.6999999999999958
 20
35.02699999999999
 30
0.0
 11
0.6999999999999958
 21
-35.027
 31
0.0
  0
POINT
  5
362
330
18
100
AcDbEntity
  8
1__1
 62
     7
100
AcDbPoint
 10
0.0
 20
0.0
 30
0.0
  0
ARC
  5
363
330
18
100
AcDbEntity
  8
1
100
AcDbCircle
 10
2.199999999999995
 20
36.02699999999999
 30
0.0
 40
1.0
100
AcDbArc
 50
270.0
 51
359.999969
  0
LINE
  5
364
330
18
100
AcDbEntity
  8
1
100
AcDbLine
 10
2.199999999999995
 20
35.02699999999999
 30
0.0
 11
0.6999999999999958
 21
35.02699999999999
 31
0.0
  0
ARC
  5
365
330
18
100
AcDbEntity
  8
1
100
AcDbCircle
 10
2.199999999999995
 20
-36.027
 30
0.0
 40
1.0
100
AcDbArc
 50
0.000003
 51
89.99999200000001
  0
LINE
  5
366
330
18
100
AcDbEntity
  8
1
100
AcDbLine
 10
0.6999999999999958
 20
-35.027
 30
0.0
 11
2.199999999999995
 21
-35.027
 31
0.0
  0
ARC
  5
367
330
18
100
AcDbEntity
  8
1
100
AcDbCircle
 10
18.09999999999999
 20
47.74999999999999
 30
0.0
 40
1.0
100
AcDbArc
 50
0.000007
 51
90.0
  0
ARC
  5
368
330
18
100
AcDbEntity
  8
1
100
AcDbCircle
 10
4.199999999999995
 20
47.74999999999999
 30
0.0
 40
1.0
100
AcDbArc
 50
90.000008
 51
180.0
  0
ARC
  5
369
330
18
100
AcDbEntity
  8
1
100
AcDbCircle
 10
18.09999999999999
 20
-47.75
 30
0.0
 40
1.0
100
AcDbArc
 50
270.0
 51
0.0
  0
ARC
  5
36A
330
18
100
AcDbEntity
  8
1
100
AcDbCircle
 10
4.199999999999995
 20
-47.75
 30
0.0
 40
1.0
100
AcDbArc
 50
180.0
 51
270.0
  0
ARC
  5
36B
330
18
100
AcDbEntity
  8
1
100
AcDbCircle
 10
-99.25
 20
-17.924
 30
0.0
 40
2.5
100
AcDbArc
 50
180.0
 51
261.69812
  0
ARC
  5
36C
330
18
100
AcDbEntity
  8
1
100
AcDbCircle
 10
-99.25
 20
17.92399999999999
 30
0.0
 40
2.5
100
AcDbArc
 50
98.30191000000001
 51
180.0
  0
LINE
  5
36D
330
18
100
AcDbEntity
  8
SK1
100
AcDbLine
 10
80.5
 20
-10.42999999999999
 30
0.0
 11
80.5
 21
0.0
 31
0.0
  0
LINE
  5
36E
330
18
100
AcDbEntity
  8
SK1
100
AcDbLine
 10
80.5
 20
10.42999999999999
 30
0.0
 11
80.5
 21
0.0
 31
0.0
  0
LINE
  5
36F
330
18
100
AcDbEntity
  8
SK1
100
AcDbLine
 10
79.90099999999999
 20
11.295
 30
0.0
 11
70.0
 21
-12.75
 31
0.0
  0
LINE
  5
370
330
18
100
AcDbEntity
  8
SK1
100
AcDbLine
 10
70.0
 20
12.75
 30
0.0
 11
79.90099999999999
 21
-11.295
 31
0.0
  0
ARC
  5
371
330
18
100
AcDbEntity
  8
SK1
100
AcDbCircle
 10
82.00799999999999
 20
7.426999999999999
 30
0.0
 40
3.362
100
AcDbArc
 50
81.58549499999999
 51
116.6488949999999
  0
ARC
  5
372
330
18
100
AcDbEntity
  8
SK1
100
AcDbCircle
 10
75.64599999999998
 20
7.707999999999998
 30
0.0
 40
5.565999999999999
100
AcDbArc
 50
29.30055
 51
64.98185699999999
  0
ARC
  5
373
330
18
100
AcDbEntity
  8
SK1
100
AcDbCircle
 10
82.00799999999999
 20
-7.423000000000001
 30
0.0
 40
3.362
100
AcDbArc
 50
243.3511049999999
 51
278.41452
  0
ARC
  5
374
330
18
100
AcDbEntity
  8
SK1
100
AcDbCircle
 10
75.64599999999998
 20
-7.704
 30
0.0
 40
5.565999999999999
100
AcDbArc
 50
295.0181269999999
 51
330.6994629999999
  0
ARC
  5
375
330
18
100
AcDbEntity
  8
SK1
100
AcDbCircle
 10
70.4
 20
30.3
 30
0.0
 40
0.6
100
AcDbArc
 50
228.190521
 51
270.0
  0
ARC
  5
376
330
18
100
AcDbEntity
  8
SK1
100
AcDbCircle
 10
70.4
 20
-30.3
 30
0.0
 40
0.6
100
AcDbArc
 50
90.0
 51
131.809479
  0
LINE
  5
377
330
18
100
AcDbEntity
  8
SK1
100
AcDbLine
 10
110.0
 20
-29.0
 30
0.0
 11
110.0
 21
28.99999999999999
 31
0.0
  0
LINE
  5
378
330
18
100
AcDbEntity
  8
SK4
100
AcDbLine
 10
11.14999999999999
 20
-50.942
 30
0.0
 11
11.14999999999999
 21
-0.0320000000000036
 31
0.0
  0
LINE
  5
379
330
18
100
AcDbEntity
  8
SK4
100
AcDbLine
 10
11.14999999999999
 20
50.87800000000001
 30
0.0
 11
11.14999999999999
 21
-0.0320000000000036
 31
0.0
  0
LINE
  5
37A
330
18
100
AcDbEntity
  8
1
100
AcDbLine
 10
35.09999999999999
 20
39.99999999999999
 30
0.0
 11
35.09999999999999
 21
59.49999999999999
 31
0.0
  0
LINE
  5
37B
330
18
100
AcDbEntity
  8
1
100
AcDbLine
 10
70.00000000000004
 20
-62.49999999999972
 30
0.0
 11
70.0
 21
62.5
 31
0.0
  0
LINE
  5
37D
330
18
100
AcDbEntity
  8
4
100
AcDbLine
 10
-104.81
 20
0.0
 30
0.0
 11
70.00000000000003
 21
0.0
 31
0.0
  0
LINE
  5
37E
330
18
100
AcDbEntity
  8
SK4
100
AcDbLine
 10
76.356
 20
50.79999999999999
 30
0.0
 11
52.01900000000001
 21
50.79999999999999
 31
0.0
  0
LINE
  5
380
330
18
100
AcDbEntity
  8
1
100
AcDbLine
 10
20.09999999999999
 20
38.99999999999999
 30
0.0
 11
34.09999999999999
 21
38.99999999999999
 31
0.0
  0
LINE
  5
381
330
18
100
AcDbEntity
  8
1
100
AcDbLine
 10
35.09999999999999
 20
39.99999999999999
 30
0.0
 11
35.09999999999999
 21
-40.0
 31
0.0
  0
ARC
  5
382
330
18
100
AcDbEntity
  8
1
100
AcDbCircle
 10
20.09999999999999
 20
39.99999999999999
 30
0.0
 40
1.0
100
AcDbArc
 50
180.0
 51
270.0
  0
LINE
  5
383
330
18
100
AcDbEntity
  8
4
100
AcDbLine
 10
0.0
 20
37.53299999999999
 30
0.0
 11
0.0
 21
-38.791
 31
0.0
  0
LINE
  5
384
330
18
100
AcDbEntity
  8
SK4
100
AcDbLine
 10
76.356
 20
-50.8
 30
0.0
 11
52.01900000000001
 21
-50.8
 31
0.0
  0
ARC
  5
385
330
18
100
AcDbEntity
  8
1
100
AcDbCircle
 10
34.09999999999999
 20
39.99999999999999
 30
0.0
 40
1.0
100
AcDbArc
 50
270.0
 51
0.000009
  0
ARC
  5
386
330
18
100
AcDbEntity
  8
1
100
AcDbCircle
 10
39.09999999999999
 20
59.49999999999999
 30
0.0
 40
4.0
100
AcDbArc
 50
90.0
 51
180.0
  0
LINE
  5
387
330
18
100
AcDbEntity
  8
1
100
AcDbLine
 10
39.09999999999999
 20
63.49999999999999
 30
0.0
 11
69.0
 21
63.49999999999999
 31
0.0
  0
LINE
  5
389
330
18
100
AcDbEntity
  8
SK1
100
AcDbLine
 10
71.30099999999998
 20
29.69999999999999
 30
0.0
 11
70.4
 21
29.69999999999999
 31
0.0
  0
ARC
  5
38A
330
18
100
AcDbEntity
  8
SK1
100
AcDbCircle
 10
71.30099999999998
 20
30.3
 30
0.0
 40
0.6
100
AcDbArc
 50
270.0000309999999
 51
284.962006
  0
LINE
  5
38B
330
18
100
AcDbEntity
  8
SK1
100
AcDbLine
 10
72.5
 20
29.99999999999999
 30
0.0
 11
71.45599999999999
 21
29.72
 31
0.0
  0
ARC
  5
38C
330
18
100
AcDbEntity
  8
SK1
100
AcDbCircle
 10
109.0
 20
28.99999999999999
 30
0.0
 40
1.0
100
AcDbArc
 50
0.000008
 51
90.0
  0
ARC
  5
38D
330
18
100
AcDbEntity
  8
SK1
100
AcDbCircle
 10
109.0
 20
-29.0
 30
0.0
 40
1.0
100
AcDbArc
 50
270.0
 51
0.0
  0
LINE
  5
38E
330
18
100
AcDbEntity
  8
SK1
100
AcDbLine
 10
72.5
 20
-30.0
 30
0.0
 11
71.45599999999999
 21
-29.72
 31
0.0
  0
ARC
  5
38F
330
18
100
AcDbEntity
  8
SK1
100
AcDbCircle
 10
71.30099999999998
 20
-30.3
 30
0.0
 40
0.6
100
AcDbArc
 50
75.038002
 51
89.99997699999999
  0
LINE
  5
390
330
18
100
AcDbEntity
  8
SK1
100
AcDbLine
 10
71.30099999999998
 20
-29.7
 30
0.0
 11
70.4
 21
-29.7
 31
0.0
  0
LINE
  5
392
330
18
100
AcDbEntity
  8
1
100
AcDbLine
 10
39.09999999999999
 20
-63.5
 30
0.0
 11
69.0
 21
-63.50000000000001
 31
0.0
  0
ARC
  5
393
330
18
100
AcDbEntity
  8
1
100
AcDbCircle
 10
39.09999999999999
 20
-59.5
 30
0.0
 40
4.0
100
AcDbArc
 50
180.0
 51
270.0
  0
LINE
  5
394
330
18
100
AcDbEntity
  8
1
100
AcDbLine
 10
35.09999999999999
 20
-40.0
 30
0.0
 11
35.09999999999999
 21
-59.5
 31
0.0
  0
ARC
  5
395
330
18
100
AcDbEntity
  8
1
100
AcDbCircle
 10
34.09999999999999
 20
-40.0
 30
0.0
 40
1.0
100
AcDbArc
 50
0.0
 51
89.99999200000001
  0
ARC
  5
396
330
18
100
AcDbEntity
  8
1
100
AcDbCircle
 10
20.09999999999999
 20
-40.0
 30
0.0
 40
1.0
100
AcDbArc
 50
90.0
 51
180.0
  0
LINE
  5
397
330
18
100
AcDbEntity
  8
1
100
AcDbLine
 10
20.09999999999999
 20
-39.0
 30
0.0
 11
34.09999999999999
 21
-39.0
 31
0.0
  0
LINE
  5
39A
330
18
100
AcDbEntity
  8
SK1
100
AcDbLine
 10
109.0
 20
29.99999999999999
 30
0.0
 11
72.5
 21
29.99999999999999
 31
0.0
  0
LINE
  5
39D
330
18
100
AcDbEntity
  8
SK1
100
AcDbLine
 10
109.0
 20
-30.0
 30
0.0
 11
72.5
 21
-30.0
 31
0.0
  0
LINE
  5
39E
330
18
100
AcDbEntity
  8
SK1
100
AcDbLine
 10
71.38099999999998
 20
12.75
 30
0.0
 11
71.38099999999998
 21
28.893
 31
0.0
  0
LINE
  5
39F
330
18
100
AcDbEntity
  8
SK1
100
AcDbLine
 10
71.38099999999998
 20
-28.824
 30
0.0
 11
71.38099999999998
 21
-12.75
 31
0.0
  0
LINE
  5
3A0
330
18
100
AcDbEntity
  8
SK1
100
AcDbLine
 10
72.5
 20
-12.75
 30
0.0
 11
72.5
 21
-30.0
 31
0.0
  0
LINE
  5
3A1
330
18
100
AcDbEntity
  8
SK1
100
AcDbLine
 10
72.5
 20
29.99999999999999
 30
0.0
 11
72.5
 21
12.75
 31
0.0
  0
LINE
  5
3A2
330
18
100
AcDbEntity
  8
SK1
100
AcDbLine
 10
82.5
 20
10.74999999999999
 30
0.0
 11
82.5
 21
0.0
 31
0.0
  0
LINE
  5
3A3
330
18
100
AcDbEntity
  8
SK1
100
AcDbLine
 10
70.0
 20
0.0
 30
0.0
 11
70.0
 21
12.75
 31
0.0
  0
LINE
  5
3A4
330
18
100
AcDbEntity
  8
SK1
100
AcDbLine
 10
70.0
 20
12.75
 30
0.0
 11
80.5
 21
12.75
 31
0.0
  0
LINE
  5
3A5
330
18
100
AcDbEntity
  8
SK1
100
AcDbLine
 10
80.5
 20
12.75
 30
0.0
 11
82.5
 21
10.74999999999999
 31
0.0
  0
LINE
  5
3A6
330
18
100
AcDbEntity
  8
SK1
100
AcDbLine
 10
82.5
 20
-10.74999999999999
 30
0.0
 11
82.5
 21
0.0
 31
0.0
  0
LINE
  5
3A7
330
18
100
AcDbEntity
  8
SK1
100
AcDbLine
 10
70.0
 20
0.0
 30
0.0
 11
70.0
 21
-12.75
 31
0.0
  0
LINE
  5
3A8
330
18
100
AcDbEntity
  8
SK1
100
AcDbLine
 10
70.0
 20
-12.75
 30
0.0
 11
80.5
 21
-12.75
 31
0.0
  0
LINE
  5
3A9
330
18
100
AcDbEntity
  8
SK1
100
AcDbLine
 10
80.5
 20
-12.75
 30
0.0
 11
82.5
 21
-10.74999999999999
 31
0.0
  0
LINE
  5
3AA
330
18
100
AcDbEntity
  8
1
100
AcDbLine
 10
-99.611
 20
20.39899999999999
 30
0.0
 11
0.6999999999999958
 21
35.02699999999999
 31
0.0
  0
LINE
  5
3AB
330
18
100
AcDbEntity
  8
1
100
AcDbLine
 10
-101.75
 20
0.0159999999999983
 30
0.0
 11
-101.75
 21
17.92399999999999
 31
0.0
  0
LINE
  5
3AC
330
18
100
AcDbEntity
  8
1
100
AcDbLine
 10
-99.611
 20
-20.398
 30
0.0
 11
0.7019999999999982
 21
-35.027
 31
0.0
  0
LINE
  5
3AD
330
18
100
AcDbEntity
  8
1
100
AcDbLine
 10
-101.75
 20
-0.0160000000000054
 30
0.0
 11
-101.75
 21
-17.925
 31
0.0
  0
LINE
  5
3AE
330
18
100
AcDbEntity
  8
SK2
100
AcDbLine
 10
110.0
 20
0.0
 30
0.0
 11
130.977
 21
-45.40178866373731
 31
0.0
  0
LINE
  5
3AF
330
18
100
AcDbEntity
  8
1
100
AcDbLine
 10
3.199999999999995
 20
-47.75
 30
0.0
 11
3.199999999999995
 21
-36.027
 31
0.0
  0
LINE
  5
3B0
330
18
100
AcDbEntity
  8
1
100
AcDbLine
 10
11.14999999999999
 20
-45.625
 30
0.0
 11
9.274999999999998
 21
-45.625
 31
0.0
  0
LINE
  5
3B1
330
18
100
AcDbEntity
  8
1
100
AcDbLine
 10
9.274999999999998
 20
-45.625
 30
0.0
 11
7.167999999999999
 21
-48.75
 31
0.0
  0
LINE
  5
3B2
330
18
100
AcDbEntity
  8
1
100
AcDbLine
 10
7.167999999999999
 20
-48.75
 30
0.0
 11
4.199999999999995
 21
-48.75
 31
0.0
  0
LINE
  5
3B3
330
18
100
AcDbEntity
  8
SK2
100
AcDbLine
 10
70.0
 20
50.79999999999999
 30
0.0
 11
91.904
 21
69.53
 31
0.0
  0
LINE
  5
3B4
330
18
100
AcDbEntity
  8
1
100
AcDbLine
 10
19.09999999999999
 20
-47.75
 30
0.0
 11
19.09999999999999
 21
-19.968
 31
0.0
  0
LINE
  5
3B5
330
18
100
AcDbEntity
  8
1
100
AcDbLine
 10
11.14999999999999
 20
-45.625
 30
0.0
 11
13.02499999999999
 21
-45.625
 31
0.0
  0
LINE
  5
3B6
330
18
100
AcDbEntity
  8
1
100
AcDbLine
 10
13.02499999999999
 20
-45.625
 30
0.0
 11
15.13199999999999
 21
-48.75
 31
0.0
  0
LINE
  5
3B7
330
18
100
AcDbEntity
  8
1
100
AcDbLine
 10
15.13199999999999
 20
-48.75
 30
0.0
 11
18.09999999999999
 21
-48.75
 31
0.0
  0
LINE
  5
3B8
330
18
100
AcDbEntity
  8
1
100
AcDbLine
 10
3.199999999999995
 20
47.74999999999999
 30
0.0
 11
3.199999999999995
 21
36.02699999999999
 31
0.0
  0
LINE
  5
3B9
330
18
100
AcDbEntity
  8
1
100
AcDbLine
 10
11.14999999999999
 20
45.62499999999999
 30
0.0
 11
9.274999999999998
 21
45.62499999999999
 31
0.0
  0
LINE
  5
3BA
330
18
100
AcDbEntity
  8
1
100
AcDbLine
 10
9.274999999999998
 20
45.62499999999999
 30
0.0
 11
7.167999999999999
 21
48.75
 31
0.0
  0
LINE
  5
3BB
330
18
100
AcDbEntity
  8
1
100
AcDbLine
 10
7.167999999999999
 20
48.75
 30
0.0
 11
4.199999999999995
 21
48.75
 31
0.0
  0
LINE
  5
3BC
330
18
100
AcDbEntity
  8
1
100
AcDbLine
 10
19.09999999999999
 20
47.74999999999999
 30
0.0
 11
19.09999999999999
 21
20.0
 31
0.0
  0
LINE
  5
3BD
330
18
100
AcDbEntity
  8
1
100
AcDbLine
 10
11.14999999999999
 20
45.62499999999999
 30
0.0
 11
13.02499999999999
 21
45.62499999999999
 31
0.0
  0
LINE
  5
3BE
330
18
100
AcDbEntity
  8
1
100
AcDbLine
 10
13.02499999999999
 20
45.62499999999999
 30
0.0
 11
15.13199999999999
 21
48.75
 31
0.0
  0
LINE
  5
3BF
330
18
100
AcDbEntity
  8
1
100
AcDbLine
 10
15.13199999999999
 20
48.75
 30
0.0
 11
18.09999999999999
 21
48.75
 31
0.0
  0
LINE
  5
3C0
330
18
100
AcDbEntity
  8
1
100
AcDbLine
 10
7.167999999999999
 20
12.875
 30
0.0
 11
7.167999999999999
 21
48.75
 31
0.0
  0
LINE
  5
3C1
330
18
100
AcDbEntity
  8
1
100
AcDbLine
 10
7.167999999999999
 20
-29.975
 30
0.0
 11
7.167999999999999
 21
-12.82499999999999
 31
0.0
  0
LINE
  5
3C2
330
18
100
AcDbEntity
  8
1
100
AcDbLine
 10
7.167999999999999
 20
-48.75
 30
0.0
 11
7.167999999999999
 21
-38.329
 31
0.0
  0
LINE
  5
3C3
330
18
100
AcDbEntity
  8
1
100
AcDbLine
 10
9.274999999999998
 20
-34.426
 30
0.0
 11
9.274999999999998
 21
-45.625
 31
0.0
  0
LINE
  5
3C4
330
18
100
AcDbEntity
  8
1
100
AcDbLine
 10
9.274999999999998
 20
-12.82499999999999
 30
0.0
 11
9.274999999999998
 21
-29.975
 31
0.0
  0
LINE
  5
3C5
330
18
100
AcDbEntity
  8
1
100
AcDbLine
 10
9.274999999999998
 20
45.62499999999999
 30
0.0
 11
9.274999999999998
 21
12.875
 31
0.0
  0
LINE
  5
3C6
330
18
100
AcDbEntity
  8
1
100
AcDbLine
 10
15.13199999999999
 20
-38.329
 30
0.0
 11
15.13199999999999
 21
-48.75
 31
0.0
  0
LINE
  5
3C7
330
18
100
AcDbEntity
  8
1
100
AcDbLine
 10
15.13199999999999
 20
-12.82499999999999
 30
0.0
 11
15.13199999999999
 21
-29.975
 31
0.0
  0
LINE
  5
3C8
330
18
100
AcDbEntity
  8
1
100
AcDbLine
 10
15.13199999999999
 20
48.75
 30
0.0
 11
15.13199999999999
 21
12.875
 31
0.0
  0
LINE
  5
3C9
330
18
100
AcDbEntity
  8
1
100
AcDbLine
 10
13.02499999999999
 20
12.875
 30
0.0
 11
13.02499999999999
 21
45.62499999999999
 31
0.0
  0
LINE
  5
3CA
330
18
100
AcDbEntity
  8
1
100
AcDbLine
 10
13.02499999999999
 20
-29.975
 30
0.0
 11
13.02499999999999
 21
-12.82499999999999
 31
0.0
  0
LINE
  5
3CB
330
18
100
AcDbEntity
  8
1
100
AcDbLine
 10
13.02499999999999
 20
-45.625
 30
0.0
 11
13.02499999999999
 21
-34.426
 31
0.0
  0
LINE
  5
3CC
330
18
100
AcDbEntity
  8
1
100
AcDbLine
 10
3.199999999999995
 20
-38.329
 30
0.0
 11
7.167999999999999
 21
-38.329
 31
0.0
  0
LINE
  5
3CD
330
18
100
AcDbEntity
  8
1
100
AcDbLine
 10
7.167999999999999
 20
-38.329
 30
0.0
 11
9.274999999999998
 21
-34.426
 31
0.0
  0
LINE
  5
3CE
330
18
100
AcDbEntity
  8
1
100
AcDbLine
 10
9.274999999999998
 20
-34.426
 30
0.0
 11
13.02499999999999
 21
-34.426
 31
0.0
  0
LINE
  5
3CF
330
18
100
AcDbEntity
  8
1
100
AcDbLine
 10
13.02499999999999
 20
-34.426
 30
0.0
 11
15.13199999999999
 21
-38.329
 31
0.0
  0
LINE
  5
3D0
330
18
100
AcDbEntity
  8
1
100
AcDbLine
 10
15.13199999999999
 20
-38.329
 30
0.0
 11
19.09999999999999
 21
-38.329
 31
0.0
  0
TEXT
  5
3D1
330
18
100
AcDbEntity
  8
SK2
100
AcDbText
 10
91.493
 20
70.721
 30
0.0
 40
3.499151999999999
  1
M16 (4x)
 41
0.8890459999999999
100
AcDbText
  0
TEXT
  5
3D3
330
18
100
AcDbEntity
  8
SK2
100
AcDbText
 10
129.8
 20
-51.21945386886597
 30
0.0
 40
3.499151999999999
  1
M30
 41
0.8890459999999999
100
AcDbText
  0
LINE
  5
3D5
330
18
100
AcDbEntity
  8
SK4
100
AcDbLine
 10
-104.81
 20
0.0
 30
0.0
 11
113.8669999999999
 21
0.0
 31
0.0
  0
ARC
  5
3D9
330
18
100
AcDbEntity
  8
1
100
AcDbCircle
 10
68.94514212417758
 20
-62.44514212417755
 30
0.0
 40
1.056283354372489
100
AcDbArc
 50
272.9769847405015
 51
357.0230152594954
  0
ARC
  5
3DB
330
18
100
AcDbEntity
  8
1
100
AcDbCircle
 10
68.94514212417758
 20
62.44514212417755
 30
0.0
 40
1.056283354372489
100
AcDbArc
 50
2.976984740504592
 51
87.02301525949849
  0
LINE
  5
403
330
18
100
AcDbEntity
  8
SK2
100
AcDbLine
 10
109.0
 20
29.99999999999999
 30
0.0
 11
135.0
 21
29.99999999999999
 31
0.0
  0
LINE
  5
404
330
18
100
AcDbEntity
  8
SK2
100
AcDbLine
 10
109.0
 20
-30.0
 30
0.0
 11
135.0
 21
-30.0
 31
0.0
  0
LINE
  5
405
330
18
100
AcDbEntity
  8
SK2
100
AcDbLine
 10
130.0
 20
25.42999999999999
 30
0.0
 11
130.0
 21
-25.43000000000001
 31
0.0
  0
SOLID
  5
406
330
18
100
AcDbEntity
  8
SK2
100
AcDbTrace
 10
129.2383333333333
 20
25.42999999999999
 30
0.0
 11
130.7616666666666
 21
25.42999999999999
 31
0.0
 12
130.0
 22
29.99999999999999
 32
0.0
 13
130.0
 23
29.99999999999999
 33
0.0
  0
SOLID
  5
407
330
18
100
AcDbEntity
  8
SK2
100
AcDbTrace
 10
129.2383333333333
 20
-25.43000000000001
 30
0.0
 11
130.7616666666666
 21
-25.43000000000001
 31
0.0
 12
130.0
 22
-30.0
 32
0.0
 13
130.0
 23
-30.0
 33
0.0
  0
LINE
  5
409
330
18
100
AcDbEntity
  8
SK2
100
AcDbLine
 10
69.0
 20
63.49999999999999
 30
0.0
 11
150.0
 21
63.49999999999996
 31
0.0
  0
LINE
  5
40A
330
18
100
AcDbEntity
  8
SK2
100
AcDbLine
 10
69.0
 20
-63.49999999999999
 30
0.0
 11
150.0
 21
-63.50000000000002
 31
0.0
  0
LINE
  5
40B
330
18
100
AcDbEntity
  8
SK2
100
AcDbLine
 10
145.0
 20
58.92999999999997
 30
0.0
 11
145.0
 21
-58.93000000000002
 31
0.0
  0
SOLID
  5
40C
330
18
100
AcDbEntity
  8
SK2
100
AcDbTrace
 10
144.2383333333333
 20
58.92999999999997
 30
0.0
 11
145.7616666666666
 21
58.92999999999997
 31
0.0
 12
145.0
 22
63.49999999999996
 32
0.0
 13
145.0
 23
63.49999999999996
 33
0.0
  0
SOLID
  5
40D
330
18
100
AcDbEntity
  8
SK2
100
AcDbTrace
 10
144.2383333333333
 20
-58.93000000000002
 30
0.0
 11
145.7616666666666
 21
-58.93000000000002
 31
0.0
 12
145.0
 22
-63.50000000000002
 32
0.0
 13
145.0
 23
-63.50000000000002
 33
0.0
  0
LINE
  5
41D
330
18
100
AcDbEntity
  8
SK2
100
AcDbLine
 10
110.0
 20
-29.0
 30
0.0
 11
110.0
 21
-85.0
 31
0.0
  0
LINE
  5
41E
330
18
100
AcDbEntity
  8
SK2
100
AcDbLine
 10
70.00000000000004
 20
-62.49999999999972
 30
0.0
 11
70.00000000000004
 21
-85.0
 31
0.0
  0
LINE
  5
41F
330
18
100
AcDbEntity
  8
SK2
100
AcDbLine
 10
105.43
 20
-80.0
 30
0.0
 11
74.57000000000005
 21
-80.0
 31
0.0
  0
SOLID
  5
420
330
18
100
AcDbEntity
  8
SK2
100
AcDbTrace
 10
105.43
 20
-79.23833333333333
 30
0.0
 11
105.43
 21
-80.76166666666667
 31
0.0
 12
110.0
 22
-80.0
 32
0.0
 13
110.0
 23
-80.0
 33
0.0
  0
SOLID
  5
421
330
18
100
AcDbEntity
  8
SK2
100
AcDbTrace
 10
74.57000000000005
 20
-79.23833333333333
 30
0.0
 11
74.57000000000005
 21
-80.76166666666667
 31
0.0
 12
70.00000000000004
 22
-80.0
 32
0.0
 13
70.00000000000004
 23
-80.0
 33
0.0
  0
LINE
  5
423
330
18
100
AcDbEntity
  8
2
100
AcDbLine
 10
0.0
 20
37.53299999999999
 30
0.0
 11
0.0000000000000026
 21
80.0
 31
0.0
  0
LINE
  5
424
330
18
100
AcDbEntity
  8
2
100
AcDbLine
 10
70.00000000000003
 20
62.50000000000002
 30
0.0
 11
70.00000000000003
 21
80.0
 31
0.0
  0
LINE
  5
425
330
18
100
AcDbEntity
  8
2
100
AcDbLine
 10
4.570000000000002
 20
75.0
 30
0.0
 11
65.43000000000003
 21
75.0
 31
0.0
  0
SOLID
  5
426
330
18
100
AcDbEntity
  8
2
100
AcDbTrace
 10
4.570000000000002
 20
75.76166666666667
 30
0.0
 11
4.570000000000002
 21
74.23833333333333
 31
0.0
 12
0.0000000000000023
 22
75.0
 32
0.0
 13
0.0000000000000023
 23
75.0
 33
0.0
  0
SOLID
  5
427
330
18
100
AcDbEntity
  8
2
100
AcDbTrace
 10
65.43000000000003
 20
75.76166666666667
 30
0.0
 11
65.43000000000003
 21
74.23833333333333
 31
0.0
 12
70.00000000000003
 22
75.0
 32
0.0
 13
70.00000000000003
 23
75.0
 33
0.0
  0
TEXT
  5
429
330
18
100
AcDbEntity
  8
2
100
AcDbText
 10
31.30047619047621
 20
77.3
 30
0.0
 40
4.57
  1
70
  7
SIMPLEX
100
AcDbText
  0
TEXT
  5
42A
330
18
100
AcDbEntity
  8
SK2
100
AcDbText
 10
86.30047619047621
 20
-77.7
 30
0.0
 40
4.57
  1
40
  7
SIMPLEX
100
AcDbText
  0
TEXT
  5
42B
330
18
100
AcDbEntity
  8
SK2
100
AcDbText
 10
142.6999999999999
 20
-7.507857142857144
 30
0.0
 40
4.57
  1
%%c
 50
90.0
  7
SIMPLEX
100
AcDbText
  0
TEXT
  5
42C
330
18
100
AcDbEntity
  8
SK2
100
AcDbText
 10
142.6999999999999
 20
-3.373095238095239
 30
0.0
 40
4.57
  1
127
 50
90.0
  7
SIMPLEX
100
AcDbText
  0
TEXT
  5
42D
330
18
100
AcDbEntity
  8
SK2
100
AcDbText
 10
127.7
 20
-5.766904761904749
 30
0.0
 40
4.57
  1
%%c
 50
90.0
  7
SIMPLEX
100
AcDbText
  0
TEXT
  5
42E
330
18
100
AcDbEntity
  8
SK2
100
AcDbText
 10
127.7
 20
-1.632142857142844
 30
0.0
 40
4.57
  1
60
 50
90.0
  7
SIMPLEX
100
AcDbText
  0
ENDSEC
  0
SECTION
  2
OBJECTS
  0
DICTIONARY
  5
C
330
0
100
AcDbDictionary
  3
ACAD_GROUP
350
D
  3
ACAD_LAYOUT
350
301
  3
ACAD_MLINESTYLE
350
E
  3
ACAD_PLOTSETTINGS
350
302
1001
ACAD
1000
TREAT_AS_HARD
1070
     0
  0
DICTIONARY
  5
430
330
18
100
AcDbDictionary
  3
ACAD_LAYOUTSELFREF
350
431
  0
DICTIONARY
  5
432
330
338
100
AcDbDictionary
  3
ACAD_LAYOUTSELFREF
350
433
  0
DICTIONARY
  5
D
102
{ACAD_REACTORS
330
C
102
}
330
C
100
AcDbDictionary
1001
ACAD
1000
TREAT_AS_HARD
1070
     0
  0
DICTIONARY
  5
301
102
{ACAD_REACTORS
330
C
102
}
330
C
100
AcDbDictionary
1001
ACAD
1000
TREAT_AS_HARD
1070
     0
  0
DICTIONARY
  5
E
102
{ACAD_REACTORS
330
C
102
}
330
C
100
AcDbDictionary
  3
STANDARD
350
1B
1001
ACAD
1000
TREAT_AS_HARD
1070
     0
  0
DICTIONARY
  5
302
102
{ACAD_REACTORS
330
C
102
}
330
C
100
AcDbDictionary
1001
ACAD
1000
TREAT_AS_HARD
1070
     0
  0
XRECORD
  5
431
102
{ACAD_REACTORS
330
430
102
}
330
430
100
AcDbXrecord
340
18
  0
XRECORD
  5
433
102
{ACAD_REACTORS
330
432
102
}
330
432
100
AcDbXrecord
340
338
  0
MLINESTYLE
  5
1B
102
{ACAD_REACTORS
330
E
102
}
330
E
100
AcDbMlineStyle
  2
STANDARD
 70
     0
  3

 62
     0
 51
90.0
 52
90.0
 71
     2
 49
0.5
 62
   256
  6
BYLAYER
 49
-0.5
 62
   256
  6
BYLAYER
  0
ENDSEC
  0
EOF
