  0
SECTION
  2
HEADER
  9
$ACADVER
  1
AC1012
  9
$DWGCODEPAGE
  3
ANSI_1252
  9
$INSBASE
 10
0.0
 20
0.0
 30
0.0
  9
$EXTMIN
 10
-105.8372938533282
 20
-33.9649951783532
 30
-0.0015258207003583
  9
$EXTMAX
 10
180.0194866832107
 20
81.8743904422438
 30
0.0000000349246037
  9
$LIMMIN
 10
-170.0
 20
-170.0
  9
$LIMMAX
 10
519.0
 20
260.0
  9
$ORTHOMODE
 70
     1
  9
$REGENMODE
 70
     1
  9
$FILLMODE
 70
     1
  9
$QTEXTMODE
 70
     0
  9
$MIRRTEXT
 70
     0
  9
$DRAGMODE
 70
     2
  9
$LTSCALE
 40
15.0
  9
$OSMODE
 70
     0
  9
$ATTMODE
 70
     1
  9
$TEXTSIZE
 40
4.57
  9
$TRACEWID
 40
0.05
  9
$TEXTSTYLE
  7
SIMPLEX
  9
$CLAYER
  8
SK2
  9
$CELTYPE
  6
BYLAYER
  9
$CECOLOR
 62
   256
  9
$CELTSCALE
 40
1.0
  9
$DELOBJ
 70
     1
  9
$DISPSILH
 70
     0
  9
$DIMSCALE
 40
0.0
  9
$DIMASZ
 40
4.57
  9
$DIMEXO
 40
0.0
  9
$DIMDLI
 40
0.38
  9
$DIMRND
 40
0.0
  9
$DIMDLE
 40
0.0
  9
$DIMEXE
 40
5.0
  9
$DIMTP
 40
0.0
  9
$DIMTM
 40
0.0
  9
$DIMTXT
 40
4.57
  9
$DIMCEN
 40
0.09
  9
$DIMTSZ
 40
0.0
  9
$DIMTOL
 70
     0
  9
$DIMLIM
 70
     0
  9
$DIMTIH
 70
     0
  9
$DIMTOH
 70
     0
  9
$DIMSE1
 70
     0
  9
$DIMSE2
 70
     0
  9
$DIMTAD
 70
     1
  9
$DIMZIN
 70
     8
  9
$DIMBLK
  1

  9
$DIMASO
 70
     1
  9
$DIMSHO
 70
     1
  9
$DIMPOST
  1

  9
$DIMAPOST
  1

  9
$DIMALT
 70
     0
  9
$DIMALTD
 70
     2
  9
$DIMALTF
 40
25.4
  9
$DIMLFAC
 40
1.0
  9
$DIMTOFL
 70
     0
  9
$DIMTVP
 40
0.0
  9
$DIMTIX
 70
     0
  9
$DIMSOXD
 70
     0
  9
$DIMSAH
 70
     0
  9
$DIMBLK1
  1

  9
$DIMBLK2
  1

  9
$DIMSTYLE
  2
STANDARD
  9
$DIMCLRD
 70
     0
  9
$DIMCLRE
 70
     0
  9
$DIMCLRT
 70
     0
  9
$DIMTFAC
 40
1.0
  9
$DIMGAP
 40
2.299999999999999
  9
$DIMJUST
 70
     0
  9
$DIMSD1
 70
     0
  9
$DIMSD2
 70
     0
  9
$DIMTOLJ
 70
     1
  9
$DIMTZIN
 70
     0
  9
$DIMALTZ
 70
     0
  9
$DIMALTTZ
 70
     0
  9
$DIMFIT
 70
     3
  9
$DIMUPT
 70
     0
  9
$DIMUNIT
 70
     2
  9
$DIMDEC
 70
     2
  9
$DIMTDEC
 70
     4
  9
$DIMALTU
 70
     2
  9
$DIMALTTD
 70
     2
  9
$DIMTXSTY
  7
SIMPLEX
  9
$DIMAUNIT
 70
     0
  9
$LUNITS
 70
     2
  9
$LUPREC
 70
     2
  9
$SKETCHINC
 40
0.1
  9
$FILLETRAD
 40
0.0
  9
$AUNITS
 70
     0
  9
$AUPREC
 70
     0
  9
$MENU
  1
c:\tdm21\cad\caduti13\tdm13
  9
$ELEVATION
 40
0.0
  9
$PELEVATION
 40
0.0
  9
$THICKNESS
 40
0.0
  9
$LIMCHECK
 70
     0
  9
$BLIPMODE
 70
     0
  9
$CHAMFERA
 40
0.0
  9
$CHAMFERB
 40
0.0
  9
$CHAMFERC
 40
0.0
  9
$CHAMFERD
 40
0.0
  9
$SKPOLY
 70
     0
  9
$TDCREATE
 40
2452445.984569329
  9
$TDUPDATE
 40
2452445.984569329
  9
$TDINDWG
 40
0.0027277778
  9
$TDUSRTIMER
 40
0.0027277778
  9
$USRTIMER
 70
     1
  9
$ANGBASE
 50
0.0
  9
$ANGDIR
 70
     0
  9
$PDMODE
 70
     1
  9
$PDSIZE
 40
0.0
  9
$PLINEWID
 40
0.0
  9
$COORDS
 70
     1
  9
$SPLFRAME
 70
     0
  9
$SPLINETYPE
 70
     6
  9
$SPLINESEGS
 70
     8
  9
$ATTDIA
 70
     0
  9
$ATTREQ
 70
     1
  9
$HANDLING
 70
  4097
  9
$HANDSEED
  5
4D5
  9
$SURFTAB1
 70
     6
  9
$SURFTAB2
 70
     6
  9
$SURFTYPE
 70
     6
  9
$SURFU
 70
     6
  9
$SURFV
 70
     6
  9
$UCSNAME
  2

  9
$UCSORG
 10
0.0
 20
0.0
 30
0.0
  9
$UCSXDIR
 10
1.0
 20
0.0
 30
0.0
  9
$UCSYDIR
 10
0.0
 20
1.0
 30
0.0
  9
$PUCSNAME
  2

  9
$PUCSORG
 10
0.0
 20
0.0
 30
0.0
  9
$PUCSXDIR
 10
1.0
 20
0.0
 30
0.0
  9
$PUCSYDIR
 10
0.0
 20
1.0
 30
0.0
  9
$USERI1
 70
     0
  9
$USERI2
 70
     0
  9
$USERI3
 70
     0
  9
$USERI4
 70
     0
  9
$USERI5
 70
     0
  9
$USERR1
 40
0.0
  9
$USERR2
 40
0.0
  9
$USERR3
 40
0.0
  9
$USERR4
 40
0.0
  9
$USERR5
 40
0.0
  9
$WORLDVIEW
 70
     1
  9
$SHADEDGE
 70
     3
  9
$SHADEDIF
 70
    70
  9
$TILEMODE
 70
     1
  9
$MAXACTVP
 70
    16
  9
$PINSBASE
 10
0.0
 20
0.0
 30
0.0
  9
$PLIMCHECK
 70
     0
  9
$PEXTMIN
 10
0.0
 20
0.0
 30
0.0
  9
$PEXTMAX
 10
0.0
 20
0.0
 30
0.0
  9
$PLIMMIN
 10
0.0
 20
0.0
  9
$PLIMMAX
 10
12.0
 20
9.0
  9
$UNITMODE
 70
     0
  9
$VISRETAIN
 70
     0
  9
$PLINEGEN
 70
     0
  9
$PSLTSCALE
 70
     1
  9
$TREEDEPTH
 70
  3020
  9
$PICKSTYLE
 70
     1
  9
$CMLSTYLE
  2
STANDARD
  9
$CMLJUST
 70
     0
  9
$CMLSCALE
 40
1.0
  9
$SAVEIMAGES
 70
     1
  0
ENDSEC
  0
SECTION
  2
CLASSES
  0
CLASS
  1
ACDBDICTIONARYWDFLT
  2
AcDbDictionaryWithDefault
  3
AutoCAD 2000
 90
    32768
280
     0
281
     0
  0
CLASS
  1
ACDBPLACEHOLDER
  2
AcDbPlaceHolder
  3
AutoCAD 2000
 90
    32768
280
     0
281
     0
  0
CLASS
  1
LAYOUT
  2
AcDbLayout
  3
AutoCAD 2000
 90
    32768
280
     0
281
     0
  0
CLASS
  1
LONG_TRANSACTION
  2
AcDbLongTransaction
  3
AutoCAD 2000
 90
    32768
280
     0
281
     0
  0
CLASS
  1
LWPOLYLINE
  2
AcDbPolyline
  3
AutoCAD 2000
 90
    32768
280
     0
281
     1
  0
CLASS
  1
HATCH
  2
AcDbHatch
  3
AutoCAD 2000
 90
    32768
280
     0
281
     1
  0
CLASS
  1
XRECORD
  2
AcDbXrecord
  3
AutoCAD 2000
 90
    32768
280
     0
281
     0
  0
ENDSEC
  0
SECTION
  2
TABLES
  0
TABLE
  2
VPORT
  5
8
330
0
100
AcDbSymbolTable
 70
     3
  0
VPORT
  5
4D0
330
8
100
AcDbSymbolTableRecord
100
AcDbViewportTableRecord
  2
*ACTIVE
 70
     0
 10
0.0
 20
0.0
 11
1.0
 21
1.0
 12
37.09109641494125
 22
23.95469763194529
 13
0.0
 23
0.0
 14
5.0
 24
5.0
 15
5.0
 25
5.0
 16
0.0
 26
0.0
 36
1.0
 17
0.0
 27
0.0
 37
0.0
 40
139.100058389086
 41
2.130434782608695
 42
50.0
 43
0.0
 44
0.0
 50
0.0
 51
0.0
 71
     0
 72
   100
 73
     1
 74
     1
 75
     0
 76
     0
 77
     0
 78
     0
  0
ENDTAB
  0
TABLE
  2
LTYPE
  5
5
330
0
100
AcDbSymbolTable
 70
     3
  0
LTYPE
  5
12
330
5
100
AcDbSymbolTableRecord
100
AcDbLinetypeTableRecord
  2
BYBLOCK
 70
     0
  3

 72
    65
 73
     0
 40
0.0
  0
LTYPE
  5
13
330
5
100
AcDbSymbolTableRecord
100
AcDbLinetypeTableRecord
  2
BYLAYER
 70
     0
  3

 72
    65
 73
     0
 40
0.0
  0
LTYPE
  5
14
330
5
100
AcDbSymbolTableRecord
100
AcDbLinetypeTableRecord
  2
CONTINUOUS
 70
     0
  3
Solid line
 72
    65
 73
     0
 40
0.0
  0
LTYPE
  5
1F
330
5
100
AcDbSymbolTableRecord
100
AcDbLinetypeTableRecord
  2
CENTER
 70
     0
  3
____ . ____ . ____
 72
    65
 73
     4
 40
1.5
 49
1.0
 74
     0
 49
-0.25
 74
     0
 49
0.0
 74
     0
 49
-0.25
 74
     0
  0
LTYPE
  5
20
330
5
100
AcDbSymbolTableRecord
100
AcDbLinetypeTableRecord
  2
HIDDEN
 70
     0
  3
_ _ _ _ _ _ _ _ _ _ _ _ _ _ _ _ _ _ _ _ _ _ _
 72
    65
 73
     2
 40
0.375
 49
0.25
 74
     0
 49
-0.125
 74
     0
  0
ENDTAB
  0
TABLE
  2
LAYER
  5
2
330
0
100
AcDbSymbolTable
 70
    15
  0
LAYER
  5
F
330
2
100
AcDbSymbolTableRecord
100
AcDbLayerTableRecord
  2
0
 70
     0
 62
    -7
  6
CONTINUOUS
  0
LAYER
  5
23
330
2
100
AcDbSymbolTableRecord
100
AcDbLayerTableRecord
  2
1
 70
     0
 62
     4
  6
CONTINUOUS
  0
LAYER
  5
24
330
2
100
AcDbSymbolTableRecord
100
AcDbLayerTableRecord
  2
SK1
 70
     0
 62
     4
  6
CONTINUOUS
  0
LAYER
  5
25
330
2
100
AcDbSymbolTableRecord
100
AcDbLayerTableRecord
  2
2
 70
     0
 62
     7
  6
CONTINUOUS
  0
LAYER
  5
26
330
2
100
AcDbSymbolTableRecord
100
AcDbLayerTableRecord
  2
2L
 70
     0
 62
     7
  6
CONTINUOUS
  0
LAYER
  5
27
330
2
100
AcDbSymbolTableRecord
100
AcDbLayerTableRecord
  2
SK2
 70
     0
 62
     7
  6
CONTINUOUS
  0
LAYER
  5
28
330
2
100
AcDbSymbolTableRecord
100
AcDbLayerTableRecord
  2
3
 70
     0
 62
     1
  6
HIDDEN
  0
LAYER
  5
29
330
2
100
AcDbSymbolTableRecord
100
AcDbLayerTableRecord
  2
SK3
 70
     0
 62
     1
  6
HIDDEN
  0
LAYER
  5
2A
330
2
100
AcDbSymbolTableRecord
100
AcDbLayerTableRecord
  2
4
 70
     0
 62
    -2
  6
CENTER
  0
LAYER
  5
2B
330
2
100
AcDbSymbolTableRecord
100
AcDbLayerTableRecord
  2
SK4
 70
     0
 62
     2
  6
CENTER
  0
LAYER
  5
2C
330
2
100
AcDbSymbolTableRecord
100
AcDbLayerTableRecord
  2
5
 70
     0
 62
    -7
  6
CONTINUOUS
  0
LAYER
  5
2D
330
2
100
AcDbSymbolTableRecord
100
AcDbLayerTableRecord
  2
6
 70
     0
 62
     5
  6
CONTINUOUS
  0
LAYER
  5
2E
330
2
100
AcDbSymbolTableRecord
100
AcDbLayerTableRecord
  2
SK6
 70
     0
 62
     5
  6
CONTINUOUS
  0
LAYER
  5
2F
330
2
100
AcDbSymbolTableRecord
100
AcDbLayerTableRecord
  2
DEFPOINTS
 70
     0
 62
    -7
  6
CONTINUOUS
  0
LAYER
  5
376
330
2
100
AcDbSymbolTableRecord
100
AcDbLayerTableRecord
  2
1__1
 70
     0
 62
    -1
  6
CONTINUOUS
  0
ENDTAB
  0
TABLE
  2
STYLE
  5
3
330
0
100
AcDbSymbolTable
 70
     3
  0
STYLE
  5
10
330
3
100
AcDbSymbolTableRecord
100
AcDbTextStyleTableRecord
  2
STANDARD
 70
     0
 40
0.0
 41
1.0
 50
0.0
 71
     0
 42
5.0
  3
txt
  4

  0
STYLE
  5
1D
330
3
100
AcDbSymbolTableRecord
100
AcDbTextStyleTableRecord
  2
TXT
 70
     0
 40
8.0
 41
1.0
 50
0.0
 71
     0
 42
8.0
  3
txt
  4

  0
STYLE
  5
1E
330
3
100
AcDbSymbolTableRecord
100
AcDbTextStyleTableRecord
  2
SIMPLEX
 70
     0
 40
0.0
 41
1.0
 50
0.0
 71
     0
 42
4.57
  3
simplex
  4

  0
ENDTAB
  0
TABLE
  2
VIEW
  5
6
330
0
100
AcDbSymbolTable
 70
     0
  0
ENDTAB
  0
TABLE
  2
UCS
  5
7
330
0
100
AcDbSymbolTable
 70
     0
  0
ENDTAB
  0
TABLE
  2
APPID
  5
9
330
0
100
AcDbSymbolTable
 70
     1
  0
APPID
  5
11
330
9
100
AcDbSymbolTableRecord
100
AcDbRegAppTableRecord
  2
ACAD
 70
     0
  0
ENDTAB
  0
TABLE
  2
DIMSTYLE
  5
A
330
0
100
AcDbSymbolTable
 70
     1
  0
DIMSTYLE
105
3F
102
{ACAD_REACTORS
330
403
330
3FA
330
3EE
330
3E5
102
}
330
A
100
AcDbSymbolTableRecord
100
AcDbDimStyleTableRecord
  2
STANDARD
 70
     0
  3

  4

  5

  6

  7

 40
0.0
 41
4.57
 42
0.0
 43
0.38
 44
5.0
 45
0.0
 46
0.0
 47
0.0
 48
0.0
140
4.57
141
0.09
142
0.0
143
25.4
144
1.0
145
0.0
146
1.0
147
2.299999999999999
 71
     0
 72
     0
 73
     0
 74
     0
 75
     0
 76
     0
 77
     1
 78
     8
170
     0
171
     2
172
     0
173
     0
174
     0
175
     0
176
     0
177
     0
178
     0
270
     2
271
     2
272
     4
273
     2
274
     2
340
1E
275
     0
280
     0
281
     0
282
     0
283
     1
284
     0
285
     0
286
     0
287
     3
288
     0
  0
ENDTAB
  0
TABLE
  2
BLOCK_RECORD
  5
1
330
0
100
AcDbSymbolTable
 70
     5
  0
BLOCK_RECORD
  5
18
102
{ACAD_XDICTIONARY
360
4D1
102
}
330
1
100
AcDbSymbolTableRecord
100
AcDbBlockTableRecord
  2
*MODEL_SPACE
  0
BLOCK_RECORD
  5
338
102
{ACAD_XDICTIONARY
360
4D3
102
}
330
1
100
AcDbSymbolTableRecord
100
AcDbBlockTableRecord
  2
*PAPER_SPACE
  0
BLOCK_RECORD
  5
345
330
1
100
AcDbSymbolTableRecord
100
AcDbBlockTableRecord
  2
*D0
  0
BLOCK_RECORD
  5
351
330
1
100
AcDbSymbolTableRecord
100
AcDbBlockTableRecord
  2
*D1
  0
BLOCK_RECORD
  5
35D
330
1
100
AcDbSymbolTableRecord
100
AcDbBlockTableRecord
  2
*D2
  0
BLOCK_RECORD
  5
36A
330
1
100
AcDbSymbolTableRecord
100
AcDbBlockTableRecord
  2
*D3
  0
BLOCK_RECORD
  5
432
330
1
100
AcDbSymbolTableRecord
100
AcDbBlockTableRecord
  2
A300M-43
  0
ENDTAB
  0
ENDSEC
  0
SECTION
  2
BLOCKS
  0
BLOCK
  5
32
330
18
100
AcDbEntity
  8
0
100
AcDbBlockBegin
  2
*MODEL_SPACE
 70
     0
 10
0.0
 20
0.0
 30
0.0
  3
*MODEL_SPACE
  1

  0
ENDBLK
  5
33
330
18
100
AcDbEntity
  8
0
100
AcDbBlockEnd
  0
BLOCK
  5
339
330
338
100
AcDbEntity
 67
     1
  8
0
100
AcDbBlockBegin
  2
*PAPER_SPACE
 70
     0
 10
0.0
 20
0.0
 30
0.0
  3
*PAPER_SPACE
  1

  0
ENDBLK
  5
33A
330
338
100
AcDbEntity
 67
     1
  8
0
100
AcDbBlockEnd
  0
BLOCK
  5
34F
330
345
100
AcDbEntity
  8
0
100
AcDbBlockBegin
  2
*D0
 70
     1
 10
0.0
 20
0.0
 30
0.0
  3
*D0
  1

  0
LINE
  5
40D
330
345
100
AcDbEntity
  8
2
 62
     0
100
AcDbLine
 10
-0.0000000000000071
 20
24.607
 30
0.0
 11
-0.0000000000000037
 21
80.0
 31
0.0
  0
LINE
  5
40E
330
345
100
AcDbEntity
  8
2
 62
     0
100
AcDbLine
 10
160.0
 20
14.0
 30
0.0
 11
160.0
 21
80.0
 31
0.0
  0
LINE
  5
40F
330
345
100
AcDbEntity
  8
2
 62
     0
100
AcDbLine
 10
4.569999999999995
 20
75.0
 30
0.0
 11
155.43
 21
75.0
 31
0.0
  0
SOLID
  5
410
330
345
100
AcDbEntity
  8
2
 62
     0
100
AcDbTrace
 10
4.569999999999995
 20
75.76166666666667
 30
0.0
 11
4.569999999999995
 21
74.23833333333333
 31
0.0
 12
-0.000000000000004
 22
75.0
 32
0.0
 13
-0.000000000000004
 23
75.0
 33
0.0
  0
SOLID
  5
411
330
345
100
AcDbEntity
  8
2
 62
     0
100
AcDbTrace
 10
155.43
 20
75.76166666666667
 30
0.0
 11
155.43
 21
74.23833333333333
 31
0.0
 12
160.0
 22
75.0
 32
0.0
 13
160.0
 23
75.0
 33
0.0
  0
MTEXT
  5
412
330
345
100
AcDbEntity
  8
2
 62
     0
100
AcDbMText
 10
80.0
 20
79.58499999999999
 30
0.0
 40
4.57
 41
0.0
 71
     5
 72
     1
  1
\A1;160
  7
SIMPLEX
1001
ACAD
1000
MTEXTBEGIN
1070
    73
1070
     1
1070
    44
1040
1.0
1070
    74
1070
     0
1000
MTEXTEND
  0
POINT
  5
413
330
345
100
AcDbEntity
  8
DEFPOINTS
 62
     0
100
AcDbPoint
 10
-0.0000000000000071
 20
24.607
 30
0.0
  0
POINT
  5
414
330
345
100
AcDbEntity
  8
DEFPOINTS
 62
     0
100
AcDbPoint
 10
160.0
 20
14.0
 30
0.0
  0
POINT
  5
415
330
345
100
AcDbEntity
  8
DEFPOINTS
 62
     0
100
AcDbPoint
 10
160.0
 20
75.0
 30
0.0
  0
ENDBLK
  5
350
330
345
100
AcDbEntity
  8
0
100
AcDbBlockEnd
  0
BLOCK
  5
35B
330
351
100
AcDbEntity
  8
0
100
AcDbBlockBegin
  2
*D1
 70
     1
 10
0.0
 20
0.0
 30
0.0
  3
*D1
  1

  0
LINE
  5
416
330
351
100
AcDbEntity
  8
SK2
 62
     0
100
AcDbLine
 10
-68.4
 20
11.45313
 30
0.0
 11
-68.4
 21
80.0
 31
0.0
  0
LINE
  5
417
330
351
100
AcDbEntity
  8
SK2
 62
     0
100
AcDbLine
 10
0.0
 20
22.225
 30
0.0
 11
0.0000000000000035
 21
80.0
 31
0.0
  0
LINE
  5
418
330
351
100
AcDbEntity
  8
SK2
 62
     0
100
AcDbLine
 10
-63.83
 20
75.0
 30
0.0
 11
-4.569999999999996
 21
75.0
 31
0.0
  0
SOLID
  5
419
330
351
100
AcDbEntity
  8
SK2
 62
     0
100
AcDbTrace
 10
-63.83
 20
75.76166666666667
 30
0.0
 11
-63.83
 21
74.23833333333333
 31
0.0
 12
-68.4
 22
75.0
 32
0.0
 13
-68.4
 23
75.0
 33
0.0
  0
SOLID
  5
41A
330
351
100
AcDbEntity
  8
SK2
 62
     0
100
AcDbTrace
 10
-4.569999999999996
 20
75.76166666666667
 30
0.0
 11
-4.569999999999996
 21
74.23833333333333
 31
0.0
 12
0.0000000000000032
 22
75.0
 32
0.0
 13
0.0000000000000032
 23
75.0
 33
0.0
  0
MTEXT
  5
41B
330
351
100
AcDbEntity
  8
SK2
 62
     0
100
AcDbMText
 10
-34.2
 20
79.58499999999999
 30
0.0
 40
4.57
 41
0.0
 71
     5
 72
     1
  1
\A1;68.4
  7
SIMPLEX
1001
ACAD
1000
MTEXTBEGIN
1070
    73
1070
     1
1070
    44
1040
1.0
1070
    74
1070
     0
1000
MTEXTEND
  0
POINT
  5
41C
330
351
100
AcDbEntity
  8
DEFPOINTS
 62
     0
100
AcDbPoint
 10
-68.4
 20
11.45313
 30
0.0
  0
POINT
  5
41D
330
351
100
AcDbEntity
  8
DEFPOINTS
 62
     0
100
AcDbPoint
 10
0.0
 20
22.225
 30
0.0
  0
POINT
  5
41E
330
351
100
AcDbEntity
  8
DEFPOINTS
 62
     0
100
AcDbPoint
 10
0.0000000000000032
 20
75.0
 30
0.0
  0
ENDBLK
  5
35C
330
351
100
AcDbEntity
  8
0
100
AcDbBlockEnd
  0
BLOCK
  5
368
330
35D
100
AcDbEntity
  8
0
100
AcDbBlockBegin
  2
*D2
 70
     1
 10
0.0
 20
0.0
 30
0.0
  3
*D2
  1

  0
LINE
  5
41F
330
35D
100
AcDbEntity
  8
SK2
 62
     0
100
AcDbLine
 10
-59.51133
 20
-7.999999999999999
 30
0.0
 11
-88.95000000000001
 21
-7.999999999999991
 31
0.0
  0
LINE
  5
420
330
35D
100
AcDbEntity
  8
SK2
 62
     0
100
AcDbLine
 10
-59.51133
 20
8.0
 30
0.0
 11
-88.95000000000001
 21
8.000000000000008
 31
0.0
  0
LINE
  5
421
330
35D
100
AcDbEntity
  8
SK2
 62
     0
100
AcDbLine
 10
-83.95000000000001
 20
-3.429999999999991
 30
0.0
 11
-83.95000000000001
 21
3.430000000000006
 31
0.0
  0
LINE
  5
422
330
35D
100
AcDbEntity
  8
SK2
 62
     0
100
AcDbLine
 10
-83.95000000000001
 20
8.000000000000007
 30
0.0
 11
-83.95000000000001
 21
28.70380952380953
 31
0.0
  0
SOLID
  5
423
330
35D
100
AcDbEntity
  8
SK2
 62
     0
100
AcDbTrace
 10
-84.71166666666666
 20
-3.429999999999991
 30
0.0
 11
-83.18833333333333
 21
-3.429999999999991
 31
0.0
 12
-83.95000000000001
 22
-7.999999999999992
 32
0.0
 13
-83.95000000000001
 23
-7.999999999999992
 33
0.0
  0
SOLID
  5
424
330
35D
100
AcDbEntity
  8
SK2
 62
     0
100
AcDbTrace
 10
-84.71166666666666
 20
3.430000000000006
 30
0.0
 11
-83.18833333333333
 21
3.430000000000006
 31
0.0
 12
-83.95000000000001
 22
8.000000000000007
 32
0.0
 13
-83.95000000000001
 23
8.000000000000007
 33
0.0
  0
MTEXT
  5
425
330
35D
100
AcDbEntity
  8
SK2
 62
     0
100
AcDbMText
 10
-88.535
 20
20.63690476190476
 30
0.0
 40
4.57
 41
0.0
 71
     5
 72
     1
  1
\A1;M16
  7
SIMPLEX
 11
0.0000000000000001
 21
1.0
 31
0.0
1001
ACAD
1000
MTEXTBEGIN
1070
    73
1070
     1
1070
    44
1040
1.0
1070
    74
1070
     0
1000
MTEXTEND
  0
POINT
  5
426
330
35D
100
AcDbEntity
  8
DEFPOINTS
 62
     0
100
AcDbPoint
 10
-59.51133
 20
-7.999999999999999
 30
0.0
  0
POINT
  5
427
330
35D
100
AcDbEntity
  8
DEFPOINTS
 62
     0
100
AcDbPoint
 10
-59.51133
 20
8.0
 30
0.0
  0
POINT
  5
428
330
35D
100
AcDbEntity
  8
DEFPOINTS
 62
     0
100
AcDbPoint
 10
-83.95000000000001
 20
8.000000000000007
 30
0.0
  0
ENDBLK
  5
369
330
35D
100
AcDbEntity
  8
0
100
AcDbBlockEnd
  0
BLOCK
  5
374
330
36A
100
AcDbEntity
  8
0
100
AcDbBlockBegin
  2
*D3
 70
     1
 10
0.0
 20
0.0
 30
0.0
  3
*D3
  1

  0
LINE
  5
429
330
36A
100
AcDbEntity
  8
SK2
 62
     0
100
AcDbLine
 10
0.0
 20
22.225
 30
0.0
 11
-10.94999999999999
 21
22.225
 31
0.0
  0
LINE
  5
42A
330
36A
100
AcDbEntity
  8
SK2
 62
     0
100
AcDbLine
 10
0.0
 20
-22.225
 30
0.0
 11
-10.95
 21
-22.22499999999999
 31
0.0
  0
LINE
  5
42B
330
36A
100
AcDbEntity
  8
SK2
 62
     0
100
AcDbLine
 10
-5.949999999999993
 20
17.655
 30
0.0
 11
-5.950000000000001
 21
-17.655
 31
0.0
  0
SOLID
  5
42C
330
36A
100
AcDbEntity
  8
SK2
 62
     0
100
AcDbTrace
 10
-6.71166666666666
 20
17.655
 30
0.0
 11
-5.188333333333327
 21
17.655
 31
0.0
 12
-5.949999999999992
 22
22.225
 32
0.0
 13
-5.949999999999992
 23
22.225
 33
0.0
  0
SOLID
  5
42D
330
36A
100
AcDbEntity
  8
SK2
 62
     0
100
AcDbTrace
 10
-6.711666666666667
 20
-17.655
 30
0.0
 11
-5.188333333333334
 21
-17.655
 31
0.0
 12
-5.950000000000002
 22
-22.225
 32
0.0
 13
-5.950000000000002
 23
-22.225
 33
0.0
  0
MTEXT
  5
42E
330
36A
100
AcDbEntity
  8
SK2
 62
     0
100
AcDbMText
 10
-10.53499999999999
 20
0.0000000000000009
 30
0.0
 40
4.57
 41
0.0
 71
     5
 72
     1
  1
\A1;%%C44.45
  7
SIMPLEX
 11
0.0000000000000001
 21
1.0
 31
0.0
1001
ACAD
1000
MTEXTBEGIN
1070
    73
1070
     1
1070
    44
1040
1.0
1070
    74
1070
     0
1000
MTEXTEND
  0
POINT
  5
42F
330
36A
100
AcDbEntity
  8
DEFPOINTS
 62
     0
100
AcDbPoint
 10
0.0
 20
22.225
 30
0.0
  0
POINT
  5
430
330
36A
100
AcDbEntity
  8
DEFPOINTS
 62
     0
100
AcDbPoint
 10
0.0
 20
-22.225
 30
0.0
  0
POINT
  5
431
330
36A
100
AcDbEntity
  8
DEFPOINTS
 62
     0
100
AcDbPoint
 10
-5.950000000000002
 20
-22.225
 30
0.0
  0
ENDBLK
  5
375
330
36A
100
AcDbEntity
  8
0
100
AcDbBlockEnd
  0
BLOCK
  5
46D
330
432
100
AcDbEntity
  8
0
100
AcDbBlockBegin
  2
A300M-43
 70
     0
 10
0.0
 20
0.0
 30
0.0
  3
A300M-43
  1

  0
LINE
  5
433
330
432
100
AcDbEntity
  8
SK2
100
AcDbLine
 10
19.0
 20
21.5
 30
0.0
 11
34.572
 21
21.49999999999999
 31
0.0
  0
TEXT
  5
434
330
432
100
AcDbEntity
  8
SK2
100
AcDbText
 10
32.286
 20
-5.769428571428572
 30
0.0
 40
4.571999999999999
  1
%%C43
 50
90.0
  7
SIMPLEX
100
AcDbText
  0
SOLID
  5
435
330
432
100
AcDbEntity
  8
SK2
100
AcDbTrace
 10
30.762
 20
16.928
 30
0.0
 11
29.23799999999999
 21
16.928
 31
0.0
 12
30.0
 22
21.49999999999999
 32
0.0
 13
30.0
 23
21.49999999999999
 33
0.0
  0
SOLID
  5
436
330
432
100
AcDbEntity
  8
SK2
100
AcDbTrace
 10
30.762
 20
-16.928
 30
0.0
 11
29.23799999999999
 21
-16.928
 31
0.0
 12
30.0
 22
-21.49999999999999
 32
0.0
 13
30.0
 23
-21.49999999999999
 33
0.0
  0
LINE
  5
437
330
432
100
AcDbEntity
  8
SK2
100
AcDbLine
 10
30.0
 20
16.928
 30
0.0
 11
30.0
 21
10.34142857142856
 31
0.0
  0
LINE
  5
438
330
432
100
AcDbEntity
  8
SK2
100
AcDbLine
 10
30.0
 20
-16.928
 30
0.0
 11
30.0
 21
-10.34142857142857
 31
0.0
  0
LINE
  5
439
330
432
100
AcDbEntity
  8
SK2
100
AcDbLine
 10
-5.0
 20
21.49999999999999
 30
0.0
 11
10.5
 21
21.5
 31
0.0
  0
LINE
  5
43A
330
432
100
AcDbEntity
  8
SK2
100
AcDbLine
 10
-5.0
 20
-21.49999999999999
 30
0.0
 11
34.572
 21
-21.49999999999999
 31
0.0
  0
TEXT
  5
43B
330
432
100
AcDbEntity
  8
SK2
100
AcDbText
 10
17.286
 20
18.21599999999999
 30
0.0
 40
4.571999999999999
  1
%%C2-16
 50
90.0
  7
SIMPLEX
100
AcDbText
  0
SOLID
  5
43C
330
432
100
AcDbEntity
  8
SK2
100
AcDbTrace
 10
15.762
 20
-12.572
 30
0.0
 11
14.23799999999999
 21
-12.572
 31
0.0
 12
15.0
 22
-8.000000000000001
 32
0.0
 13
15.0
 23
-8.000000000000001
 33
0.0
  0
SOLID
  5
43D
330
432
100
AcDbEntity
  8
SK2
100
AcDbTrace
 10
15.762
 20
12.572
 30
0.0
 11
14.23799999999999
 21
12.572
 31
0.0
 12
15.0
 22
8.0
 32
0.0
 13
15.0
 23
8.0
 33
0.0
  0
LINE
  5
43E
330
432
100
AcDbEntity
  8
SK2
100
AcDbLine
 10
15.0
 20
-12.572
 30
0.0
 11
15.0
 21
-17.14399999999999
 31
0.0
  0
LINE
  5
43F
330
432
100
AcDbEntity
  8
SK2
100
AcDbLine
 10
15.0
 20
12.572
 30
0.0
 11
15.0
 21
17.14399999999999
 31
0.0
  0
LINE
  5
440
330
432
100
AcDbEntity
  8
SK2
100
AcDbLine
 10
0.0
 20
8.0
 30
0.0
 11
19.572
 21
7.999999999999999
 31
0.0
  0
LINE
  5
441
330
432
100
AcDbEntity
  8
SK2
100
AcDbLine
 10
0.0
 20
-8.0
 30
0.0
 11
19.572
 21
-8.000000000000001
 31
0.0
  0
ARC
  5
442
330
432
100
AcDbEntity
  8
SK3
100
AcDbCircle
 10
-34.6
 20
-8.399999999999998
 30
0.0
 40
0.6
100
AcDbArc
 50
270.0
 51
0.0
  0
ARC
  5
443
330
432
100
AcDbEntity
  8
SK3
100
AcDbCircle
 10
-39.39999999999999
 20
-8.4
 30
0.0
 40
0.6
100
AcDbArc
 50
180.0
 51
269.9999999999999
  0
ARC
  5
444
330
432
100
AcDbEntity
  8
SK3
100
AcDbCircle
 10
-39.39999999999999
 20
8.4
 30
0.0
 40
0.6
100
AcDbArc
 50
90.0
 51
179.9999999999999
  0
ARC
  5
445
330
432
100
AcDbEntity
  8
SK3
100
AcDbCircle
 10
-34.6
 20
8.4
 30
0.0
 40
0.6
100
AcDbArc
 50
0.0
 51
90.0
  0
LINE
  5
446
330
432
100
AcDbEntity
  8
SK3
100
AcDbLine
 10
-34.0
 20
-8.399999999999998
 30
0.0
 11
-34.0
 21
-7.174999999999999
 31
0.0
  0
LINE
  5
447
330
432
100
AcDbEntity
  8
SK3
100
AcDbLine
 10
-39.39999999999999
 20
-9.0
 30
0.0
 11
-34.6
 21
-8.999999999999998
 31
0.0
  0
LINE
  5
448
330
432
100
AcDbEntity
  8
SK3
100
AcDbLine
 10
-40.0
 20
8.4
 30
0.0
 11
-40.0
 21
-8.4
 31
0.0
  0
LINE
  5
449
330
432
100
AcDbEntity
  8
SK3
100
AcDbLine
 10
-34.6
 20
9.0
 30
0.0
 11
-39.39999999999999
 21
9.0
 31
0.0
  0
LINE
  5
44A
330
432
100
AcDbEntity
  8
SK3
100
AcDbLine
 10
-34.0
 20
7.174999999999999
 30
0.0
 11
-34.0
 21
8.4
 31
0.0
  0
LINE
  5
44B
330
432
100
AcDbEntity
  8
SK3
100
AcDbLine
 10
-9.5
 20
-8.875
 30
0.0
 11
-34.0
 21
-7.174999999999999
 31
0.0
  0
LINE
  5
44C
330
432
100
AcDbEntity
  8
SK3
100
AcDbLine
 10
-9.5
 20
8.875
 30
0.0
 11
-34.0
 21
7.174999999999999
 31
0.0
  0
LINE
  5
44D
330
432
100
AcDbEntity
  8
SK3
100
AcDbLine
 10
-34.0
 20
7.174999999999998
 30
0.0
 11
-34.0
 21
-7.175
 31
0.0
  0
LINE
  5
44E
330
432
100
AcDbEntity
  8
SK3
100
AcDbLine
 10
-9.5
 20
21.49999999999999
 30
0.0
 11
-9.5
 21
-21.49999999999999
 31
0.0
  0
LINE
  5
44F
330
432
100
AcDbEntity
  8
1
100
AcDbLine
 10
-30.0
 20
-16.0
 30
0.0
 11
-26.0
 21
-16.0
 31
0.0
  0
LINE
  5
450
330
432
100
AcDbEntity
  8
1
100
AcDbLine
 10
-30.0
 20
16.0
 30
0.0
 11
-30.0
 21
-16.0
 31
0.0
  0
LINE
  5
451
330
432
100
AcDbEntity
  8
1
100
AcDbLine
 10
-26.0
 20
16.0
 30
0.0
 11
-30.0
 21
16.0
 31
0.0
  0
LINE
  5
452
330
432
100
AcDbEntity
  8
1
100
AcDbLine
 10
-26.0
 20
-17.5
 30
0.0
 11
-24.0
 21
-17.5
 31
0.0
  0
LINE
  5
453
330
432
100
AcDbEntity
  8
1
100
AcDbLine
 10
-26.0
 20
17.5
 30
0.0
 11
-26.0
 21
-17.5
 31
0.0
  0
LINE
  5
454
330
432
100
AcDbEntity
  8
1
100
AcDbLine
 10
-24.0
 20
17.5
 30
0.0
 11
-26.0
 21
17.5
 31
0.0
  0
ARC
  5
455
330
432
100
AcDbEntity
  8
1
100
AcDbCircle
 10
-13.0
 20
-24.93739406749229
 30
0.0
 40
8.485281374238569
100
AcDbArc
 50
45.00000000000001
 51
135.0
  0
ARC
  5
456
330
432
100
AcDbEntity
  8
1
100
AcDbCircle
 10
-13.0
 20
24.93739406749229
 30
0.0
 40
8.485281374238569
100
AcDbArc
 50
225.0
 51
315.0
  0
LINE
  5
457
330
432
100
AcDbEntity
  8
1
100
AcDbLine
 10
-7.0
 20
-15.93739406749226
 30
0.0
 11
-7.0
 21
-18.93739406749227
 31
0.0
  0
LINE
  5
458
330
432
100
AcDbEntity
  8
1
100
AcDbLine
 10
-19.0
 20
-18.93739406749227
 30
0.0
 11
-19.0
 21
-15.93739406749226
 31
0.0
  0
LINE
  5
459
330
432
100
AcDbEntity
  8
1
100
AcDbLine
 10
-7.0
 20
18.93739406749229
 30
0.0
 11
-7.0
 21
15.93739406749229
 31
0.0
  0
LINE
  5
45A
330
432
100
AcDbEntity
  8
1
100
AcDbLine
 10
-19.0
 20
15.93739406749229
 30
0.0
 11
-19.0
 21
18.93739406749229
 31
0.0
  0
LINE
  5
45B
330
432
100
AcDbEntity
  8
1
100
AcDbLine
 10
-7.0
 20
3.0
 30
0.0
 11
-7.0
 21
-3.0
 31
0.0
  0
LINE
  5
45C
330
432
100
AcDbEntity
  8
1
100
AcDbLine
 10
-19.0
 20
3.0
 30
0.0
 11
-19.0
 21
-3.0
 31
0.0
  0
LINE
  5
45D
330
432
100
AcDbEntity
  8
1
100
AcDbLine
 10
-7.0
 20
-18.93739406749227
 30
0.0
 11
-19.0
 21
-18.93739406749227
 31
0.0
  0
LINE
  5
45E
330
432
100
AcDbEntity
  8
1
100
AcDbLine
 10
-7.0
 20
-15.93739406749226
 30
0.0
 11
-19.0
 21
-15.93739406749226
 31
0.0
  0
LINE
  5
45F
330
432
100
AcDbEntity
  8
1
100
AcDbLine
 10
-7.0
 20
15.93739406749229
 30
0.0
 11
-19.0
 21
15.93739406749229
 31
0.0
  0
LINE
  5
460
330
432
100
AcDbEntity
  8
1
100
AcDbLine
 10
-7.0
 20
18.93739406749229
 30
0.0
 11
-19.0
 21
18.93739406749229
 31
0.0
  0
LINE
  5
461
330
432
100
AcDbEntity
  8
1
100
AcDbLine
 10
-19.0
 20
-3.0
 30
0.0
 11
-7.0
 21
-3.0
 31
0.0
  0
LINE
  5
462
330
432
100
AcDbEntity
  8
1
100
AcDbLine
 10
-19.0
 20
3.0
 30
0.0
 11
-7.0
 21
3.0
 31
0.0
  0
LINE
  5
463
330
432
100
AcDbEntity
  8
1
100
AcDbLine
 10
-21.0
 20
-21.49999999999999
 30
0.0
 11
-24.0
 21
-18.5
 31
0.0
  0
LINE
  5
464
330
432
100
AcDbEntity
  8
1
100
AcDbLine
 10
-21.0
 20
21.49999999999999
 30
0.0
 11
-21.0
 21
-21.49999999999999
 31
0.0
  0
LINE
  5
465
330
432
100
AcDbEntity
  8
1
100
AcDbLine
 10
-24.0
 20
18.5
 30
0.0
 11
-21.0
 21
21.49999999999999
 31
0.0
  0
LINE
  5
466
330
432
100
AcDbEntity
  8
1
100
AcDbLine
 10
-5.0
 20
-21.49999999999999
 30
0.0
 11
0.0
 21
-16.5
 31
0.0
  0
LINE
  5
467
330
432
100
AcDbEntity
  8
1
100
AcDbLine
 10
-5.0
 20
21.49999999999999
 30
0.0
 11
-5.0
 21
-21.49999999999999
 31
0.0
  0
LINE
  5
468
330
432
100
AcDbEntity
  8
1
100
AcDbLine
 10
0.0
 20
16.5
 30
0.0
 11
-5.0
 21
21.49999999999999
 31
0.0
  0
LINE
  5
469
330
432
100
AcDbEntity
  8
1
100
AcDbLine
 10
-21.0
 20
21.49999999999999
 30
0.0
 11
-5.0
 21
21.49999999999999
 31
0.0
  0
LINE
  5
46A
330
432
100
AcDbEntity
  8
1
100
AcDbLine
 10
-24.0
 20
-18.5
 30
0.0
 11
-24.0
 21
18.5
 31
0.0
  0
LINE
  5
46B
330
432
100
AcDbEntity
  8
1
100
AcDbLine
 10
-5.0
 20
-21.49999999999999
 30
0.0
 11
-21.0
 21
-21.49999999999999
 31
0.0
  0
LINE
  5
46C
330
432
100
AcDbEntity
  8
1
100
AcDbLine
 10
0.0
 20
16.5
 30
0.0
 11
0.0
 21
-16.5
 31
0.0
  0
ENDBLK
  5
46E
330
432
100
AcDbEntity
  8
0
100
AcDbBlockEnd
  0
ENDSEC
  0
SECTION
  2
ENTITIES
  0
LINE
  5
377
330
18
100
AcDbEntity
  8
1
100
AcDbLine
 10
132.6
 20
15.102
 30
0.0
 11
132.6
 21
-15.27299999999999
 31
0.0
  0
LINE
  5
378
330
18
100
AcDbEntity
  8
1
100
AcDbLine
 10
127.6
 20
19.859
 30
0.0
 11
127.6
 21
-19.57099999999999
 31
0.0
  0
LINE
  5
379
330
18
100
AcDbEntity
  8
4
100
AcDbLine
 10
-0.0000000000000071
 20
24.607
 30
0.0
 11
-0.0000000000000071
 21
-25.17999999999999
 31
0.0
  0
LINE
  5
37A
330
18
100
AcDbEntity
  8
4
100
AcDbLine
 10
-68.4
 20
0.0
 30
0.0
 11
160.0
 21
0.0
 31
0.0
  0
LINE
  5
37B
330
18
100
AcDbEntity
  8
SK4
100
AcDbLine
 10
11.14999999999999
 20
33.93500000000001
 30
0.0
 11
11.14999999999999
 21
0.0
 31
0.0
  0
LINE
  5
37C
330
18
100
AcDbEntity
  8
SK4
100
AcDbLine
 10
11.14999999999999
 20
-33.93499999999999
 30
0.0
 11
11.14999999999999
 21
0.0
 31
0.0
  0
LINE
  5
37D
330
18
100
AcDbEntity
  8
1
100
AcDbLine
 10
140.0
 20
-14.79999999999999
 30
0.0
 11
134.0999999999999
 21
-14.79999999999999
 31
0.0
  0
LINE
  5
37E
330
18
100
AcDbEntity
  8
1
100
AcDbLine
 10
134.0999999999999
 20
-15.99999999999999
 30
0.0
 11
134.0999999999999
 21
16.0
 31
0.0
  0
LINE
  5
37F
330
18
100
AcDbEntity
  8
1
100
AcDbLine
 10
140.0
 20
14.8
 30
0.0
 11
134.0999999999999
 21
14.8
 31
0.0
  0
ARC
  5
380
330
18
100
AcDbEntity
  8
1
100
AcDbCircle
 10
-67.15
 20
11.16899999999999
 30
0.0
 40
1.25
100
AcDbArc
 50
98.278694
 51
180.0
  0
ARC
  5
381
330
18
100
AcDbEntity
  8
1
100
AcDbCircle
 10
-67.15
 20
-11.16899999999999
 30
0.0
 40
1.25
100
AcDbArc
 50
179.998779
 51
261.720612
  0
ARC
  5
382
330
18
100
AcDbEntity
  8
1
100
AcDbCircle
 10
2.199999999999995
 20
-23.32699999999999
 30
0.0
 40
1.0
100
AcDbArc
 50
0.000003
 51
90.0
  0
LINE
  5
383
330
18
100
AcDbEntity
  8
1
100
AcDbLine
 10
3.199999999999995
 20
-30.775
 30
0.0
 11
3.199999999999995
 21
-23.32699999999999
 31
0.0
  0
ARC
  5
384
330
18
100
AcDbEntity
  8
1
100
AcDbCircle
 10
4.199999999999995
 20
-30.775
 30
0.0
 40
1.0
100
AcDbArc
 50
180.000015
 51
270.0
  0
ARC
  5
385
330
18
100
AcDbEntity
  8
1
100
AcDbCircle
 10
18.09999999999999
 20
-30.775
 30
0.0
 40
1.0
100
AcDbArc
 50
270.0
 51
0.000003
  0
LINE
  5
386
330
18
100
AcDbEntity
  8
1
100
AcDbLine
 10
19.09999999999999
 20
-23.99999999999999
 30
0.0
 11
19.09999999999999
 21
-30.775
 31
0.0
  0
ARC
  5
387
330
18
100
AcDbEntity
  8
1
100
AcDbCircle
 10
22.09999999999999
 20
-23.99999999999999
 30
0.0
 40
3.0
100
AcDbArc
 50
90.0
 51
180.0
  0
LINE
  5
388
330
18
100
AcDbEntity
  8
1
100
AcDbLine
 10
126.357
 20
-20.99999999999999
 30
0.0
 11
22.09999999999999
 21
-20.99999999999999
 31
0.0
  0
ARC
  5
389
330
18
100
AcDbEntity
  8
1
100
AcDbCircle
 10
126.357
 20
-17.99999999999999
 30
0.0
 40
3.0
100
AcDbArc
 50
269.993134
 51
315.0086359999999
  0
LINE
  5
38A
330
18
100
AcDbEntity
  8
1
100
AcDbLine
 10
132.307
 20
-16.29299999999999
 30
0.0
 11
128.4789999999999
 21
-20.12099999999999
 31
0.0
  0
ARC
  5
38B
330
18
100
AcDbEntity
  8
1
100
AcDbCircle
 10
133.0139999999999
 20
-16.99999999999999
 30
0.0
 40
1.0
100
AcDbArc
 50
90.0
 51
134.9999539999999
  0
ARC
  5
38C
330
18
100
AcDbEntity
  8
1
100
AcDbCircle
 10
133.0139999999999
 20
17.0
 30
0.0
 40
1.0
100
AcDbArc
 50
224.9913789999999
 51
269.987762
  0
LINE
  5
38D
330
18
100
AcDbEntity
  8
1
100
AcDbLine
 10
128.4789999999999
 20
20.12100000000001
 30
0.0
 11
132.307
 21
16.293
 31
0.0
  0
ARC
  5
38E
330
18
100
AcDbEntity
  8
1
100
AcDbCircle
 10
126.357
 20
18.0
 30
0.0
 40
3.0
100
AcDbArc
 50
44.986473
 51
89.99997699999999
  0
LINE
  5
38F
330
18
100
AcDbEntity
  8
1
100
AcDbLine
 10
22.09999999999999
 20
21.0
 30
0.0
 11
126.357
 21
21.0
 31
0.0
  0
ARC
  5
390
330
18
100
AcDbEntity
  8
1
100
AcDbCircle
 10
22.09999999999999
 20
24.0
 30
0.0
 40
3.0
100
AcDbArc
 50
180.0
 51
270.0
  0
LINE
  5
391
330
18
100
AcDbEntity
  8
1
100
AcDbLine
 10
19.09999999999999
 20
30.775
 30
0.0
 11
19.09999999999999
 21
24.0
 31
0.0
  0
ARC
  5
392
330
18
100
AcDbEntity
  8
1
100
AcDbCircle
 10
18.09999999999999
 20
30.775
 30
0.0
 40
1.0
100
AcDbArc
 50
0.0
 51
90.0
  0
ARC
  5
393
330
18
100
AcDbEntity
  8
1
100
AcDbCircle
 10
4.199999999999995
 20
30.775
 30
0.0
 40
1.0
100
AcDbArc
 50
90.0
 51
180.0
  0
LINE
  5
394
330
18
100
AcDbEntity
  8
1
100
AcDbLine
 10
3.199999999999995
 20
23.32699999999999
 30
0.0
 11
3.199999999999995
 21
30.775
 31
0.0
  0
ARC
  5
395
330
18
100
AcDbEntity
  8
1
100
AcDbCircle
 10
2.199999999999995
 20
23.32699999999999
 30
0.0
 40
1.0
100
AcDbArc
 50
270.0
 51
0.0
  0
ARC
  5
396
330
18
100
AcDbEntity
  8
1
100
AcDbCircle
 10
141.5
 20
19.5
 30
0.0
 40
1.5
100
AcDbArc
 50
90.0
 51
180.0
  0
ARC
  5
397
330
18
100
AcDbEntity
  8
1
100
AcDbCircle
 10
141.5
 20
-19.49999999999999
 30
0.0
 40
1.5
100
AcDbArc
 50
179.999985
 51
269.999969
  0
LINE
  5
398
330
18
100
AcDbEntity
  8
1
100
AcDbLine
 10
142.0
 20
19.5
 30
0.0
 11
156.8249999999999
 21
19.5
 31
0.0
  0
ARC
  5
399
330
18
100
AcDbEntity
  8
1
100
AcDbCircle
 10
151.3039999999999
 20
34.769
 30
0.0
 40
17.88
100
AcDbArc
 50
238.644424
 51
272.2308039999999
  0
LINE
  5
39A
330
18
100
AcDbEntity
  8
1
100
AcDbLine
 10
152.0
 20
16.902
 30
0.0
 11
157.6909999999999
 21
16.902
 31
0.0
  0
POINT
  5
39B
330
18
100
AcDbEntity
  8
1__1
 62
     7
100
AcDbPoint
 10
-0.0000000000000071
 20
0.0
 30
0.0
  0
LINE
  5
39C
330
18
100
AcDbEntity
  8
1
100
AcDbLine
 10
0.6999999999999958
 20
22.32699999999999
 30
0.0
 11
0.6999999999999958
 21
-22.32699999999999
 31
0.0
  0
LINE
  5
39D
330
18
100
AcDbEntity
  8
1
100
AcDbLine
 10
3.199999999999995
 20
23.32699999999999
 30
0.0
 11
3.199999999999995
 21
-23.32699999999999
 31
0.0
  0
LINE
  5
39E
330
18
100
AcDbEntity
  8
1
100
AcDbLine
 10
3.199999999999995
 20
8.050000000000004
 30
0.0
 11
19.09999999999999
 21
8.050000000000004
 31
0.0
  0
LINE
  5
39F
330
18
100
AcDbEntity
  8
1
100
AcDbLine
 10
3.199999999999995
 20
-8.049999999999997
 30
0.0
 11
19.09999999999999
 21
-8.049999999999997
 31
0.0
  0
LINE
  5
3A0
330
18
100
AcDbEntity
  8
1
100
AcDbLine
 10
19.09999999999999
 20
24.0
 30
0.0
 11
19.09999999999999
 21
-23.99999999999999
 31
0.0
  0
LINE
  5
3A1
330
18
100
AcDbEntity
  8
1
100
AcDbLine
 10
3.199999999999995
 20
-18.49999999999999
 30
0.0
 11
19.09999999999999
 21
-18.49999999999999
 31
0.0
  0
ARC
  5
3A2
330
18
100
AcDbEntity
  8
1
100
AcDbCircle
 10
151.3039999999999
 20
-34.769
 30
0.0
 40
17.88
100
AcDbArc
 50
87.769203
 51
121.355583
  0
LINE
  5
3A3
330
18
100
AcDbEntity
  8
1
100
AcDbLine
 10
142.0
 20
-19.49999999999999
 30
0.0
 11
156.8249999999999
 21
-19.49999999999999
 31
0.0
  0
LINE
  5
3A4
330
18
100
AcDbEntity
  8
1
100
AcDbLine
 10
152.0
 20
-16.90199999999999
 30
0.0
 11
157.6909999999999
 21
-16.90199999999999
 31
0.0
  0
LINE
  5
3A5
330
18
100
AcDbEntity
  8
1
100
AcDbLine
 10
142.0
 20
-19.49999999999999
 30
0.0
 11
142.0
 21
-16.49999999999999
 31
0.0
  0
LINE
  5
3A6
330
18
100
AcDbEntity
  8
1
100
AcDbLine
 10
142.0
 20
-16.49999999999999
 30
0.0
 11
157.6909999999999
 21
-16.49999999999999
 31
0.0
  0
LINE
  5
3A7
330
18
100
AcDbEntity
  8
1
100
AcDbLine
 10
157.6909999999999
 20
-16.49999999999999
 30
0.0
 11
157.6909999999999
 21
-17.99999999999999
 31
0.0
  0
LINE
  5
3A8
330
18
100
AcDbEntity
  8
1
100
AcDbLine
 10
9.274999999999995
 20
-21.18399999999999
 30
0.0
 11
13.02499999999999
 21
-21.18399999999999
 31
0.0
  0
LINE
  5
3A9
330
18
100
AcDbEntity
  8
1
100
AcDbLine
 10
13.02499999999999
 20
-21.18399999999999
 30
0.0
 11
15.13199999999999
 21
-25.83399999999999
 31
0.0
  0
LINE
  5
3AA
330
18
100
AcDbEntity
  8
1
100
AcDbLine
 10
15.13199999999999
 20
-25.83399999999999
 30
0.0
 11
19.09999999999999
 21
-25.83399999999999
 31
0.0
  0
LINE
  5
3AB
330
18
100
AcDbEntity
  8
1
100
AcDbLine
 10
9.274999999999995
 20
-21.18399999999999
 30
0.0
 11
7.167999999999992
 21
-25.83399999999999
 31
0.0
  0
LINE
  5
3AC
330
18
100
AcDbEntity
  8
1
100
AcDbLine
 10
7.167999999999992
 20
-25.83399999999999
 30
0.0
 11
3.199999999999995
 21
-25.83399999999999
 31
0.0
  0
LINE
  5
3AD
330
18
100
AcDbEntity
  8
1
100
AcDbLine
 10
15.13199999999999
 20
8.050000000000004
 30
0.0
 11
15.13199999999999
 21
31.775
 31
0.0
  0
LINE
  5
3AE
330
18
100
AcDbEntity
  8
1
100
AcDbLine
 10
15.13199999999999
 20
-18.49999999999999
 30
0.0
 11
15.13199999999999
 21
-8.049999999999997
 31
0.0
  0
LINE
  5
3AF
330
18
100
AcDbEntity
  8
1
100
AcDbLine
 10
15.13199999999999
 20
-31.775
 30
0.0
 11
15.13199999999999
 21
-25.83399999999999
 31
0.0
  0
LINE
  5
3B0
330
18
100
AcDbEntity
  8
1
100
AcDbLine
 10
13.02499999999999
 20
-21.18399999999999
 30
0.0
 11
13.02499999999999
 21
-28.125
 31
0.0
  0
LINE
  5
3B1
330
18
100
AcDbEntity
  8
1
100
AcDbLine
 10
13.02499999999999
 20
-8.049999999999997
 30
0.0
 11
13.02499999999999
 21
-18.49999999999999
 31
0.0
  0
LINE
  5
3B2
330
18
100
AcDbEntity
  8
1
100
AcDbLine
 10
13.02499999999999
 20
28.125
 30
0.0
 11
13.02499999999999
 21
8.050000000000004
 31
0.0
  0
LINE
  5
3B3
330
18
100
AcDbEntity
  8
1
100
AcDbLine
 10
9.274999999999995
 20
-21.18399999999999
 30
0.0
 11
9.274999999999995
 21
-28.125
 31
0.0
  0
LINE
  5
3B4
330
18
100
AcDbEntity
  8
1
100
AcDbLine
 10
9.274999999999995
 20
-8.049999999999997
 30
0.0
 11
9.274999999999995
 21
-18.49999999999999
 31
0.0
  0
LINE
  5
3B5
330
18
100
AcDbEntity
  8
1
100
AcDbLine
 10
9.274999999999995
 20
28.125
 30
0.0
 11
9.274999999999995
 21
8.050000000000004
 31
0.0
  0
LINE
  5
3B6
330
18
100
AcDbEntity
  8
1
100
AcDbLine
 10
7.167999999999992
 20
-25.83399999999999
 30
0.0
 11
7.167999999999992
 21
-31.775
 31
0.0
  0
LINE
  5
3B7
330
18
100
AcDbEntity
  8
1
100
AcDbLine
 10
7.167999999999992
 20
-8.049999999999997
 30
0.0
 11
7.167999999999992
 21
-18.49999999999999
 31
0.0
  0
LINE
  5
3B8
330
18
100
AcDbEntity
  8
1
100
AcDbLine
 10
7.167999999999992
 20
31.775
 30
0.0
 11
7.167999999999992
 21
8.050000000000004
 31
0.0
  0
LINE
  5
3B9
330
18
100
AcDbEntity
  8
1
100
AcDbLine
 10
142.0
 20
19.5
 30
0.0
 11
142.0
 21
16.5
 31
0.0
  0
LINE
  5
3BA
330
18
100
AcDbEntity
  8
1
100
AcDbLine
 10
142.0
 20
16.5
 30
0.0
 11
157.6909999999999
 21
16.5
 31
0.0
  0
LINE
  5
3BB
330
18
100
AcDbEntity
  8
1
100
AcDbLine
 10
157.6909999999999
 20
16.5
 30
0.0
 11
157.6909999999999
 21
18.0
 31
0.0
  0
LINE
  5
3BC
330
18
100
AcDbEntity
  8
1
100
AcDbLine
 10
142.0
 20
-2.999999999999996
 30
0.0
 11
157.6909999999999
 21
-2.999999999999996
 31
0.0
  0
LINE
  5
3BD
330
18
100
AcDbEntity
  8
1
100
AcDbLine
 10
157.6909999999999
 20
-2.999999999999996
 30
0.0
 11
157.6909999999999
 21
3.0
 31
0.0
  0
LINE
  5
3BE
330
18
100
AcDbEntity
  8
1
100
AcDbLine
 10
157.6909999999999
 20
3.0
 30
0.0
 11
142.0
 21
3.0
 31
0.0
  0
LINE
  5
3BF
330
18
100
AcDbEntity
  8
1
100
AcDbLine
 10
142.0
 20
3.0
 30
0.0
 11
142.0
 21
-2.999999999999996
 31
0.0
  0
LINE
  5
3C0
330
18
100
AcDbEntity
  8
1
100
AcDbLine
 10
155.959
 20
-19.49999999999999
 30
0.0
 11
155.959
 21
-20.99999999999999
 31
0.0
  0
LINE
  5
3C1
330
18
100
AcDbEntity
  8
1
100
AcDbLine
 10
155.959
 20
-2.999999999999996
 30
0.0
 11
155.959
 21
-16.49999999999999
 31
0.0
  0
LINE
  5
3C2
330
18
100
AcDbEntity
  8
1
100
AcDbLine
 10
155.959
 20
16.5
 30
0.0
 11
155.959
 21
3.0
 31
0.0
  0
LINE
  5
3C3
330
18
100
AcDbEntity
  8
1
100
AcDbLine
 10
155.959
 20
21.0
 30
0.0
 11
155.959
 21
19.5
 31
0.0
  0
LINE
  5
3C4
330
18
100
AcDbEntity
  8
1
100
AcDbLine
 10
140.0
 20
19.5
 30
0.0
 11
140.0
 21
-19.49999999999999
 31
0.0
  0
LINE
  5
3C5
330
18
100
AcDbEntity
  8
1
100
AcDbLine
 10
141.5
 20
-20.99999999999999
 30
0.0
 11
155.959
 21
-20.99999999999999
 31
0.0
  0
LINE
  5
3C6
330
18
100
AcDbEntity
  8
1
100
AcDbLine
 10
155.959
 20
-20.99999999999999
 30
0.0
 11
160.0
 21
-13.99999999999999
 31
0.0
  0
LINE
  5
3C7
330
18
100
AcDbEntity
  8
1
100
AcDbLine
 10
160.0
 20
-13.99999999999999
 30
0.0
 11
160.0
 21
14.0
 31
0.0
  0
LINE
  5
3C8
330
18
100
AcDbEntity
  8
1
100
AcDbLine
 10
160.0
 20
14.0
 30
0.0
 11
155.959
 21
21.0
 31
0.0
  0
LINE
  5
3C9
330
18
100
AcDbEntity
  8
1
100
AcDbLine
 10
155.959
 20
21.0
 30
0.0
 11
141.5
 21
21.0
 31
0.0
  0
LINE
  5
3CA
330
18
100
AcDbEntity
  8
1
100
AcDbLine
 10
-67.33000000000001
 20
12.406
 30
0.0
 11
0.6999999999999958
 21
22.32699999999999
 31
0.0
  0
LINE
  5
3CB
330
18
100
AcDbEntity
  8
1
100
AcDbLine
 10
0.6999999999999958
 20
22.32699999999999
 30
0.0
 11
2.199999999999995
 21
22.32699999999999
 31
0.0
  0
LINE
  5
3CC
330
18
100
AcDbEntity
  8
1
100
AcDbLine
 10
4.199999999999995
 20
31.775
 30
0.0
 11
7.167999999999992
 21
31.775
 31
0.0
  0
LINE
  5
3CD
330
18
100
AcDbEntity
  8
1
100
AcDbLine
 10
7.167999999999992
 20
31.775
 30
0.0
 11
9.149999999999995
 21
28.342
 31
0.0
  0
LINE
  5
3CE
330
18
100
AcDbEntity
  8
1
100
AcDbLine
 10
9.149999999999995
 20
28.342
 30
0.0
 11
9.274999999999995
 21
28.125
 31
0.0
  0
LINE
  5
3CF
330
18
100
AcDbEntity
  8
1
100
AcDbLine
 10
9.274999999999995
 20
28.125
 30
0.0
 11
11.14999999999999
 21
28.125
 31
0.0
  0
LINE
  5
3D0
330
18
100
AcDbEntity
  8
1
100
AcDbLine
 10
11.14999999999999
 20
28.125
 30
0.0
 11
13.02499999999999
 21
28.125
 31
0.0
  0
LINE
  5
3D1
330
18
100
AcDbEntity
  8
1
100
AcDbLine
 10
13.02499999999999
 20
28.125
 30
0.0
 11
13.14999999999999
 21
28.34100000000001
 31
0.0
  0
LINE
  5
3D2
330
18
100
AcDbEntity
  8
1
100
AcDbLine
 10
13.14999999999999
 20
28.34100000000001
 30
0.0
 11
15.13199999999999
 21
31.775
 31
0.0
  0
LINE
  5
3D3
330
18
100
AcDbEntity
  8
1
100
AcDbLine
 10
15.13199999999999
 20
31.775
 30
0.0
 11
18.09999999999999
 21
31.775
 31
0.0
  0
LINE
  5
3D4
330
18
100
AcDbEntity
  8
1
100
AcDbLine
 10
18.09999999999999
 20
-31.775
 30
0.0
 11
15.13199999999999
 21
-31.775
 31
0.0
  0
LINE
  5
3D5
330
18
100
AcDbEntity
  8
1
100
AcDbLine
 10
15.13199999999999
 20
-31.775
 30
0.0
 11
13.14999999999999
 21
-28.34099999999999
 31
0.0
  0
LINE
  5
3D6
330
18
100
AcDbEntity
  8
1
100
AcDbLine
 10
13.14999999999999
 20
-28.34099999999999
 30
0.0
 11
13.02499999999999
 21
-28.125
 31
0.0
  0
LINE
  5
3D7
330
18
100
AcDbEntity
  8
1
100
AcDbLine
 10
13.02499999999999
 20
-28.125
 30
0.0
 11
11.14999999999999
 21
-28.125
 31
0.0
  0
LINE
  5
3D8
330
18
100
AcDbEntity
  8
1
100
AcDbLine
 10
11.14999999999999
 20
-28.125
 30
0.0
 11
9.274999999999995
 21
-28.125
 31
0.0
  0
LINE
  5
3D9
330
18
100
AcDbEntity
  8
1
100
AcDbLine
 10
9.274999999999995
 20
-28.125
 30
0.0
 11
9.149999999999995
 21
-28.34099999999999
 31
0.0
  0
LINE
  5
3DA
330
18
100
AcDbEntity
  8
1
100
AcDbLine
 10
9.149999999999995
 20
-28.34099999999999
 30
0.0
 11
7.167999999999992
 21
-31.775
 31
0.0
  0
LINE
  5
3DB
330
18
100
AcDbEntity
  8
1
100
AcDbLine
 10
7.167999999999992
 20
-31.775
 30
0.0
 11
4.199999999999995
 21
-31.775
 31
0.0
  0
LINE
  5
3DC
330
18
100
AcDbEntity
  8
1
100
AcDbLine
 10
2.199999999999995
 20
-22.32699999999999
 30
0.0
 11
0.6999999999999958
 21
-22.32699999999999
 31
0.0
  0
LINE
  5
3DD
330
18
100
AcDbEntity
  8
1
100
AcDbLine
 10
0.6999999999999958
 20
-22.32699999999999
 30
0.0
 11
-67.33000000000001
 21
-12.40599999999999
 31
0.0
  0
LINE
  5
3DE
330
18
100
AcDbEntity
  8
1
100
AcDbLine
 10
-68.4
 20
-11.16899999999999
 30
0.0
 11
-68.4
 21
-9.499999999999996
 31
0.0
  0
LINE
  5
3DF
330
18
100
AcDbEntity
  8
1
100
AcDbLine
 10
-68.4
 20
-9.499999999999996
 30
0.0
 11
-68.4
 21
0.0
 31
0.0
  0
LINE
  5
3E0
330
18
100
AcDbEntity
  8
1
100
AcDbLine
 10
-68.4
 20
0.0
 30
0.0
 11
-68.4
 21
9.5
 31
0.0
  0
LINE
  5
3E1
330
18
100
AcDbEntity
  8
1
100
AcDbLine
 10
-68.4
 20
9.5
 30
0.0
 11
-68.4
 21
11.16899999999999
 31
0.0
  0
LINE
  5
3E2
330
18
100
AcDbEntity
  8
1
100
AcDbLine
 10
140.0
 20
-15.99999999999999
 30
0.0
 11
133.0139999999999
 21
-15.99999999999999
 31
0.0
  0
LINE
  5
3E3
330
18
100
AcDbEntity
  8
1
100
AcDbLine
 10
133.0139999999999
 20
16.0
 30
0.0
 11
140.0
 21
16.0
 31
0.0
  0
LINE
  5
3E4
330
18
100
AcDbEntity
  8
SK4
100
AcDbLine
 10
-72.68100000000001
 20
0.0
 30
0.0
 11
163.3968056742651
 21
0.0
 31
0.0
  0
LINE
  5
3E6
330
18
100
AcDbEntity
  8
SK2
100
AcDbLine
 10
155.959
 20
21.0
 30
0.0
 11
180.0
 21
20.99999999999999
 31
0.0
  0
LINE
  5
3E7
330
18
100
AcDbEntity
  8
SK2
100
AcDbLine
 10
155.959
 20
-20.99999999999999
 30
0.0
 11
180.0
 21
-21.0
 31
0.0
  0
LINE
  5
3E8
330
18
100
AcDbEntity
  8
SK2
100
AcDbLine
 10
175.0
 20
16.42999999999999
 30
0.0
 11
175.0
 21
-16.42999999999999
 31
0.0
  0
SOLID
  5
3E9
330
18
100
AcDbEntity
  8
SK2
100
AcDbTrace
 10
174.2383333333333
 20
16.42999999999999
 30
0.0
 11
175.7616666666666
 21
16.42999999999999
 31
0.0
 12
175.0
 22
20.99999999999999
 32
0.0
 13
175.0
 23
20.99999999999999
 33
0.0
  0
SOLID
  5
3EA
330
18
100
AcDbEntity
  8
SK2
100
AcDbTrace
 10
174.2383333333333
 20
-16.42999999999999
 30
0.0
 11
175.7616666666666
 21
-16.42999999999999
 31
0.0
 12
175.0
 22
-21.0
 32
0.0
 13
175.0
 23
-21.0
 33
0.0
  0
LINE
  5
3EC
330
18
100
AcDbEntity
  8
SK2
100
AcDbLine
 10
19.04999999999999
 20
30.95
 30
0.0
 11
19.05
 21
64.52229022316988
 31
0.0
  0
LINE
  5
3ED
330
18
100
AcDbEntity
  8
SK2
100
AcDbLine
 10
0.0
 20
22.225
 30
0.0
 11
0.0000000000000035
 21
80.0
 31
0.0
  0
LINE
  5
3EF
330
18
100
AcDbEntity
  8
SK3
100
AcDbLine
 10
-59.51133
 20
8.0
 30
0.0
 11
-36.25
 21
8.0
 31
0.0
  0
LINE
  5
3F0
330
18
100
AcDbEntity
  8
SK3
100
AcDbLine
 10
-59.51133
 20
-8.0
 30
0.0
 11
-36.25
 21
-8.0
 31
0.0
  0
LINE
  5
3F1
330
18
100
AcDbEntity
  8
SK3
100
AcDbLine
 10
-58.93133
 20
-7.0
 30
0.0
 11
-25.75
 21
-7.0
 31
0.0
  0
LINE
  5
3F2
330
18
100
AcDbEntity
  8
SK3
100
AcDbLine
 10
-58.93133
 20
7.0
 30
0.0
 11
-25.75
 21
7.0
 31
0.0
  0
LINE
  5
3F3
330
18
100
AcDbEntity
  8
SK2
100
AcDbLine
 10
4.000000000328171
 20
-31.75
 30
0.0
 11
-103.9499999999999
 21
-31.74999999999997
 31
0.0
  0
LINE
  5
3F4
330
18
100
AcDbEntity
  8
SK2
100
AcDbLine
 10
4.0
 20
31.75
 30
0.0
 11
-103.9499999999999
 21
31.75000000000002
 31
0.0
  0
TEXT
  5
3F5
330
18
100
AcDbEntity
  8
6
100
AcDbText
 10
-59.90713279259613
 20
10.18014777577948
 30
0.0
 40
3.0
  1
SK40 DIN69871ADB
  7
SIMPLEX
100
AcDbText
  0
LINE
  5
3F6
330
18
100
AcDbEntity
  8
SK2
100
AcDbLine
 10
-98.95000000000001
 20
-27.17999999999997
 30
0.0
 11
-98.95000000000001
 21
27.18000000000003
 31
0.0
  0
SOLID
  5
3F7
330
18
100
AcDbEntity
  8
SK2
100
AcDbTrace
 10
-99.71166666666668
 20
-27.17999999999997
 30
0.0
 11
-98.18833333333333
 21
-27.17999999999997
 31
0.0
 12
-98.95000000000001
 22
-31.74999999999997
 32
0.0
 13
-98.95000000000001
 23
-31.74999999999997
 33
0.0
  0
SOLID
  5
3F9
330
18
100
AcDbEntity
  8
SK2
100
AcDbTrace
 10
-99.71166666666668
 20
27.18000000000003
 30
0.0
 11
-98.18833333333333
 21
27.18000000000003
 31
0.0
 12
-98.95000000000001
 22
31.75000000000002
 32
0.0
 13
-98.95000000000001
 23
31.75000000000002
 33
0.0
  0
ARC
  5
3FB
330
18
100
AcDbEntity
  8
SK3
100
AcDbCircle
 10
-67.5
 20
-9.25453
 30
0.0
 40
0.75
100
AcDbArc
 50
90.0000000235031
 51
180.0000000235031
  0
ARC
  5
3FC
330
18
100
AcDbEntity
  8
SK3
100
AcDbCircle
 10
-67.5
 20
9.25453
 30
0.0
 40
0.75
100
AcDbArc
 50
180.0
 51
270.0
  0
LINE
  5
3FD
330
18
100
AcDbEntity
  8
SK3
100
AcDbLine
 10
-59.8
 20
8.5
 30
0.0
 11
-59.8
 21
-8.504530000000004
 31
0.0
  0
LINE
  5
3FE
330
18
100
AcDbEntity
  8
SK3
100
AcDbLine
 10
-58.93133
 20
-7.0
 30
0.0
 11
-58.93133
 21
7.0
 31
0.0
  0
LINE
  5
3FF
330
18
100
AcDbEntity
  8
SK3
100
AcDbLine
 10
-67.5
 20
-8.504530000000002
 30
0.0
 11
-59.8
 21
-8.504530000000002
 31
0.0
  0
LINE
  5
400
330
18
100
AcDbEntity
  8
SK3
100
AcDbLine
 10
-58.93133
 20
-7.0
 30
0.0
 11
-59.8
 21
-8.504530000000002
 31
0.0
  0
LINE
  5
401
330
18
100
AcDbEntity
  8
SK3
100
AcDbLine
 10
-67.5
 20
8.504530000000002
 30
0.0
 11
-59.8
 21
8.504530000000002
 31
0.0
  0
LINE
  5
402
330
18
100
AcDbEntity
  8
SK3
100
AcDbLine
 10
-58.93133
 20
7.0
 30
0.0
 11
-59.8
 21
8.504530000000002
 31
0.0
  0
LINE
  5
404
330
18
100
AcDbEntity
  8
SK3
100
AcDbLine
 10
-36.25
 20
8.0
 30
0.0
 11
-36.25
 21
-8.0
 31
0.0
  0
LINE
  5
405
330
18
100
AcDbEntity
  8
SK3
100
AcDbLine
 10
-25.75
 20
7.0
 30
0.0
 11
-25.75
 21
-7.0
 31
0.0
  0
LINE
  5
408
330
18
100
AcDbEntity
  8
SK2
100
AcDbLine
 10
4.570000000000003
 20
60.0
 30
0.0
 11
14.48
 21
60.0
 31
0.0
  0
SOLID
  5
409
330
18
100
AcDbEntity
  8
SK2
100
AcDbTrace
 10
4.570000000000003
 20
60.76166666666667
 30
0.0
 11
4.570000000000003
 21
59.23833333333333
 31
0.0
 12
0.0000000000000032
 22
60.0
 32
0.0
 13
0.0000000000000032
 23
60.0
 33
0.0
  0
LINE
  5
40A
330
18
100
AcDbEntity
  8
SK2
100
AcDbLine
 10
19.05
 20
60.0
 30
0.0
 11
45.62952380952381
 21
60.0
 31
0.0
  0
SOLID
  5
40C
330
18
100
AcDbEntity
  8
SK2
100
AcDbTrace
 10
14.48
 20
60.76166666666667
 30
0.0
 11
14.48
 21
59.23833333333333
 31
0.0
 12
19.05
 22
60.0
 32
0.0
 13
19.05
 23
60.0
 33
0.0
  0
ARC
  5
47F
330
18
100
AcDbEntity
  8
SK3
100
AcDbCircle
 10
125.4
 20
-8.400000000000005
 30
0.0
 40
0.6
100
AcDbArc
 50
270.0
 51
0.0
  0
ARC
  5
480
330
18
100
AcDbEntity
  8
SK3
100
AcDbCircle
 10
120.5999999999999
 20
-8.400000000000005
 30
0.0
 40
0.6
100
AcDbArc
 50
180.0
 51
270.0
  0
ARC
  5
481
330
18
100
AcDbEntity
  8
SK3
100
AcDbCircle
 10
120.5999999999999
 20
8.400000000000005
 30
0.0
 40
0.6
100
AcDbArc
 50
90.0
 51
180.0
  0
ARC
  5
482
330
18
100
AcDbEntity
  8
SK3
100
AcDbCircle
 10
125.4
 20
8.400000000000005
 30
0.0
 40
0.6
100
AcDbArc
 50
0.0
 51
90.0
  0
LINE
  5
483
330
18
100
AcDbEntity
  8
SK3
100
AcDbLine
 10
126.0
 20
-8.400000000000005
 30
0.0
 11
126.0
 21
-7.175000000000011
 31
0.0
  0
LINE
  5
484
330
18
100
AcDbEntity
  8
SK3
100
AcDbLine
 10
120.5999999999999
 20
-9.0
 30
0.0
 11
125.4
 21
-9.0
 31
0.0
  0
LINE
  5
485
330
18
100
AcDbEntity
  8
SK3
100
AcDbLine
 10
120.0
 20
8.400000000000005
 30
0.0
 11
120.0
 21
-8.400000000000005
 31
0.0
  0
LINE
  5
486
330
18
100
AcDbEntity
  8
SK3
100
AcDbLine
 10
125.4
 20
9.0
 30
0.0
 11
120.5999999999999
 21
9.0
 31
0.0
  0
LINE
  5
487
330
18
100
AcDbEntity
  8
SK3
100
AcDbLine
 10
126.0
 20
7.175000000000011
 30
0.0
 11
126.0
 21
8.400000000000005
 31
0.0
  0
LINE
  5
488
330
18
100
AcDbEntity
  8
SK3
100
AcDbLine
 10
150.5
 20
-8.875
 30
0.0
 11
126.0
 21
-7.175000000000011
 31
0.0
  0
LINE
  5
489
330
18
100
AcDbEntity
  8
SK3
100
AcDbLine
 10
150.5
 20
8.875
 30
0.0
 11
126.0
 21
7.175000000000011
 31
0.0
  0
LINE
  5
48A
330
18
100
AcDbEntity
  8
SK3
100
AcDbLine
 10
126.0
 20
7.175000000000011
 30
0.0
 11
126.0
 21
-7.175000000000011
 31
0.0
  0
LINE
  5
48B
330
18
100
AcDbEntity
  8
SK3
100
AcDbLine
 10
150.5
 20
21.0
 30
0.0
 11
150.5
 21
-20.99999999999999
 31
0.0
  0
LINE
  5
4AA
330
18
100
AcDbEntity
  8
SK3
100
AcDbLine
 10
-25.75
 20
7.0
 30
0.0
 11
120.0
 21
7.0
 31
0.0
  0
LINE
  5
4AB
330
18
100
AcDbEntity
  8
SK3
100
AcDbLine
 10
-25.75
 20
-7.0
 30
0.0
 11
119.9999999999999
 21
-7.0
 31
0.0
  0
LINE
  5
4AD
330
18
100
AcDbEntity
  8
SK2
100
AcDbLine
 10
0.0
 20
22.225
 30
0.0
 11
-10.94999999999999
 21
22.225
 31
0.0
  0
LINE
  5
4AE
330
18
100
AcDbEntity
  8
SK2
100
AcDbLine
 10
0.0
 20
-22.225
 30
0.0
 11
-10.95
 21
-22.22499999999999
 31
0.0
  0
LINE
  5
4AF
330
18
100
AcDbEntity
  8
SK2
100
AcDbLine
 10
-5.949999999999993
 20
17.655
 30
0.0
 11
-5.950000000000001
 21
-17.655
 31
0.0
  0
SOLID
  5
4B0
330
18
100
AcDbEntity
  8
SK2
100
AcDbTrace
 10
-6.71166666666666
 20
17.655
 30
0.0
 11
-5.188333333333327
 21
17.655
 31
0.0
 12
-5.949999999999992
 22
22.225
 32
0.0
 13
-5.949999999999992
 23
22.225
 33
0.0
  0
SOLID
  5
4B1
330
18
100
AcDbEntity
  8
SK2
100
AcDbTrace
 10
-6.711666666666667
 20
-17.655
 30
0.0
 11
-5.188333333333334
 21
-17.655
 31
0.0
 12
-5.950000000000002
 22
-22.225
 32
0.0
 13
-5.950000000000002
 23
-22.225
 33
0.0
  0
LINE
  5
4B3
330
18
100
AcDbEntity
  8
SK2
100
AcDbLine
 10
-59.51133
 20
-7.999999999999999
 30
0.0
 11
-88.95000000000001
 21
-7.999999999999991
 31
0.0
  0
LINE
  5
4B4
330
18
100
AcDbEntity
  8
SK2
100
AcDbLine
 10
-59.51133
 20
8.0
 30
0.0
 11
-88.95000000000001
 21
8.000000000000008
 31
0.0
  0
LINE
  5
4B5
330
18
100
AcDbEntity
  8
SK2
100
AcDbLine
 10
-83.95000000000001
 20
-3.429999999999991
 30
0.0
 11
-83.95000000000001
 21
3.430000000000006
 31
0.0
  0
LINE
  5
4B6
330
18
100
AcDbEntity
  8
SK2
100
AcDbLine
 10
-83.95000000000001
 20
8.000000000000007
 30
0.0
 11
-83.95000000000001
 21
28.70380952380953
 31
0.0
  0
SOLID
  5
4B7
330
18
100
AcDbEntity
  8
SK2
100
AcDbTrace
 10
-84.71166666666666
 20
-3.429999999999991
 30
0.0
 11
-83.18833333333333
 21
-3.429999999999991
 31
0.0
 12
-83.95000000000001
 22
-7.999999999999992
 32
0.0
 13
-83.95000000000001
 23
-7.999999999999992
 33
0.0
  0
SOLID
  5
4B8
330
18
100
AcDbEntity
  8
SK2
100
AcDbTrace
 10
-84.71166666666666
 20
3.430000000000006
 30
0.0
 11
-83.18833333333333
 21
3.430000000000006
 31
0.0
 12
-83.95000000000001
 22
8.000000000000007
 32
0.0
 13
-83.95000000000001
 23
8.000000000000007
 33
0.0
  0
LINE
  5
4BA
330
18
100
AcDbEntity
  8
SK2
100
AcDbLine
 10
-68.4
 20
11.45313
 30
0.0
 11
-68.4
 21
80.0
 31
0.0
  0
LINE
  5
4BB
330
18
100
AcDbEntity
  8
SK2
100
AcDbLine
 10
0.0
 20
22.225
 30
0.0
 11
0.0000000000000035
 21
80.0
 31
0.0
  0
LINE
  5
4BC
330
18
100
AcDbEntity
  8
SK2
100
AcDbLine
 10
-63.83
 20
75.0
 30
0.0
 11
-4.569999999999996
 21
75.0
 31
0.0
  0
SOLID
  5
4BD
330
18
100
AcDbEntity
  8
SK2
100
AcDbTrace
 10
-63.83
 20
75.76166666666667
 30
0.0
 11
-63.83
 21
74.23833333333333
 31
0.0
 12
-68.4
 22
75.0
 32
0.0
 13
-68.4
 23
75.0
 33
0.0
  0
SOLID
  5
4BE
330
18
100
AcDbEntity
  8
SK2
100
AcDbTrace
 10
-4.569999999999996
 20
75.76166666666667
 30
0.0
 11
-4.569999999999996
 21
74.23833333333333
 31
0.0
 12
0.0000000000000032
 22
75.0
 32
0.0
 13
0.0000000000000032
 23
75.0
 33
0.0
  0
LINE
  5
4C0
330
18
100
AcDbEntity
  8
2
100
AcDbLine
 10
-0.0000000000000071
 20
24.607
 30
0.0
 11
-0.0000000000000037
 21
80.0
 31
0.0
  0
LINE
  5
4C1
330
18
100
AcDbEntity
  8
2
100
AcDbLine
 10
160.0
 20
14.0
 30
0.0
 11
160.0
 21
80.0
 31
0.0
  0
LINE
  5
4C2
330
18
100
AcDbEntity
  8
2
100
AcDbLine
 10
4.569999999999995
 20
75.0
 30
0.0
 11
155.43
 21
75.0
 31
0.0
  0
SOLID
  5
4C3
330
18
100
AcDbEntity
  8
2
100
AcDbTrace
 10
4.569999999999995
 20
75.76166666666667
 30
0.0
 11
4.569999999999995
 21
74.23833333333333
 31
0.0
 12
-0.000000000000004
 22
75.0
 32
0.0
 13
-0.000000000000004
 23
75.0
 33
0.0
  0
SOLID
  5
4C4
330
18
100
AcDbEntity
  8
2
100
AcDbTrace
 10
155.43
 20
75.76166666666667
 30
0.0
 11
155.43
 21
74.23833333333333
 31
0.0
 12
160.0
 22
75.0
 32
0.0
 13
160.0
 23
75.0
 33
0.0
  0
TEXT
  5
4C6
330
18
100
AcDbEntity
  8
2
100
AcDbText
 10
74.55952380952381
 20
77.3
 30
0.0
 40
4.57
  1
160
  7
SIMPLEX
100
AcDbText
  0
TEXT
  5
4C7
330
18
100
AcDbEntity
  8
SK2
100
AcDbText
 10
-41.27261904761905
 20
77.3
 30
0.0
 40
4.57
  1
68.4
  7
SIMPLEX
100
AcDbText
  0
TEXT
  5
4C8
330
18
100
AcDbEntity
  8
SK2
100
AcDbText
 10
-86.25
 20
14.86999999999999
 30
0.0
 40
4.57
  1
M16
 50
90.0
  7
SIMPLEX
100
AcDbText
  0
TEXT
  5
4C9
330
18
100
AcDbEntity
  8
SK2
100
AcDbText
 10
-8.25
 20
-11.20738095238094
 30
0.0
 40
4.57
  1
%%c
 50
90.0
  7
SIMPLEX
100
AcDbText
  0
TEXT
  5
4CA
330
18
100
AcDbEntity
  8
SK2
100
AcDbText
 10
-8.25
 20
-7.072619047619045
 30
0.0
 40
4.57
  1
44.45
 50
90.0
  7
SIMPLEX
100
AcDbText
  0
TEXT
  5
4CB
330
18
100
AcDbEntity
  8
SK2
100
AcDbText
 10
29.07547619047619
 20
62.30000000000001
 30
0.0
 40
4.57
  1
19.1
  7
SIMPLEX
100
AcDbText
  0
TEXT
  5
4CC
330
18
100
AcDbEntity
  8
SK2
100
AcDbText
 10
-101.2499999999999
 20
-11.20738095238093
 30
0.0
 40
4.57
  1
%%c
 50
90.0
  7
SIMPLEX
100
AcDbText
  0
TEXT
  5
4CD
330
18
100
AcDbEntity
  8
SK2
100
AcDbText
 10
-101.2499999999999
 20
-7.072619047619034
 30
0.0
 40
4.57
  1
63.55
 50
90.0
  7
SIMPLEX
100
AcDbText
  0
TEXT
  5
4CE
330
18
100
AcDbEntity
  8
SK2
100
AcDbText
 10
172.6999999999999
 20
-5.766904761904735
 30
0.0
 40
4.57
  1
%%c
 50
90.0
  7
SIMPLEX
100
AcDbText
  0
TEXT
  5
4CF
330
18
100
AcDbEntity
  8
SK2
100
AcDbText
 10
172.6999999999999
 20
-1.632142857142831
 30
0.0
 40
4.57
  1
42
 50
90.0
  7
SIMPLEX
100
AcDbText
  0
ENDSEC
  0
SECTION
  2
OBJECTS
  0
DICTIONARY
  5
C
330
0
100
AcDbDictionary
  3
ACAD_GROUP
350
D
  3
ACAD_LAYOUT
350
301
  3
ACAD_MLINESTYLE
350
E
  3
ACAD_PLOTSETTINGS
350
302
1001
ACAD
1000
TREAT_AS_HARD
1070
     0
  0
DICTIONARY
  5
4D1
330
18
100
AcDbDictionary
  3
ACAD_LAYOUTSELFREF
350
4D2
  0
DICTIONARY
  5
4D3
330
338
100
AcDbDictionary
  3
ACAD_LAYOUTSELFREF
350
4D4
  0
DICTIONARY
  5
D
102
{ACAD_REACTORS
330
C
102
}
330
C
100
AcDbDictionary
1001
ACAD
1000
TREAT_AS_HARD
1070
     0
  0
DICTIONARY
  5
301
102
{ACAD_REACTORS
330
C
102
}
330
C
100
AcDbDictionary
1001
ACAD
1000
TREAT_AS_HARD
1070
     0
  0
DICTIONARY
  5
E
102
{ACAD_REACTORS
330
C
102
}
330
C
100
AcDbDictionary
  3
STANDARD
350
1B
1001
ACAD
1000
TREAT_AS_HARD
1070
     0
  0
DICTIONARY
  5
302
102
{ACAD_REACTORS
330
C
102
}
330
C
100
AcDbDictionary
1001
ACAD
1000
TREAT_AS_HARD
1070
     0
  0
XRECORD
  5
4D2
102
{ACAD_REACTORS
330
4D1
102
}
330
4D1
100
AcDbXrecord
340
18
  0
XRECORD
  5
4D4
102
{ACAD_REACTORS
330
4D3
102
}
330
4D3
100
AcDbXrecord
340
338
  0
MLINESTYLE
  5
1B
102
{ACAD_REACTORS
330
E
102
}
330
E
100
AcDbMlineStyle
  2
STANDARD
 70
     0
  3

 62
     0
 51
90.0
 52
90.0
 71
     2
 49
0.5
 62
   256
  6
BYLAYER
 49
-0.5
 62
   256
  6
BYLAYER
  0
ENDSEC
  0
EOF
