  0
SECTION
  2
HEADER
  9
$ACADVER
  1
AC1012
  9
$DWGCODEPAGE
  3
ANSI_1252
  9
$INSBASE
 10
44.1987
 20
-1.5
 30
0.0
  9
$EXTMIN
 10
-5.999990703541328
 20
-10.50842166471807
 30
-0.0015258207003583
  9
$EXTMAX
 10
90.13072315083196
 20
8.999999662499995
 30
0.0000000349246037
  9
$LIMMIN
 10
-170.0
 20
-170.0
  9
$LIMMAX
 10
519.0
 20
260.0
  9
$ORTHOMODE
 70
     0
  9
$REGENMODE
 70
     1
  9
$FILLMODE
 70
     1
  9
$QTEXTMODE
 70
     0
  9
$MIRRTEXT
 70
     0
  9
$DRAGMODE
 70
     2
  9
$LTSCALE
 40
15.0
  9
$OSMODE
 70
     0
  9
$ATTMODE
 70
     1
  9
$TEXTSIZE
 40
4.57
  9
$TRACEWID
 40
0.05
  9
$TEXTSTYLE
  7
SIMPLEX
  9
$CLAYER
  8
SK2
  9
$CELTYPE
  6
BYLAYER
  9
$CECOLOR
 62
   256
  9
$CELTSCALE
 40
1.0
  9
$DELOBJ
 70
     1
  9
$DISPSILH
 70
     0
  9
$DIMSCALE
 40
0.0
  9
$DIMASZ
 40
4.57
  9
$DIMEXO
 40
0.0
  9
$DIMDLI
 40
0.38
  9
$DIMRND
 40
0.0
  9
$DIMDLE
 40
0.0
  9
$DIMEXE
 40
5.0
  9
$DIMTP
 40
0.0
  9
$DIMTM
 40
0.0
  9
$DIMTXT
 40
4.57
  9
$DIMCEN
 40
0.09
  9
$DIMTSZ
 40
0.0
  9
$DIMTOL
 70
     0
  9
$DIMLIM
 70
     0
  9
$DIMTIH
 70
     0
  9
$DIMTOH
 70
     0
  9
$DIMSE1
 70
     0
  9
$DIMSE2
 70
     0
  9
$DIMTAD
 70
     1
  9
$DIMZIN
 70
     8
  9
$DIMBLK
  1

  9
$DIMASO
 70
     1
  9
$DIMSHO
 70
     1
  9
$DIMPOST
  1

  9
$DIMAPOST
  1

  9
$DIMALT
 70
     0
  9
$DIMALTD
 70
     2
  9
$DIMALTF
 40
25.4
  9
$DIMLFAC
 40
1.0
  9
$DIMTOFL
 70
     0
  9
$DIMTVP
 40
0.0
  9
$DIMTIX
 70
     0
  9
$DIMSOXD
 70
     0
  9
$DIMSAH
 70
     0
  9
$DIMBLK1
  1

  9
$DIMBLK2
  1

  9
$DIMSTYLE
  2
STANDARD
  9
$DIMCLRD
 70
     0
  9
$DIMCLRE
 70
     0
  9
$DIMCLRT
 70
     0
  9
$DIMTFAC
 40
1.0
  9
$DIMGAP
 40
2.299999999999999
  9
$DIMJUST
 70
     0
  9
$DIMSD1
 70
     0
  9
$DIMSD2
 70
     0
  9
$DIMTOLJ
 70
     1
  9
$DIMTZIN
 70
     0
  9
$DIMALTZ
 70
     0
  9
$DIMALTTZ
 70
     0
  9
$DIMFIT
 70
     3
  9
$DIMUPT
 70
     0
  9
$DIMUNIT
 70
     2
  9
$DIMDEC
 70
     2
  9
$DIMTDEC
 70
     4
  9
$DIMALTU
 70
     2
  9
$DIMALTTD
 70
     2
  9
$DIMTXSTY
  7
SIMPLEX
  9
$DIMAUNIT
 70
     0
  9
$LUNITS
 70
     2
  9
$LUPREC
 70
     2
  9
$SKETCHINC
 40
0.1
  9
$FILLETRAD
 40
0.0
  9
$AUNITS
 70
     0
  9
$AUPREC
 70
     0
  9
$MENU
  1
c:\tdm21\cad\caduti13\tdm13
  9
$ELEVATION
 40
0.0
  9
$PELEVATION
 40
0.0
  9
$THICKNESS
 40
0.0
  9
$LIMCHECK
 70
     0
  9
$BLIPMODE
 70
     0
  9
$CHAMFERA
 40
0.0
  9
$CHAMFERB
 40
0.0
  9
$CHAMFERC
 40
0.0
  9
$CHAMFERD
 40
0.0
  9
$SKPOLY
 70
     0
  9
$TDCREATE
 40
2452365.484101389
  9
$TDUPDATE
 40
2452365.484101389
  9
$TDINDWG
 40
0.0001570602
  9
$TDUSRTIMER
 40
0.0001570602
  9
$USRTIMER
 70
     1
  9
$ANGBASE
 50
0.0
  9
$ANGDIR
 70
     0
  9
$PDMODE
 70
     1
  9
$PDSIZE
 40
0.0
  9
$PLINEWID
 40
0.0
  9
$COORDS
 70
     1
  9
$SPLFRAME
 70
     0
  9
$SPLINETYPE
 70
     6
  9
$SPLINESEGS
 70
     8
  9
$ATTDIA
 70
     0
  9
$ATTREQ
 70
     1
  9
$HANDLING
 70
  4097
  9
$HANDSEED
  5
369
  9
$SURFTAB1
 70
     6
  9
$SURFTAB2
 70
     6
  9
$SURFTYPE
 70
     6
  9
$SURFU
 70
     6
  9
$SURFV
 70
     6
  9
$UCSNAME
  2

  9
$UCSORG
 10
0.0
 20
0.0
 30
0.0
  9
$UCSXDIR
 10
1.0
 20
0.0
 30
0.0
  9
$UCSYDIR
 10
0.0
 20
1.0
 30
0.0
  9
$PUCSNAME
  2

  9
$PUCSORG
 10
0.0
 20
0.0
 30
0.0
  9
$PUCSXDIR
 10
1.0
 20
0.0
 30
0.0
  9
$PUCSYDIR
 10
0.0
 20
1.0
 30
0.0
  9
$USERI1
 70
     0
  9
$USERI2
 70
     0
  9
$USERI3
 70
     0
  9
$USERI4
 70
     0
  9
$USERI5
 70
     0
  9
$USERR1
 40
0.0
  9
$USERR2
 40
0.0
  9
$USERR3
 40
0.0
  9
$USERR4
 40
0.0
  9
$USERR5
 40
0.0
  9
$WORLDVIEW
 70
     1
  9
$SHADEDGE
 70
     3
  9
$SHADEDIF
 70
    70
  9
$TILEMODE
 70
     1
  9
$MAXACTVP
 70
    16
  9
$PINSBASE
 10
0.0
 20
0.0
 30
0.0
  9
$PLIMCHECK
 70
     0
  9
$PEXTMIN
 10
0.0
 20
0.0
 30
0.0
  9
$PEXTMAX
 10
0.0
 20
0.0
 30
0.0
  9
$PLIMMIN
 10
0.0
 20
0.0
  9
$PLIMMAX
 10
12.0
 20
9.0
  9
$UNITMODE
 70
     0
  9
$VISRETAIN
 70
     0
  9
$PLINEGEN
 70
     0
  9
$PSLTSCALE
 70
     1
  9
$TREEDEPTH
 70
  3020
  9
$PICKSTYLE
 70
     1
  9
$CMLSTYLE
  2
STANDARD
  9
$CMLJUST
 70
     0
  9
$CMLSCALE
 40
1.0
  9
$SAVEIMAGES
 70
     1
  0
ENDSEC
  0
SECTION
  2
CLASSES
  0
CLASS
  1
ACDBDICTIONARYWDFLT
  2
AcDbDictionaryWithDefault
  3
AutoCAD 2000
 90
    32768
280
     0
281
     0
  0
CLASS
  1
ACDBPLACEHOLDER
  2
AcDbPlaceHolder
  3
AutoCAD 2000
 90
    32768
280
     0
281
     0
  0
CLASS
  1
LAYOUT
  2
AcDbLayout
  3
AutoCAD 2000
 90
    32768
280
     0
281
     0
  0
CLASS
  1
LONG_TRANSACTION
  2
AcDbLongTransaction
  3
AutoCAD 2000
 90
    32768
280
     0
281
     0
  0
CLASS
  1
LWPOLYLINE
  2
AcDbPolyline
  3
AutoCAD 2000
 90
    32768
280
     0
281
     1
  0
CLASS
  1
HATCH
  2
AcDbHatch
  3
AutoCAD 2000
 90
    32768
280
     0
281
     1
  0
CLASS
  1
XRECORD
  2
AcDbXrecord
  3
AutoCAD 2000
 90
    32768
280
     0
281
     0
  0
ENDSEC
  0
SECTION
  2
TABLES
  0
TABLE
  2
VPORT
  5
8
330
0
100
AcDbSymbolTable
 70
     2
  0
VPORT
  5
364
330
8
100
AcDbSymbolTableRecord
100
AcDbViewportTableRecord
  2
*ACTIVE
 70
     0
 10
0.0
 20
0.0
 11
1.0
 21
1.0
 12
64.16285853141779
 22
-1.503066069566443
 13
0.0
 23
0.0
 14
5.0
 24
5.0
 15
5.0
 25
5.0
 16
0.0
 26
0.0
 36
1.0
 17
0.0
 27
0.0
 37
0.0
 40
26.71737339714163
 41
2.322475570032573
 42
50.0
 43
0.0
 44
0.0
 50
0.0
 51
0.0
 71
     0
 72
   100
 73
     1
 74
     1
 75
     0
 76
     0
 77
     0
 78
     0
  0
ENDTAB
  0
TABLE
  2
LTYPE
  5
5
330
0
100
AcDbSymbolTable
 70
     3
  0
LTYPE
  5
12
330
5
100
AcDbSymbolTableRecord
100
AcDbLinetypeTableRecord
  2
BYBLOCK
 70
     0
  3

 72
    65
 73
     0
 40
0.0
  0
LTYPE
  5
13
330
5
100
AcDbSymbolTableRecord
100
AcDbLinetypeTableRecord
  2
BYLAYER
 70
     0
  3

 72
    65
 73
     0
 40
0.0
  0
LTYPE
  5
14
330
5
100
AcDbSymbolTableRecord
100
AcDbLinetypeTableRecord
  2
CONTINUOUS
 70
     0
  3
Solid line
 72
    65
 73
     0
 40
0.0
  0
LTYPE
  5
1F
330
5
100
AcDbSymbolTableRecord
100
AcDbLinetypeTableRecord
  2
CENTER
 70
     0
  3
____ . ____ . ____
 72
    65
 73
     4
 40
1.5
 49
1.0
 74
     0
 49
-0.25
 74
     0
 49
0.0
 74
     0
 49
-0.25
 74
     0
  0
LTYPE
  5
20
330
5
100
AcDbSymbolTableRecord
100
AcDbLinetypeTableRecord
  2
HIDDEN
 70
     0
  3
_ _ _ _ _ _ _ _ _ _ _ _ _ _ _ _ _ _ _ _ _ _ _
 72
    65
 73
     2
 40
0.375
 49
0.25
 74
     0
 49
-0.125
 74
     0
  0
ENDTAB
  0
TABLE
  2
LAYER
  5
2
330
0
100
AcDbSymbolTable
 70
    14
  0
LAYER
  5
F
330
2
100
AcDbSymbolTableRecord
100
AcDbLayerTableRecord
  2
0
 70
     0
 62
     7
  6
CONTINUOUS
  0
LAYER
  5
23
330
2
100
AcDbSymbolTableRecord
100
AcDbLayerTableRecord
  2
1
 70
     0
 62
     4
  6
CONTINUOUS
  0
LAYER
  5
24
330
2
100
AcDbSymbolTableRecord
100
AcDbLayerTableRecord
  2
SK1
 70
     0
 62
     4
  6
CONTINUOUS
  0
LAYER
  5
25
330
2
100
AcDbSymbolTableRecord
100
AcDbLayerTableRecord
  2
2
 70
     0
 62
     7
  6
CONTINUOUS
  0
LAYER
  5
26
330
2
100
AcDbSymbolTableRecord
100
AcDbLayerTableRecord
  2
2L
 70
     0
 62
     7
  6
CONTINUOUS
  0
LAYER
  5
27
330
2
100
AcDbSymbolTableRecord
100
AcDbLayerTableRecord
  2
SK2
 70
     0
 62
     7
  6
CONTINUOUS
  0
LAYER
  5
28
330
2
100
AcDbSymbolTableRecord
100
AcDbLayerTableRecord
  2
3
 70
     0
 62
     1
  6
HIDDEN
  0
LAYER
  5
29
330
2
100
AcDbSymbolTableRecord
100
AcDbLayerTableRecord
  2
SK3
 70
     0
 62
     1
  6
HIDDEN
  0
LAYER
  5
2A
330
2
100
AcDbSymbolTableRecord
100
AcDbLayerTableRecord
  2
4
 70
     0
 62
    -2
  6
CENTER
  0
LAYER
  5
2B
330
2
100
AcDbSymbolTableRecord
100
AcDbLayerTableRecord
  2
SK4
 70
     0
 62
     2
  6
CENTER
  0
LAYER
  5
2C
330
2
100
AcDbSymbolTableRecord
100
AcDbLayerTableRecord
  2
5
 70
     0
 62
    -7
  6
CONTINUOUS
  0
LAYER
  5
2D
330
2
100
AcDbSymbolTableRecord
100
AcDbLayerTableRecord
  2
6
 70
     0
 62
     5
  6
CONTINUOUS
  0
LAYER
  5
2E
330
2
100
AcDbSymbolTableRecord
100
AcDbLayerTableRecord
  2
SK6
 70
     0
 62
     5
  6
CONTINUOUS
  0
LAYER
  5
2F
330
2
100
AcDbSymbolTableRecord
100
AcDbLayerTableRecord
  2
DEFPOINTS
 70
     0
 62
     7
  6
CONTINUOUS
  0
ENDTAB
  0
TABLE
  2
STYLE
  5
3
330
0
100
AcDbSymbolTable
 70
     3
  0
STYLE
  5
10
330
3
100
AcDbSymbolTableRecord
100
AcDbTextStyleTableRecord
  2
STANDARD
 70
     0
 40
0.0
 41
1.0
 50
0.0
 71
     0
 42
5.0
  3
txt
  4

  0
STYLE
  5
1D
330
3
100
AcDbSymbolTableRecord
100
AcDbTextStyleTableRecord
  2
TXT
 70
     0
 40
8.0
 41
1.0
 50
0.0
 71
     0
 42
8.0
  3
txt
  4

  0
STYLE
  5
1E
330
3
100
AcDbSymbolTableRecord
100
AcDbTextStyleTableRecord
  2
SIMPLEX
 70
     0
 40
0.0
 41
1.0
 50
0.0
 71
     0
 42
4.57
  3
simplex
  4

  0
ENDTAB
  0
TABLE
  2
VIEW
  5
6
330
0
100
AcDbSymbolTable
 70
     0
  0
ENDTAB
  0
TABLE
  2
UCS
  5
7
330
0
100
AcDbSymbolTable
 70
     0
  0
ENDTAB
  0
TABLE
  2
APPID
  5
9
330
0
100
AcDbSymbolTable
 70
     1
  0
APPID
  5
11
330
9
100
AcDbSymbolTableRecord
100
AcDbRegAppTableRecord
  2
ACAD
 70
     0
  0
ENDTAB
  0
TABLE
  2
DIMSTYLE
  5
A
330
0
100
AcDbSymbolTable
 70
     1
  0
DIMSTYLE
105
3F
330
A
100
AcDbSymbolTableRecord
100
AcDbDimStyleTableRecord
  2
STANDARD
 70
     0
  3

  4

  5

  6

  7

 40
0.0
 41
4.57
 42
0.0
 43
0.38
 44
5.0
 45
0.0
 46
0.0
 47
0.0
 48
0.0
140
4.57
141
0.09
142
0.0
143
25.4
144
1.0
145
0.0
146
1.0
147
2.299999999999999
 71
     0
 72
     0
 73
     0
 74
     0
 75
     0
 76
     0
 77
     1
 78
     8
170
     0
171
     2
172
     0
173
     0
174
     0
175
     0
176
     0
177
     0
178
     0
270
     2
271
     2
272
     4
273
     2
274
     2
340
1E
275
     0
280
     0
281
     0
282
     0
283
     1
284
     0
285
     0
286
     0
287
     3
288
     0
  0
ENDTAB
  0
TABLE
  2
BLOCK_RECORD
  5
1
330
0
100
AcDbSymbolTable
 70
     0
  0
BLOCK_RECORD
  5
18
102
{ACAD_XDICTIONARY
360
365
102
}
330
1
100
AcDbSymbolTableRecord
100
AcDbBlockTableRecord
  2
*MODEL_SPACE
  0
BLOCK_RECORD
  5
338
102
{ACAD_XDICTIONARY
360
367
102
}
330
1
100
AcDbSymbolTableRecord
100
AcDbBlockTableRecord
  2
*PAPER_SPACE
  0
ENDTAB
  0
ENDSEC
  0
SECTION
  2
BLOCKS
  0
BLOCK
  5
32
330
18
100
AcDbEntity
  8
0
100
AcDbBlockBegin
  2
*MODEL_SPACE
 70
     0
 10
0.0
 20
0.0
 30
0.0
  3
*MODEL_SPACE
  1

  0
ENDBLK
  5
33
330
18
100
AcDbEntity
  8
0
100
AcDbBlockEnd
  0
BLOCK
  5
339
330
338
100
AcDbEntity
 67
     1
  8
0
100
AcDbBlockBegin
  2
*PAPER_SPACE
 70
     0
 10
0.0
 20
0.0
 30
0.0
  3
*PAPER_SPACE
  1

  0
ENDBLK
  5
33A
330
338
100
AcDbEntity
 67
     1
  8
0
100
AcDbBlockEnd
  0
ENDSEC
  0
SECTION
  2
ENTITIES
  0
LINE
  5
345
330
18
100
AcDbEntity
  8
SK4
100
AcDbLine
 10
-5.999990703541328
 20
-0.0000000000000007
 30
0.0
 11
30.00000794645863
 21
-0.0000000000000007
 31
0.0
  0
LINE
  5
346
330
18
100
AcDbEntity
  8
1
100
AcDbLine
 10
0.0000090714586563
 20
7.499999718749997
 30
0.0
 11
0.0000090714586563
 21
-7.499999718749993
 31
0.0
  0
LINE
  5
347
330
18
100
AcDbEntity
  8
1
100
AcDbLine
 10
24.00000817145865
 20
7.499999718749997
 30
0.0
 11
24.00000817145865
 21
-7.499999718749993
 31
0.0
  0
LINE
  5
348
330
18
100
AcDbEntity
  8
1
100
AcDbLine
 10
1.500009015208647
 20
8.999999662499995
 30
0.0
 11
21.00000828395866
 21
8.999999662499995
 31
0.0
  0
LINE
  5
349
330
18
100
AcDbEntity
  8
1
100
AcDbLine
 10
1.500009015208647
 20
-8.999999662499989
 30
0.0
 11
21.00000828395866
 21
-8.999999662499989
 31
0.0
  0
LINE
  5
34A
330
18
100
AcDbEntity
  8
1
100
AcDbLine
 10
0.0000090714586563
 20
7.499999718749997
 30
0.0
 11
24.00000817145869
 21
7.499999718749997
 31
0.0
  0
LINE
  5
34B
330
18
100
AcDbEntity
  8
1
100
AcDbLine
 10
0.0000090714586563
 20
-7.499999718749993
 30
0.0
 11
24.00000817145869
 21
-7.499999718749993
 31
0.0
  0
LINE
  5
34C
330
18
100
AcDbEntity
  8
1
100
AcDbLine
 10
1.500009015208647
 20
8.999999662499995
 30
0.0
 11
1.500009015208647
 21
-8.999999662499989
 31
0.0
  0
LINE
  5
34D
330
18
100
AcDbEntity
  8
1
100
AcDbLine
 10
0.0000090714586563
 20
7.499999718749997
 30
0.0
 11
1.500009015208647
 21
8.999999662499995
 31
0.0
  0
LINE
  5
34E
330
18
100
AcDbEntity
  8
1
100
AcDbLine
 10
0.0000090714586563
 20
-7.499999718749993
 30
0.0
 11
1.500009015208647
 21
-8.999999662499989
 31
0.0
  0
LINE
  5
34F
330
18
100
AcDbEntity
  8
1
100
AcDbLine
 10
21.00000828395866
 20
8.999999662499995
 30
0.0
 11
21.00000828395866
 21
-8.999999662499989
 31
0.0
  0
LINE
  5
350
330
18
100
AcDbEntity
  8
1
100
AcDbLine
 10
21.00000828395866
 20
8.999999662499995
 30
0.0
 11
24.00000817145865
 21
7.499999718749997
 31
0.0
  0
LINE
  5
351
330
18
100
AcDbEntity
  8
1
100
AcDbLine
 10
21.00000828395866
 20
-8.999999662499989
 30
0.0
 11
24.00000817145865
 21
-7.499999718749993
 31
0.0
  0
LINE
  5
352
330
18
100
AcDbEntity
  8
SK3
100
AcDbLine
 10
0.0000090714586563
 20
4.499999831249996
 30
0.0
 11
12.00000862145866
 21
4.499999831249996
 31
0.0
  0
LINE
  5
353
330
18
100
AcDbEntity
  8
SK3
100
AcDbLine
 10
0.0000090714586563
 20
-4.499999831249997
 30
0.0
 11
12.00000862145866
 21
-4.499999831249997
 31
0.0
  0
LINE
  5
354
330
18
100
AcDbEntity
  8
SK3
100
AcDbLine
 10
12.00000862145866
 20
4.499999831249996
 30
0.0
 11
14.70388130568744
 21
-0.0000000000000007
 31
0.0
  0
LINE
  5
355
330
18
100
AcDbEntity
  8
SK3
100
AcDbLine
 10
14.70388130568744
 20
-0.0000000000000007
 30
0.0
 11
12.00000862145866
 21
-4.499999831249997
 31
0.0
  0
LINE
  5
356
330
18
100
AcDbEntity
  8
SK3
100
AcDbLine
 10
24.00000817145865
 20
4.992838259820096
 30
0.0
 11
21.00000828395866
 21
-0.0000000000000007
 31
0.0
  0
LINE
  5
357
330
18
100
AcDbEntity
  8
SK3
100
AcDbLine
 10
21.00000828395866
 20
-0.0000000000000007
 30
0.0
 11
24.00000817145865
 21
-4.992838259820098
 31
0.0
  0
LINE
  5
358
330
18
100
AcDbEntity
  8
SK3
100
AcDbLine
 10
0.0000090714586563
 20
2.249999915624997
 30
0.0
 11
12.00000862145866
 21
2.249999915624997
 31
0.0
  0
LINE
  5
359
330
18
100
AcDbEntity
  8
SK3
100
AcDbLine
 10
0.0000090714586563
 20
-2.249999915624999
 30
0.0
 11
12.00000862145866
 21
-2.249999915624999
 31
0.0
  0
ARC
  5
35A
330
18
100
AcDbEntity
  8
SK3
100
AcDbCircle
 10
9.000008733958644
 20
-0.0000000000000004
 30
0.0
 40
3.749999859374999
100
AcDbArc
 50
323.1301023541557
 51
36.86989764584418
  0
ARC
  5
35B
330
18
100
AcDbEntity
  8
SK3
100
AcDbCircle
 10
11.54137904427776
 20
3.374999873437497
 30
0.0
 40
1.214893408552059
100
AcDbArc
 50
292.1792851970213
 51
354.1792851970213
  0
ARC
  5
35C
330
18
100
AcDbEntity
  8
SK3
100
AcDbCircle
 10
11.54137904427776
 20
-3.374999873437499
 30
0.0
 40
1.214893408552059
100
AcDbArc
 50
5.820714802978619
 51
67.82071480297877
  0
LINE
  5
35D
330
18
100
AcDbEntity
  8
SK2
100
AcDbLine
 10
24.00000828395866
 20
8.999999662499995
 30
0.0
 11
45.89137414280105
 21
8.999999662499988
 31
0.0
  0
LINE
  5
35E
330
18
100
AcDbEntity
  8
SK2
100
AcDbLine
 10
24.00000828395866
 20
-8.999999662499988
 30
0.0
 11
45.89137414280105
 21
-8.999999662499995
 31
0.0
  0
LINE
  5
35F
330
18
100
AcDbEntity
  8
SK2
100
AcDbLine
 10
40.89137414280105
 20
4.429999662499989
 30
0.0
 11
40.89137414280105
 21
-4.429999662499993
 31
0.0
  0
SOLID
  5
360
330
18
100
AcDbEntity
  8
SK2
100
AcDbTrace
 10
40.12970747613438
 20
4.429999662499989
 30
0.0
 11
41.65304080946772
 21
4.429999662499989
 31
0.0
 12
40.89137414280105
 22
8.999999662499988
 32
0.0
 13
40.89137414280105
 23
8.999999662499988
 33
0.0
  0
SOLID
  5
361
330
18
100
AcDbEntity
  8
SK2
100
AcDbTrace
 10
40.12970747613438
 20
-4.429999662499993
 30
0.0
 11
41.65304080946772
 21
-4.429999662499993
 31
0.0
 12
40.89137414280105
 22
-8.999999662499993
 32
0.0
 13
40.89137414280105
 23
-8.999999662499993
 33
0.0
  0
TEXT
  5
363
330
18
100
AcDbEntity
  8
SK2
100
AcDbText
 10
38.59137414280105
 20
-5.875714285714275
 30
0.0
 40
4.57
  1
M18
 50
90.0
  7
SIMPLEX
100
AcDbText
  0
ENDSEC
  0
SECTION
  2
OBJECTS
  0
DICTIONARY
  5
C
330
0
100
AcDbDictionary
  3
ACAD_GROUP
350
D
  3
ACAD_LAYOUT
350
301
  3
ACAD_MLINESTYLE
350
E
  3
ACAD_PLOTSETTINGS
350
302
1001
ACAD
1000
TREAT_AS_HARD
1070
     0
  0
DICTIONARY
  5
365
330
18
100
AcDbDictionary
  3
ACAD_LAYOUTSELFREF
350
366
  0
DICTIONARY
  5
367
330
338
100
AcDbDictionary
  3
ACAD_LAYOUTSELFREF
350
368
  0
DICTIONARY
  5
D
102
{ACAD_REACTORS
330
C
102
}
330
C
100
AcDbDictionary
1001
ACAD
1000
TREAT_AS_HARD
1070
     0
  0
DICTIONARY
  5
301
102
{ACAD_REACTORS
330
C
102
}
330
C
100
AcDbDictionary
1001
ACAD
1000
TREAT_AS_HARD
1070
     0
  0
DICTIONARY
  5
E
102
{ACAD_REACTORS
330
C
102
}
330
C
100
AcDbDictionary
  3
STANDARD
350
1B
1001
ACAD
1000
TREAT_AS_HARD
1070
     0
  0
DICTIONARY
  5
302
102
{ACAD_REACTORS
330
C
102
}
330
C
100
AcDbDictionary
1001
ACAD
1000
TREAT_AS_HARD
1070
     0
  0
XRECORD
  5
366
102
{ACAD_REACTORS
330
365
102
}
330
365
100
AcDbXrecord
340
18
  0
XRECORD
  5
368
102
{ACAD_REACTORS
330
367
102
}
330
367
100
AcDbXrecord
340
338
  0
MLINESTYLE
  5
1B
102
{ACAD_REACTORS
330
E
102
}
330
E
100
AcDbMlineStyle
  2
STANDARD
 70
     0
  3

 62
     0
 51
90.0
 52
90.0
 71
     2
 49
0.5
 62
   256
  6
BYLAYER
 49
-0.5
 62
   256
  6
BYLAYER
  0
ENDSEC
  0
EOF
