  0
SECTION
  2
HEADER
  9
$ACADVER
  1
AC1009
  9
$DWGCODEPAGE
  3
ansi_1252
  9
$INSBASE
 10
0.0
 20
0.0
 30
0.0
  9
$EXTMIN
 10
0.0
 20
0.0
 30
0.0
  9
$EXTMAX
 10
180.0
 20
160.0
 30
0.0
  9
$LIMMIN
 10
0.0
 20
0.0
  9
$LIMMAX
 10
180.0
 20
160.0
  9
$ORTHOMODE
 70
     0
  9
$REGENMODE
 70
     1
  9
$FILLMODE
 70
     1
  9
$QTEXTMODE
 70
     0
  9
$MIRRTEXT
 70
     1
  9
$DRAGMODE
 70
     2
  9
$LTSCALE
 40
1.0
  9
$OSMODE
 70
    37
  9
$ATTMODE
 70
     1
  9
$TEXTSIZE
 40
2.5
  9
$TRACEWID
 40
1.0
  9
$TEXTSTYLE
  7
STANDARD
  9
$CLAYER
  8
0
  9
$CELTYPE
  6
BYLAYER
  9
$CECOLOR
 62
   256
  9
$DIMSCALE
 40
1.0
  9
$DIMASZ
 40
2.5
  9
$DIMEXO
 40
0.625
  9
$DIMDLI
 40
3.75
  9
$DIMRND
 40
0.0
  9
$DIMDLE
 40
0.0
  9
$DIMEXE
 40
1.25
  9
$DIMTP
 40
0.0
  9
$DIMTM
 40
0.0
  9
$DIMTXT
 40
2.5
  9
$DIMCEN
 40
2.5
  9
$DIMTSZ
 40
0.0
  9
$DIMTOL
 70
     0
  9
$DIMLIM
 70
     0
  9
$DIMTIH
 70
     0
  9
$DIMTOH
 70
     0
  9
$DIMSE1
 70
     0
  9
$DIMSE2
 70
     0
  9
$DIMTAD
 70
     1
  9
$DIMZIN
 70
     8
  9
$DIMBLK
  1

  9
$DIMASO
 70
     1
  9
$DIMSHO
 70
     1
  9
$DIMPOST
  1

  9
$DIMAPOST
  1

  9
$DIMALT
 70
     0
  9
$DIMALTD
 70
     3
  9
$DIMALTF
 40
0.0393700787
  9
$DIMLFAC
 40
1.0
  9
$DIMTOFL
 70
     1
  9
$DIMTVP
 40
0.0
  9
$DIMTIX
 70
     0
  9
$DIMSOXD
 70
     0
  9
$DIMSAH
 70
     0
  9
$DIMBLK1
  1

  9
$DIMBLK2
  1

  9
$DIMSTYLE
  2
ISO-25
  9
$DIMCLRD
 70
     0
  9
$DIMCLRE
 70
     0
  9
$DIMCLRT
 70
     0
  9
$DIMTFAC
 40
1.0
  9
$DIMGAP
 40
0.625
  9
$LUNITS
 70
     2
  9
$LUPREC
 70
     4
  9
$SKETCHINC
 40
1.0
  9
$FILLETRAD
 40
10.0
  9
$AUNITS
 70
     0
  9
$AUPREC
 70
     0
  9
$MENU
  1
.
  9
$ELEVATION
 40
0.0
  9
$PELEVATION
 40
0.0
  9
$THICKNESS
 40
0.0
  9
$LIMCHECK
 70
     0
  9
$CHAMFERA
 40
10.0
  9
$CHAMFERB
 40
10.0
  9
$SKPOLY
 70
     0
  9
$TDCREATE
 40
2456136.400024537
  9
$TDUPDATE
 40
2456136.400024549
  9
$TDINDWG
 40
0.0000000116
  9
$TDUSRTIMER
 40
0.0000000116
  9
$USRTIMER
 70
     1
  9
$ANGBASE
 50
0.0
  9
$ANGDIR
 70
     0
  9
$PDMODE
 70
     0
  9
$PDSIZE
 40
0.0
  9
$PLINEWID
 40
0.0
  9
$COORDS
 70
     1
  9
$SPLFRAME
 70
     0
  9
$SPLINETYPE
 70
     6
  9
$SPLINESEGS
 70
     8
  9
$ATTDIA
 70
     0
  9
$ATTREQ
 70
     1
  9
$HANDLING
 70
     1
  9
$HANDSEED
  5
3AB
  9
$SURFTAB1
 70
     6
  9
$SURFTAB2
 70
     6
  9
$SURFTYPE
 70
     6
  9
$SURFU
 70
     6
  9
$SURFV
 70
     6
  9
$UCSNAME
  2

  9
$UCSORG
 10
0.0
 20
0.0
 30
0.0
  9
$UCSXDIR
 10
1.0
 20
0.0
 30
0.0
  9
$UCSYDIR
 10
0.0
 20
1.0
 30
0.0
  9
$PUCSNAME
  2

  9
$PUCSORG
 10
0.0
 20
0.0
 30
0.0
  9
$PUCSXDIR
 10
1.0
 20
0.0
 30
0.0
  9
$PUCSYDIR
 10
0.0
 20
1.0
 30
0.0
  9
$USERI1
 70
     0
  9
$USERI2
 70
     0
  9
$USERI3
 70
     0
  9
$USERI4
 70
     0
  9
$USERI5
 70
     0
  9
$USERR1
 40
0.0
  9
$USERR2
 40
0.0
  9
$USERR3
 40
0.0
  9
$USERR4
 40
0.0
  9
$USERR5
 40
0.0
  9
$WORLDVIEW
 70
     1
  9
$SHADEDGE
 70
     3
  9
$SHADEDIF
 70
    70
  9
$TILEMODE
 70
     1
  9
$MAXACTVP
 70
    64
  9
$PLIMCHECK
 70
     0
  9
$PEXTMIN
 10
0.0
 20
0.0
 30
0.0
  9
$PEXTMAX
 10
180.0
 20
160.0
 30
0.0
  9
$PLIMMIN
 10
0.0
 20
0.0
  9
$PLIMMAX
 10
180.0
 20
160.0
  9
$UNITMODE
 70
     0
  9
$VISRETAIN
 70
     1
  9
$PLINEGEN
 70
     0
  9
$PSLTSCALE
 70
     1
  0
ENDSEC
  0
SECTION
  2
TABLES
  0
TABLE
  2
VPORT
 70
     1
  0
VPORT
  2
*ACTIVE
 70
     0
 10
0.0
 20
0.0
 11
1.0
 21
1.0
 12
344.1869158879
 22
148.5
 13
0.0
 23
0.0
 14
10.0
 24
10.0
 15
10.0
 25
10.0
 16
0.0
 26
0.0
 36
1.0
 17
0.0
 27
0.0
 37
0.0
 40
297.0
 41
1.9729729729
 42
50.0
 43
0.0
 44
0.0
 50
0.0
 51
0.0
 71
     0
 72
   100
 73
     1
 74
     3
 75
     0
 76
     0
 77
     0
 78
     0
  0
ENDTAB
  0
TABLE
  2
LTYPE
 70
     3
  0
LTYPE
  2
CONTINUOUS
 70
     0
  3
Solid line
 72
    65
 73
     0
 40
0.0
  0
LTYPE
  2
HIDDEN2
 70
     0
  3
Hidden (.5x) _ _ _ _ _ _ _ _ _ _ _ _ _ _ _ _ _ 
 72
    65
 73
     2
 40
4.7625
 49
3.175
 49
-1.5875
  0
LTYPE
  2
DASHDOT2
 70
     0
  3
Dash dot (.5x) _._._._._._._._._._._._._._._.
 72
    65
 73
     4
 40
12.7
 49
6.35
 49
-3.175
 49
0.0
 49
-3.175
  0
ENDTAB
  0
TABLE
  2
LAYER
 70
     5
  0
LAYER
  2
0
 70
     0
 62
     7
  6
CONTINUOUS
  0
LAYER
  2
DEFAULT
 70
     0
 62
     7
  6
CONTINUOUS
  0
LAYER
  2
VISIBLE
 70
     0
 62
     7
  6
CONTINUOUS
  0
LAYER
  2
HIDDEN
 70
     0
 62
     7
  6
CONTINUOUS
  0
LAYER
  2
STANDARD
 70
     0
 62
     7
  6
CONTINUOUS
  0
ENDTAB
  0
TABLE
  2
STYLE
 70
     3
  0
STYLE
  2
STANDARD
 70
     0
 40
0.0
 41
1.0
 50
0.0
 71
     0
 42
2.5
  3
txt
  4

  0
STYLE
  2
SEACAD_ARIAL_TTF
 70
     0
 40
0.0
 41
1.0
 50
0.0
 71
     0
 42
0.2
  3
arial.ttf
  4

  0
STYLE
  2
SEACAD_SEMECA1_TTF
 70
     0
 40
0.0
 41
1.0
 50
0.0
 71
     0
 42
0.2
  3
semeca1.ttf
  4

  0
ENDTAB
  0
TABLE
  2
VIEW
 70
     0
  0
ENDTAB
  0
TABLE
  2
UCS
 70
     0
  0
ENDTAB
  0
TABLE
  2
APPID
 70
     1
  0
APPID
  2
ACAD
 70
     0
  0
ENDTAB
  0
TABLE
  2
DIMSTYLE
 70
     1
  0
DIMSTYLE
  2
ISO-25
 70
     0
  3

  4

  5

  6

  7

 40
1.0
 41
2.5
 42
0.625
 43
3.75
 44
1.25
 45
0.0
 46
0.0
 47
0.0
 48
0.0
140
2.5
141
2.5
142
0.0
143
0.0393700787
144
1.0
145
0.0
146
1.0
147
0.625
 71
     0
 72
     0
 73
     0
 74
     0
 75
     0
 76
     0
 77
     1
 78
     8
170
     0
171
     3
172
     1
173
     0
174
     0
175
     0
176
     0
177
     0
178
     0
  0
ENDTAB
  0
ENDSEC
  0
SECTION
  2
BLOCKS
  0
BLOCK
  8
0
  2
$MODEL_SPACE
 70
     0
 10
0.0
 20
0.0
 30
0.0
  3
$MODEL_SPACE
  1

  0
ENDBLK
  5
21
  8
0
  0
BLOCK
 67
     1
  8
0
  2
$PAPER_SPACE
 70
     0
 10
0.0
 20
0.0
 30
0.0
  3
$PAPER_SPACE
  1

  0
ENDBLK
  5
1D
 67
     1
  8
0
  0
BLOCK
  8
0
  2
SEANNOT_GROUP
 70
     0
 10
0.0
 20
0.0
 30
0.0
  3
SEANNOT_GROUP
  1

  0
POLYLINE
  5
60
  8
DEFAULT
  6
CONTINUOUS
 62
     7
 66
     1
 10
0.0
 20
0.0
 30
0.0
  0
VERTEX
  5
182
  8
DEFAULT
  6
CONTINUOUS
 62
     7
 10
77.7329633239
 20
100.0310326786
 30
0.0
  0
VERTEX
  5
183
  8
DEFAULT
  6
CONTINUOUS
 62
     7
 10
72.5814750963
 20
92.6108828122
 30
0.0
  0
SEQEND
  5
181
  8
DEFAULT
  6
CONTINUOUS
 62
     7
  0
POLYLINE
  5
61
  8
DEFAULT
  6
CONTINUOUS
 62
     7
 66
     1
 10
0.0
 20
0.0
 30
0.0
  0
VERTEX
  5
185
  8
DEFAULT
  6
CONTINUOUS
 62
     7
 10
73.6649367721
 20
94.9021099116
 30
0.0
  0
VERTEX
  5
186
  8
DEFAULT
  6
CONTINUOUS
 62
     7
 10
74.349471957
 20
94.4268668222
 30
0.0
  0
VERTEX
  5
187
  8
DEFAULT
  6
CONTINUOUS
 62
     7
 10
72.5814750963
 20
92.6108828122
 30
0.0
  0
VERTEX
  5
188
  8
DEFAULT
  6
CONTINUOUS
 62
     7
 10
73.6649367721
 20
94.9021099116
 30
0.0
  0
SEQEND
  5
184
  8
DEFAULT
  6
CONTINUOUS
 62
     7
  0
LINE
  5
62
  8
DEFAULT
  6
CONTINUOUS
 62
     7
 10
77.7329633239
 20
100.0310326786
 30
0.0
 11
105.3960068021
 21
100.0310326786
 31
0.0
  0
TEXT
  5
64
  8
DEFAULT
  6
CONTINUOUS
 62
     7
 10
77.7329633239
 20
100.6560326786
 30
0.0
 40
2.5
  1
SK50 DIN69871A
  7
SEACAD_ARIAL_TTF
 11
77.7329633239
 21
103.1560326786
 31
0.0
 73
     3
  0
ENDBLK
  5
66
  8
0
  0
BLOCK
  8
0
  2
GDIMGGROUP
 70
     0
 10
0.0
 20
0.0
 30
0.0
  3
GDIMGGROUP
  1

  0
POLYLINE
  5
69
  8
DEFAULT
  6
CONTINUOUS
 62
     7
 66
     1
 10
0.0
 20
0.0
 30
0.0
  0
VERTEX
  5
18A
  8
DEFAULT
  6
CONTINUOUS
 62
     7
 10
14.6829439376
 20
95.8809363829
 30
0.0
  0
VERTEX
  5
18B
  8
DEFAULT
  6
CONTINUOUS
 62
     7
 10
15.5162772523
 20
95.8809363829
 30
0.0
  0
VERTEX
  5
18C
  8
DEFAULT
  6
CONTINUOUS
 62
     7
 10
15.099610595
 20
98.380936327
 30
0.0
  0
VERTEX
  5
18D
  8
DEFAULT
  6
CONTINUOUS
 62
     7
 10
14.6829439376
 20
95.8809363829
 30
0.0
  0
SEQEND
  5
189
  8
DEFAULT
  6
CONTINUOUS
 62
     7
  0
POLYLINE
  5
6A
  8
DEFAULT
  6
CONTINUOUS
 62
     7
 66
     1
 10
0.0
 20
0.0
 30
0.0
  0
VERTEX
  5
18F
  8
DEFAULT
  6
CONTINUOUS
 62
     7
 10
14.6829439376
 20
62.6309369864
 30
0.0
  0
VERTEX
  5
190
  8
DEFAULT
  6
CONTINUOUS
 62
     7
 10
15.5162772523
 20
62.6309369864
 30
0.0
  0
VERTEX
  5
191
  8
DEFAULT
  6
CONTINUOUS
 62
     7
 10
15.099610595
 20
60.1309370422
 30
0.0
  0
VERTEX
  5
192
  8
DEFAULT
  6
CONTINUOUS
 62
     7
 10
14.6829439376
 20
62.6309369864
 30
0.0
  0
SEQEND
  5
18E
  8
DEFAULT
  6
CONTINUOUS
 62
     7
  0
LINE
  5
6B
  8
DEFAULT
  6
CONTINUOUS
 62
     7
 10
29.502345642
 20
98.380936327
 30
0.0
 11
13.8496106229
 21
98.380936327
 31
0.0
  0
LINE
  5
6C
  8
DEFAULT
  6
CONTINUOUS
 62
     7
 10
29.502345642
 20
60.130936327
 30
0.0
 11
13.8496106229
 21
60.130936327
 31
0.0
  0
LINE
  5
6D
  8
DEFAULT
  6
CONTINUOUS
 62
     7
 10
15.099610595
 20
98.380936327
 30
0.0
 11
15.099610595
 21
60.1309370422
 31
0.0
  0
TEXT
  5
6E
  8
DEFAULT
  6
CONTINUOUS
 62
     7
 10
14.474610595
 20
79.599853542
 30
0.0
 40
2.5
  1
85
 50
90.0
  7
SEACAD_ARIAL_TTF
 11
11.974610595
 21
79.599853542
 31
0.0
 73
     3
  0
TEXT
  5
70
  8
DEFAULT
  6
CONTINUOUS
 62
     7
 10
14.474610595
 20
74.998976349
 30
0.0
 40
2.5
  1
O
 50
90.0
  7
SEACAD_SEMECA1_TTF
 11
11.974610595
 21
74.998976349
 31
0.0
 73
     3
  0
ENDBLK
  5
72
  8
0
  0
BLOCK
  8
0
  2
GDIMGGROUP1
 70
     0
 10
0.0
 20
0.0
 30
0.0
  3
GDIMGGROUP1
  1

  0
POLYLINE
  5
75
  8
DEFAULT
  6
CONTINUOUS
 62
     7
 66
     1
 10
0.0
 20
0.0
 30
0.0
  0
VERTEX
  5
194
  8
DEFAULT
  6
CONTINUOUS
 62
     7
 10
53.5523456979
 20
51.3510967386
 30
0.0
  0
VERTEX
  5
195
  8
DEFAULT
  6
CONTINUOUS
 62
     7
 10
53.5523456979
 20
52.1844300533
 30
0.0
  0
VERTEX
  5
196
  8
DEFAULT
  6
CONTINUOUS
 62
     7
 10
56.052345642
 20
51.7677633959
 30
0.0
  0
VERTEX
  5
197
  8
DEFAULT
  6
CONTINUOUS
 62
     7
 10
53.5523456979
 20
51.3510967386
 30
0.0
  0
SEQEND
  5
193
  8
DEFAULT
  6
CONTINUOUS
 62
     7
  0
POLYLINE
  5
76
  8
DEFAULT
  6
CONTINUOUS
 62
     7
 66
     1
 10
0.0
 20
0.0
 30
0.0
  0
VERTEX
  5
199
  8
DEFAULT
  6
CONTINUOUS
 62
     7
 10
31.5523448858
 20
51.3510967386
 30
0.0
  0
VERTEX
  5
19A
  8
DEFAULT
  6
CONTINUOUS
 62
     7
 10
31.5523448858
 20
52.1844300533
 30
0.0
  0
VERTEX
  5
19B
  8
DEFAULT
  6
CONTINUOUS
 62
     7
 10
29.0523449417
 20
51.7677633959
 30
0.0
  0
VERTEX
  5
19C
  8
DEFAULT
  6
CONTINUOUS
 62
     7
 10
31.5523448858
 20
51.3510967386
 30
0.0
  0
SEQEND
  5
198
  8
DEFAULT
  6
CONTINUOUS
 62
     7
  0
LINE
  5
77
  8
DEFAULT
  6
CONTINUOUS
 62
     7
 10
56.052345642
 20
63.539686327
 30
0.0
 11
56.052345642
 21
50.5177634239
 31
0.0
  0
LINE
  5
78
  8
DEFAULT
  6
CONTINUOUS
 62
     7
 10
29.052345642
 20
60.580936327
 30
0.0
 11
29.052345642
 21
50.5177634239
 31
0.0
  0
LINE
  5
79
  8
DEFAULT
  6
CONTINUOUS
 62
     7
 10
56.052345642
 20
51.7677633959
 30
0.0
 11
29.0523449417
 21
51.7677633959
 31
0.0
  0
TEXT
  5
7A
  8
DEFAULT
  6
CONTINUOUS
 62
     7
 10
40.5958235527
 20
52.3927633959
 30
0.0
 40
2.5
  1
60
  7
SEACAD_ARIAL_TTF
 11
40.5958235527
 21
54.8927633959
 31
0.0
 73
     3
  0
ENDBLK
  5
7C
  8
0
  0
BLOCK
  8
0
  2
SE
 70
     0
 10
0.0
 20
0.0
 30
0.0
  3
SE
  1

  0
LINE
  5
80
  8
VISIBLE
  6
CONTINUOUS
 62
     7
 10
54.612345642
 20
58.0942586997
 30
0.0
 11
54.612345642
 21
61.9642069094
 31
0.0
  0
LINE
  5
81
  8
VISIBLE
  6
CONTINUOUS
 62
     7
 10
51.9016541309
 20
59.2044369103
 30
0.0
 11
51.9016541309
 21
63.342107903
 31
0.0
  0
LINE
  5
82
  8
VISIBLE
  6
CONTINUOUS
 62
     7
 10
50.2130371532
 20
59.2044369103
 30
0.0
 11
50.2130371532
 21
63.342107903
 31
0.0
  0
LINE
  5
83
  8
VISIBLE
  6
CONTINUOUS
 62
     7
 10
47.457345642
 20
58.0942586997
 30
0.0
 11
47.457345642
 21
61.9642069094
 31
0.0
  0
LINE
  5
84
  8
VISIBLE
  6
CONTINUOUS
 62
     7
 10
56.052345642
 20
94.972186327
 30
0.0
 11
56.052345642
 21
63.539686327
 31
0.0
  0
LINE
  5
87
  8
HIDDEN
  6
HIDDEN2
 62
     7
 10
96.664845642
 20
84.880936327
 30
0.0
 11
96.664845642
 21
73.630936327
 31
0.0
  0
LINE
  5
88
  8
HIDDEN
  6
HIDDEN2
 62
     7
 10
96.0905430623
 20
83.925136327
 30
0.0
 11
96.0905430623
 21
74.586736327
 31
0.0
  0
LINE
  5
89
  8
HIDDEN
  6
HIDDEN2
 62
     7
 10
72.589845642
 20
83.925136327
 30
0.0
 11
72.589845642
 21
74.586736327
 31
0.0
  0
LINE
  5
8A
  8
0
  6
HIDDEN2
 62
     7
 10
101.0604227786
 20
73.630936327
 30
0.0
 11
101.0604227786
 21
84.880936327
 31
0.0
  0
LINE
  5
8B
  8
VISIBLE
  6
CONTINUOUS
 62
     7
 10
101.839845642
 20
71.0564632033
 30
0.0
 11
101.839845642
 21
87.4554094507
 31
0.0
  0
LINE
  5
8C
  8
VISIBLE
  6
CONTINUOUS
 62
     7
 10
47.457345642
 20
58.0942586997
 30
0.0
 11
49.5959277731
 21
58.0942586997
 31
0.0
  0
POLYLINE
  5
8D
  8
VISIBLE
  6
CONTINUOUS
 62
     7
 66
     1
 10
0.0
 20
0.0
 30
0.0
  0
VERTEX
  5
19D
  8
VISIBLE
  6
CONTINUOUS
 62
     7
 10
49.5959277731
 20
58.0942586997
 30
0.0
  0
VERTEX
  5
19E
  8
VISIBLE
  6
CONTINUOUS
 62
     7
 10
49.6216768256
 20
58.1404959364
 30
0.0
  0
VERTEX
  5
19F
  8
VISIBLE
  6
CONTINUOUS
 62
     7
 10
49.6474228924
 20
58.1867348606
 30
0.0
  0
VERTEX
  5
1A0
  8
VISIBLE
  6
CONTINUOUS
 62
     7
 10
49.6731659521
 20
58.2329754817
 30
0.0
  0
VERTEX
  5
1A1
  8
VISIBLE
  6
CONTINUOUS
 62
     7
 10
49.6989059829
 20
58.2792178089
 30
0.0
  0
VERTEX
  5
1A2
  8
VISIBLE
  6
CONTINUOUS
 62
     7
 10
49.7246429631
 20
58.3254618515
 30
0.0
  0
VERTEX
  5
1A3
  8
VISIBLE
  6
CONTINUOUS
 62
     7
 10
49.750376871
 20
58.3717076187
 30
0.0
  0
VERTEX
  5
1A4
  8
VISIBLE
  6
CONTINUOUS
 62
     7
 10
49.7761076851
 20
58.4179551199
 30
0.0
  0
VERTEX
  5
1A5
  8
VISIBLE
  6
CONTINUOUS
 62
     7
 10
49.8018353835
 20
58.4642043643
 30
0.0
  0
VERTEX
  5
1A6
  8
VISIBLE
  6
CONTINUOUS
 62
     7
 10
49.8275599447
 20
58.5104553612
 30
0.0
  0
VERTEX
  5
1A7
  8
VISIBLE
  6
CONTINUOUS
 62
     7
 10
49.853281347
 20
58.5567081197
 30
0.0
  0
VERTEX
  5
1A8
  8
VISIBLE
  6
CONTINUOUS
 62
     7
 10
49.8789995686
 20
58.6029626493
 30
0.0
  0
VERTEX
  5
1A9
  8
VISIBLE
  6
CONTINUOUS
 62
     7
 10
49.904714588
 20
58.6492189591
 30
0.0
  0
VERTEX
  5
1AA
  8
VISIBLE
  6
CONTINUOUS
 62
     7
 10
49.9304263834
 20
58.6954770585
 30
0.0
  0
VERTEX
  5
1AB
  8
VISIBLE
  6
CONTINUOUS
 62
     7
 10
49.9561349332
 20
58.7417369566
 30
0.0
  0
VERTEX
  5
1AC
  8
VISIBLE
  6
CONTINUOUS
 62
     7
 10
49.9818402157
 20
58.7879986628
 30
0.0
  0
VERTEX
  5
1AD
  8
VISIBLE
  6
CONTINUOUS
 62
     7
 10
50.0075422092
 20
58.8342621864
 30
0.0
  0
VERTEX
  5
1AE
  8
VISIBLE
  6
CONTINUOUS
 62
     7
 10
50.033240892
 20
58.8805275365
 30
0.0
  0
VERTEX
  5
1AF
  8
VISIBLE
  6
CONTINUOUS
 62
     7
 10
50.0589362425
 20
58.9267947225
 30
0.0
  0
VERTEX
  5
1B0
  8
VISIBLE
  6
CONTINUOUS
 62
     7
 10
50.0846282391
 20
58.9730637536
 30
0.0
  0
VERTEX
  5
1B1
  8
VISIBLE
  6
CONTINUOUS
 62
     7
 10
50.1103168599
 20
59.0193346391
 30
0.0
  0
VERTEX
  5
1B2
  8
VISIBLE
  6
CONTINUOUS
 62
     7
 10
50.1360020834
 20
59.0656073882
 30
0.0
  0
VERTEX
  5
1B3
  8
VISIBLE
  6
CONTINUOUS
 62
     7
 10
50.1616838879
 20
59.1118820103
 30
0.0
  0
VERTEX
  5
1B4
  8
VISIBLE
  6
CONTINUOUS
 62
     7
 10
50.1873622517
 20
59.1581585145
 30
0.0
  0
VERTEX
  5
1B5
  8
VISIBLE
  6
CONTINUOUS
 62
     7
 10
50.2130371532
 20
59.2044369103
 30
0.0
  0
SEQEND
  5
1B6
  8
VISIBLE
  6
CONTINUOUS
 62
     7
  0
LINE
  5
8E
  8
VISIBLE
  6
CONTINUOUS
 62
     7
 10
50.2130371532
 20
59.5558114464
 30
0.0
 11
51.9016541309
 21
59.5558114464
 31
0.0
  0
POLYLINE
  5
8F
  8
VISIBLE
  6
CONTINUOUS
 62
     7
 66
     1
 10
0.0
 20
0.0
 30
0.0
  0
VERTEX
  5
1B7
  8
VISIBLE
  6
CONTINUOUS
 62
     7
 10
51.9016541309
 20
59.2044369103
 30
0.0
  0
VERTEX
  5
1B8
  8
VISIBLE
  6
CONTINUOUS
 62
     7
 10
51.9273290323
 20
59.1581585145
 30
0.0
  0
VERTEX
  5
1B9
  8
VISIBLE
  6
CONTINUOUS
 62
     7
 10
51.9530073961
 20
59.1118820103
 30
0.0
  0
VERTEX
  5
1BA
  8
VISIBLE
  6
CONTINUOUS
 62
     7
 10
51.9786892006
 20
59.0656073882
 30
0.0
  0
VERTEX
  5
1BB
  8
VISIBLE
  6
CONTINUOUS
 62
     7
 10
52.0043744241
 20
59.0193346391
 30
0.0
  0
VERTEX
  5
1BC
  8
VISIBLE
  6
CONTINUOUS
 62
     7
 10
52.0300630449
 20
58.9730637536
 30
0.0
  0
VERTEX
  5
1BD
  8
VISIBLE
  6
CONTINUOUS
 62
     7
 10
52.0557550415
 20
58.9267947225
 30
0.0
  0
VERTEX
  5
1BE
  8
VISIBLE
  6
CONTINUOUS
 62
     7
 10
52.081450392
 20
58.8805275365
 30
0.0
  0
VERTEX
  5
1BF
  8
VISIBLE
  6
CONTINUOUS
 62
     7
 10
52.1071490748
 20
58.8342621864
 30
0.0
  0
VERTEX
  5
1C0
  8
VISIBLE
  6
CONTINUOUS
 62
     7
 10
52.1328510683
 20
58.7879986628
 30
0.0
  0
VERTEX
  5
1C1
  8
VISIBLE
  6
CONTINUOUS
 62
     7
 10
52.1585563508
 20
58.7417369566
 30
0.0
  0
VERTEX
  5
1C2
  8
VISIBLE
  6
CONTINUOUS
 62
     7
 10
52.1842649006
 20
58.6954770585
 30
0.0
  0
VERTEX
  5
1C3
  8
VISIBLE
  6
CONTINUOUS
 62
     7
 10
52.209976696
 20
58.6492189591
 30
0.0
  0
VERTEX
  5
1C4
  8
VISIBLE
  6
CONTINUOUS
 62
     7
 10
52.2356917154
 20
58.6029626493
 30
0.0
  0
VERTEX
  5
1C5
  8
VISIBLE
  6
CONTINUOUS
 62
     7
 10
52.261409937
 20
58.5567081197
 30
0.0
  0
VERTEX
  5
1C6
  8
VISIBLE
  6
CONTINUOUS
 62
     7
 10
52.2871313393
 20
58.5104553612
 30
0.0
  0
VERTEX
  5
1C7
  8
VISIBLE
  6
CONTINUOUS
 62
     7
 10
52.3128559005
 20
58.4642043643
 30
0.0
  0
VERTEX
  5
1C8
  8
VISIBLE
  6
CONTINUOUS
 62
     7
 10
52.3385835989
 20
58.4179551199
 30
0.0
  0
VERTEX
  5
1C9
  8
VISIBLE
  6
CONTINUOUS
 62
     7
 10
52.364314413
 20
58.3717076187
 30
0.0
  0
VERTEX
  5
1CA
  8
VISIBLE
  6
CONTINUOUS
 62
     7
 10
52.3900483209
 20
58.3254618515
 30
0.0
  0
VERTEX
  5
1CB
  8
VISIBLE
  6
CONTINUOUS
 62
     7
 10
52.4157853011
 20
58.2792178089
 30
0.0
  0
VERTEX
  5
1CC
  8
VISIBLE
  6
CONTINUOUS
 62
     7
 10
52.4415253319
 20
58.2329754817
 30
0.0
  0
VERTEX
  5
1CD
  8
VISIBLE
  6
CONTINUOUS
 62
     7
 10
52.4672683916
 20
58.1867348606
 30
0.0
  0
VERTEX
  5
1CE
  8
VISIBLE
  6
CONTINUOUS
 62
     7
 10
52.4930144585
 20
58.1404959364
 30
0.0
  0
VERTEX
  5
1CF
  8
VISIBLE
  6
CONTINUOUS
 62
     7
 10
52.5187635109
 20
58.0942586997
 30
0.0
  0
SEQEND
  5
1D0
  8
VISIBLE
  6
CONTINUOUS
 62
     7
  0
LINE
  5
90
  8
VISIBLE
  6
CONTINUOUS
 62
     7
 10
52.5187635109
 20
58.0942586997
 30
0.0
 11
54.612345642
 21
58.0942586997
 31
0.0
  0
LINE
  5
91
  8
VISIBLE
  6
CONTINUOUS
 62
     7
 10
54.6522237691
 20
95.230936327
 30
0.0
 11
54.6550082774
 21
95.230936327
 31
0.0
  0
LINE
  5
92
  8
VISIBLE
  6
CONTINUOUS
 62
     7
 10
49.5959277731
 20
100.4176139543
 30
0.0
 11
47.457345642
 21
100.4176139543
 31
0.0
  0
LINE
  5
93
  8
VISIBLE
  6
CONTINUOUS
 62
     7
 10
54.612345642
 20
100.4176139543
 30
0.0
 11
52.5187635109
 21
100.4176139543
 31
0.0
  0
POLYLINE
  5
94
  8
VISIBLE
  6
CONTINUOUS
 62
     7
 66
     1
 10
0.0
 20
0.0
 30
0.0
  0
VERTEX
  5
1D1
  8
VISIBLE
  6
CONTINUOUS
 62
     7
 10
52.5187635109
 20
100.4176139543
 30
0.0
  0
VERTEX
  5
1D2
  8
VISIBLE
  6
CONTINUOUS
 62
     7
 10
52.4930142668
 20
100.3713763735
 30
0.0
  0
VERTEX
  5
1D3
  8
VISIBLE
  6
CONTINUOUS
 62
     7
 10
52.4672680322
 20
100.3251371479
 30
0.0
  0
VERTEX
  5
1D4
  8
VISIBLE
  6
CONTINUOUS
 62
     7
 10
52.4415248277
 20
100.2788962667
 30
0.0
  0
VERTEX
  5
1D5
  8
VISIBLE
  6
CONTINUOUS
 62
     7
 10
52.415784674
 20
100.2326537186
 30
0.0
  0
VERTEX
  5
1D6
  8
VISIBLE
  6
CONTINUOUS
 62
     7
 10
52.3900475918
 20
100.1864094927
 30
0.0
  0
VERTEX
  5
1D7
  8
VISIBLE
  6
CONTINUOUS
 62
     7
 10
52.3643136019
 20
100.140163578
 30
0.0
  0
VERTEX
  5
1D8
  8
VISIBLE
  6
CONTINUOUS
 62
     7
 10
52.3385827248
 20
100.0939159634
 30
0.0
  0
VERTEX
  5
1D9
  8
VISIBLE
  6
CONTINUOUS
 62
     7
 10
52.3128549813
 20
100.0476666379
 30
0.0
  0
VERTEX
  5
1DA
  8
VISIBLE
  6
CONTINUOUS
 62
     7
 10
52.287130392
 20
100.0014155904
 30
0.0
  0
VERTEX
  5
1DB
  8
VISIBLE
  6
CONTINUOUS
 62
     7
 10
52.2614089777
 20
99.9551628099
 30
0.0
  0
VERTEX
  5
1DC
  8
VISIBLE
  6
CONTINUOUS
 62
     7
 10
52.2356907591
 20
99.9089082855
 30
0.0
  0
VERTEX
  5
1DD
  8
VISIBLE
  6
CONTINUOUS
 62
     7
 10
52.2099757567
 20
99.862652006
 30
0.0
  0
VERTEX
  5
1DE
  8
VISIBLE
  6
CONTINUOUS
 62
     7
 10
52.1842639914
 20
99.8163939604
 30
0.0
  0
VERTEX
  5
1DF
  8
VISIBLE
  6
CONTINUOUS
 62
     7
 10
52.1585554837
 20
99.7701341378
 30
0.0
  0
VERTEX
  5
1E0
  8
VISIBLE
  6
CONTINUOUS
 62
     7
 10
52.1328502544
 20
99.723872527
 30
0.0
  0
VERTEX
  5
1E1
  8
VISIBLE
  6
CONTINUOUS
 62
     7
 10
52.1071483242
 20
99.677609117
 30
0.0
  0
VERTEX
  5
1E2
  8
VISIBLE
  6
CONTINUOUS
 62
     7
 10
52.0814497137
 20
99.6313438969
 30
0.0
  0
VERTEX
  5
1E3
  8
VISIBLE
  6
CONTINUOUS
 62
     7
 10
52.0557544437
 20
99.5850768555
 30
0.0
  0
VERTEX
  5
1E4
  8
VISIBLE
  6
CONTINUOUS
 62
     7
 10
52.0300625347
 20
99.5388079819
 30
0.0
  0
VERTEX
  5
1E5
  8
VISIBLE
  6
CONTINUOUS
 62
     7
 10
52.0043740076
 20
99.4925372649
 30
0.0
  0
VERTEX
  5
1E6
  8
VISIBLE
  6
CONTINUOUS
 62
     7
 10
51.978688883
 20
99.4462646937
 30
0.0
  0
VERTEX
  5
1E7
  8
VISIBLE
  6
CONTINUOUS
 62
     7
 10
51.9530071815
 20
99.3999902571
 30
0.0
  0
VERTEX
  5
1E8
  8
VISIBLE
  6
CONTINUOUS
 62
     7
 10
51.9273289239
 20
99.3537139441
 30
0.0
  0
VERTEX
  5
1E9
  8
VISIBLE
  6
CONTINUOUS
 62
     7
 10
51.9016541309
 20
99.3074357437
 30
0.0
  0
SEQEND
  5
1EA
  8
VISIBLE
  6
CONTINUOUS
 62
     7
  0
LINE
  5
95
  8
VISIBLE
  6
CONTINUOUS
 62
     7
 10
51.9016541309
 20
98.9560612076
 30
0.0
 11
50.2130371532
 21
98.9560612076
 31
0.0
  0
POLYLINE
  5
96
  8
VISIBLE
  6
CONTINUOUS
 62
     7
 66
     1
 10
0.0
 20
0.0
 30
0.0
  0
VERTEX
  5
1EB
  8
VISIBLE
  6
CONTINUOUS
 62
     7
 10
50.2130371532
 20
99.3074357437
 30
0.0
  0
VERTEX
  5
1EC
  8
VISIBLE
  6
CONTINUOUS
 62
     7
 10
50.1873623601
 20
99.3537139441
 30
0.0
  0
VERTEX
  5
1ED
  8
VISIBLE
  6
CONTINUOUS
 62
     7
 10
50.1616841025
 20
99.3999902571
 30
0.0
  0
VERTEX
  5
1EE
  8
VISIBLE
  6
CONTINUOUS
 62
     7
 10
50.1360024011
 20
99.4462646937
 30
0.0
  0
VERTEX
  5
1EF
  8
VISIBLE
  6
CONTINUOUS
 62
     7
 10
50.1103172764
 20
99.4925372649
 30
0.0
  0
VERTEX
  5
1F0
  8
VISIBLE
  6
CONTINUOUS
 62
     7
 10
50.0846287493
 20
99.5388079819
 30
0.0
  0
VERTEX
  5
1F1
  8
VISIBLE
  6
CONTINUOUS
 62
     7
 10
50.0589368404
 20
99.5850768555
 30
0.0
  0
VERTEX
  5
1F2
  8
VISIBLE
  6
CONTINUOUS
 62
     7
 10
50.0332415703
 20
99.6313438969
 30
0.0
  0
VERTEX
  5
1F3
  8
VISIBLE
  6
CONTINUOUS
 62
     7
 10
50.0075429598
 20
99.677609117
 30
0.0
  0
VERTEX
  5
1F4
  8
VISIBLE
  6
CONTINUOUS
 62
     7
 10
49.9818410296
 20
99.723872527
 30
0.0
  0
VERTEX
  5
1F5
  8
VISIBLE
  6
CONTINUOUS
 62
     7
 10
49.9561358003
 20
99.7701341378
 30
0.0
  0
VERTEX
  5
1F6
  8
VISIBLE
  6
CONTINUOUS
 62
     7
 10
49.9304272926
 20
99.8163939604
 30
0.0
  0
VERTEX
  5
1F7
  8
VISIBLE
  6
CONTINUOUS
 62
     7
 10
49.9047155273
 20
99.862652006
 30
0.0
  0
VERTEX
  5
1F8
  8
VISIBLE
  6
CONTINUOUS
 62
     7
 10
49.8790005249
 20
99.9089082855
 30
0.0
  0
VERTEX
  5
1F9
  8
VISIBLE
  6
CONTINUOUS
 62
     7
 10
49.8532823063
 20
99.9551628099
 30
0.0
  0
VERTEX
  5
1FA
  8
VISIBLE
  6
CONTINUOUS
 62
     7
 10
49.827560892
 20
100.0014155904
 30
0.0
  0
VERTEX
  5
1FB
  8
VISIBLE
  6
CONTINUOUS
 62
     7
 10
49.8018363027
 20
100.0476666379
 30
0.0
  0
VERTEX
  5
1FC
  8
VISIBLE
  6
CONTINUOUS
 62
     7
 10
49.7761085592
 20
100.0939159634
 30
0.0
  0
VERTEX
  5
1FD
  8
VISIBLE
  6
CONTINUOUS
 62
     7
 10
49.7503776822
 20
100.140163578
 30
0.0
  0
VERTEX
  5
1FE
  8
VISIBLE
  6
CONTINUOUS
 62
     7
 10
49.7246436922
 20
100.1864094927
 30
0.0
  0
VERTEX
  5
1FF
  8
VISIBLE
  6
CONTINUOUS
 62
     7
 10
49.69890661
 20
100.2326537186
 30
0.0
  0
VERTEX
  5
200
  8
VISIBLE
  6
CONTINUOUS
 62
     7
 10
49.6731664564
 20
100.2788962667
 30
0.0
  0
VERTEX
  5
201
  8
VISIBLE
  6
CONTINUOUS
 62
     7
 10
49.6474232519
 20
100.3251371479
 30
0.0
  0
VERTEX
  5
202
  8
VISIBLE
  6
CONTINUOUS
 62
     7
 10
49.6216770172
 20
100.3713763735
 30
0.0
  0
VERTEX
  5
203
  8
VISIBLE
  6
CONTINUOUS
 62
     7
 10
49.5959277731
 20
100.4176139543
 30
0.0
  0
SEQEND
  5
204
  8
VISIBLE
  6
CONTINUOUS
 62
     7
  0
LINE
  5
97
  8
VISIBLE
  6
CONTINUOUS
 62
     7
 10
54.612345642
 20
65.755936327
 30
0.0
 11
54.612345642
 21
100.4176139543
 31
0.0
  0
LINE
  5
98
  8
VISIBLE
  6
CONTINUOUS
 62
     7
 10
54.612345642
 20
61.9642069094
 30
0.0
 11
54.612345642
 21
65.755936327
 31
0.0
  0
LINE
  5
99
  8
VISIBLE
  6
CONTINUOUS
 62
     7
 10
51.9016541309
 20
65.755936327
 30
0.0
 11
51.9016541309
 21
99.3074357437
 31
0.0
  0
LINE
  5
9A
  8
VISIBLE
  6
CONTINUOUS
 62
     7
 10
50.2130371532
 20
65.755936327
 30
0.0
 11
50.2130371532
 21
99.3074357437
 31
0.0
  0
LINE
  5
9B
  8
VISIBLE
  6
CONTINUOUS
 62
     7
 10
47.457345642
 20
65.755936327
 30
0.0
 11
47.457345642
 21
100.4176139543
 31
0.0
  0
LINE
  5
9C
  8
VISIBLE
  6
CONTINUOUS
 62
     7
 10
47.457345642
 20
65.755936327
 30
0.0
 11
47.457345642
 21
61.9642069094
 31
0.0
  0
LINE
  5
9D
  8
VISIBLE
  6
CONTINUOUS
 62
     7
 10
47.457345642
 20
61.9642069094
 30
0.0
 11
49.5959277731
 21
61.9642069094
 31
0.0
  0
POLYLINE
  5
9E
  8
VISIBLE
  6
CONTINUOUS
 62
     7
 66
     1
 10
0.0
 20
0.0
 30
0.0
  0
VERTEX
  5
205
  8
VISIBLE
  6
CONTINUOUS
 62
     7
 10
49.5959277731
 20
61.9642069094
 30
0.0
  0
VERTEX
  5
206
  8
VISIBLE
  6
CONTINUOUS
 62
     7
 10
49.621969576
 20
62.0214671036
 30
0.0
  0
VERTEX
  5
207
  8
VISIBLE
  6
CONTINUOUS
 62
     7
 10
49.647985121
 20
62.0787417729
 30
0.0
  0
VERTEX
  5
208
  8
VISIBLE
  6
CONTINUOUS
 62
     7
 10
49.6739740885
 20
62.1360307499
 30
0.0
  0
VERTEX
  5
209
  8
VISIBLE
  6
CONTINUOUS
 62
     7
 10
49.6999361591
 20
62.1933338672
 30
0.0
  0
VERTEX
  5
20A
  8
VISIBLE
  6
CONTINUOUS
 62
     7
 10
49.7258710133
 20
62.2506509574
 30
0.0
  0
VERTEX
  5
20B
  8
VISIBLE
  6
CONTINUOUS
 62
     7
 10
49.7517783315
 20
62.3079818532
 30
0.0
  0
VERTEX
  5
20C
  8
VISIBLE
  6
CONTINUOUS
 62
     7
 10
49.7776577941
 20
62.3653263871
 30
0.0
  0
VERTEX
  5
20D
  8
VISIBLE
  6
CONTINUOUS
 62
     7
 10
49.8035090818
 20
62.4226843918
 30
0.0
  0
VERTEX
  5
20E
  8
VISIBLE
  6
CONTINUOUS
 62
     7
 10
49.8293318749
 20
62.4800556999
 30
0.0
  0
VERTEX
  5
20F
  8
VISIBLE
  6
CONTINUOUS
 62
     7
 10
49.855125854
 20
62.537440144
 30
0.0
  0
VERTEX
  5
210
  8
VISIBLE
  6
CONTINUOUS
 62
     7
 10
49.8808906994
 20
62.5948375567
 30
0.0
  0
VERTEX
  5
211
  8
VISIBLE
  6
CONTINUOUS
 62
     7
 10
49.9066260918
 20
62.6522477706
 30
0.0
  0
VERTEX
  5
212
  8
VISIBLE
  6
CONTINUOUS
 62
     7
 10
49.9323317116
 20
62.7096706184
 30
0.0
  0
VERTEX
  5
213
  8
VISIBLE
  6
CONTINUOUS
 62
     7
 10
49.9580072392
 20
62.7671059326
 30
0.0
  0
VERTEX
  5
214
  8
VISIBLE
  6
CONTINUOUS
 62
     7
 10
49.9836523551
 20
62.8245535458
 30
0.0
  0
VERTEX
  5
215
  8
VISIBLE
  6
CONTINUOUS
 62
     7
 10
50.0092667399
 20
62.8820132907
 30
0.0
  0
VERTEX
  5
216
  8
VISIBLE
  6
CONTINUOUS
 62
     7
 10
50.034850074
 20
62.9394849998
 30
0.0
  0
VERTEX
  5
217
  8
VISIBLE
  6
CONTINUOUS
 62
     7
 10
50.0604020378
 20
62.9969685059
 30
0.0
  0
VERTEX
  5
218
  8
VISIBLE
  6
CONTINUOUS
 62
     7
 10
50.0859223119
 20
63.0544636414
 30
0.0
  0
VERTEX
  5
219
  8
VISIBLE
  6
CONTINUOUS
 62
     7
 10
50.1114105768
 20
63.1119702391
 30
0.0
  0
VERTEX
  5
21A
  8
VISIBLE
  6
CONTINUOUS
 62
     7
 10
50.1368665129
 20
63.1694881314
 30
0.0
  0
VERTEX
  5
21B
  8
VISIBLE
  6
CONTINUOUS
 62
     7
 10
50.1622898006
 20
63.2270171511
 30
0.0
  0
VERTEX
  5
21C
  8
VISIBLE
  6
CONTINUOUS
 62
     7
 10
50.1876801206
 20
63.2845571308
 30
0.0
  0
VERTEX
  5
21D
  8
VISIBLE
  6
CONTINUOUS
 62
     7
 10
50.2130371532
 20
63.342107903
 30
0.0
  0
SEQEND
  5
21E
  8
VISIBLE
  6
CONTINUOUS
 62
     7
  0
LINE
  5
9F
  8
VISIBLE
  6
CONTINUOUS
 62
     7
 10
50.2130371532
 20
63.342107903
 30
0.0
 11
50.2130371532
 21
63.787186327
 31
0.0
  0
LINE
  5
A0
  8
VISIBLE
  6
CONTINUOUS
 62
     7
 10
50.2130371532
 20
63.787186327
 30
0.0
 11
51.9016541309
 21
63.787186327
 31
0.0
  0
LINE
  5
A1
  8
VISIBLE
  6
CONTINUOUS
 62
     7
 10
51.9016541309
 20
63.787186327
 30
0.0
 11
51.9016541309
 21
63.342107903
 31
0.0
  0
POLYLINE
  5
A2
  8
VISIBLE
  6
CONTINUOUS
 62
     7
 66
     1
 10
0.0
 20
0.0
 30
0.0
  0
VERTEX
  5
21F
  8
VISIBLE
  6
CONTINUOUS
 62
     7
 10
51.9016541309
 20
63.342107903
 30
0.0
  0
VERTEX
  5
220
  8
VISIBLE
  6
CONTINUOUS
 62
     7
 10
51.9270202514
 20
63.2845364957
 30
0.0
  0
VERTEX
  5
221
  8
VISIBLE
  6
CONTINUOUS
 62
     7
 10
51.9524182878
 20
63.2269790076
 30
0.0
  0
VERTEX
  5
222
  8
VISIBLE
  6
CONTINUOUS
 62
     7
 10
51.9778479999
 20
63.1694354245
 30
0.0
  0
VERTEX
  5
223
  8
VISIBLE
  6
CONTINUOUS
 62
     7
 10
52.0033091474
 20
63.1119057321
 30
0.0
  0
VERTEX
  5
224
  8
VISIBLE
  6
CONTINUOUS
 62
     7
 10
52.02880149
 20
63.0543899161
 30
0.0
  0
VERTEX
  5
225
  8
VISIBLE
  6
CONTINUOUS
 62
     7
 10
52.0543247875
 20
62.9968879622
 30
0.0
  0
VERTEX
  5
226
  8
VISIBLE
  6
CONTINUOUS
 62
     7
 10
52.0798787996
 20
62.939399856
 30
0.0
  0
VERTEX
  5
227
  8
VISIBLE
  6
CONTINUOUS
 62
     7
 10
52.1054632859
 20
62.8819255834
 30
0.0
  0
VERTEX
  5
228
  8
VISIBLE
  6
CONTINUOUS
 62
     7
 10
52.1310780063
 20
62.8244651299
 30
0.0
  0
VERTEX
  5
229
  8
VISIBLE
  6
CONTINUOUS
 62
     7
 10
52.1567227205
 20
62.7670184814
 30
0.0
  0
VERTEX
  5
22A
  8
VISIBLE
  6
CONTINUOUS
 62
     7
 10
52.1823971881
 20
62.7095856234
 30
0.0
  0
VERTEX
  5
22B
  8
VISIBLE
  6
CONTINUOUS
 62
     7
 10
52.208101169
 20
62.6521665417
 30
0.0
  0
VERTEX
  5
22C
  8
VISIBLE
  6
CONTINUOUS
 62
     7
 10
52.2338344228
 20
62.5947612221
 30
0.0
  0
VERTEX
  5
22D
  8
VISIBLE
  6
CONTINUOUS
 62
     7
 10
52.2595967093
 20
62.5373696501
 30
0.0
  0
VERTEX
  5
22E
  8
VISIBLE
  6
CONTINUOUS
 62
     7
 10
52.2853877881
 20
62.4799918116
 30
0.0
  0
VERTEX
  5
22F
  8
VISIBLE
  6
CONTINUOUS
 62
     7
 10
52.3112074191
 20
62.4226276922
 30
0.0
  0
VERTEX
  5
230
  8
VISIBLE
  6
CONTINUOUS
 62
     7
 10
52.337055362
 20
62.3652772776
 30
0.0
  0
VERTEX
  5
231
  8
VISIBLE
  6
CONTINUOUS
 62
     7
 10
52.3629313764
 20
62.3079405535
 30
0.0
  0
VERTEX
  5
232
  8
VISIBLE
  6
CONTINUOUS
 62
     7
 10
52.3888352222
 20
62.2506175057
 30
0.0
  0
VERTEX
  5
233
  8
VISIBLE
  6
CONTINUOUS
 62
     7
 10
52.4147666589
 20
62.1933081198
 30
0.0
  0
VERTEX
  5
234
  8
VISIBLE
  6
CONTINUOUS
 62
     7
 10
52.4407254465
 20
62.1360123815
 30
0.0
  0
VERTEX
  5
235
  8
VISIBLE
  6
CONTINUOUS
 62
     7
 10
52.4667113445
 20
62.0787302765
 30
0.0
  0
VERTEX
  5
236
  8
VISIBLE
  6
CONTINUOUS
 62
     7
 10
52.4927241127
 20
62.0214617906
 30
0.0
  0
VERTEX
  5
237
  8
VISIBLE
  6
CONTINUOUS
 62
     7
 10
52.5187635109
 20
61.9642069094
 30
0.0
  0
SEQEND
  5
238
  8
VISIBLE
  6
CONTINUOUS
 62
     7
  0
LINE
  5
A3
  8
VISIBLE
  6
CONTINUOUS
 62
     7
 10
52.5187635109
 20
61.9642069094
 30
0.0
 11
54.612345642
 21
61.9642069094
 31
0.0
  0
LINE
  5
A4
  8
VISIBLE
  6
CONTINUOUS
 62
     7
 10
49.5959277731
 20
65.755936327
 30
0.0
 11
47.457345642
 21
65.755936327
 31
0.0
  0
LINE
  5
A5
  8
VISIBLE
  6
CONTINUOUS
 62
     7
 10
54.612345642
 20
65.755936327
 30
0.0
 11
52.5187635109
 21
65.755936327
 31
0.0
  0
LINE
  5
A6
  8
VISIBLE
  6
CONTINUOUS
 62
     7
 10
52.5187635109
 20
65.755936327
 30
0.0
 11
51.9016541309
 21
65.755936327
 31
0.0
  0
LINE
  5
A7
  8
VISIBLE
  6
CONTINUOUS
 62
     7
 10
51.9016541309
 20
65.755936327
 30
0.0
 11
50.2130371532
 21
65.755936327
 31
0.0
  0
LINE
  5
A8
  8
VISIBLE
  6
CONTINUOUS
 62
     7
 10
50.2130371532
 20
65.755936327
 30
0.0
 11
49.5959277731
 21
65.755936327
 31
0.0
  0
LINE
  5
A9
  8
VISIBLE
  6
CONTINUOUS
 62
     7
 10
29.052345642
 20
97.930936327
 30
0.0
 11
29.052345642
 21
60.580936327
 31
0.0
  0
LINE
  5
AA
  8
VISIBLE
  6
CONTINUOUS
 62
     7
 10
40.302345642
 20
97.930936327
 30
0.0
 11
40.302345642
 21
60.580936327
 31
0.0
  0
LINE
  5
AB
  8
0
  6
HIDDEN2
 62
     7
 10
54.787845642
 20
88.278436327
 30
0.0
 11
54.787845642
 21
70.233436327
 31
0.0
  0
LINE
  5
AC
  8
0
  6
HIDDEN2
 62
     7
 10
62.352345642
 20
70.930936327
 30
0.0
 11
62.352345642
 21
81.190657704
 31
0.0
  0
LINE
  5
AD
  8
0
  6
HIDDEN2
 62
     7
 10
61.902345642
 20
70.9310465456
 30
0.0
 11
58.852218114
 21
70.9310465456
 31
0.0
  0
LINE
  5
AE
  8
HIDDEN
  6
HIDDEN2
 62
     7
 10
37.152345642
 20
94.600936327
 30
0.0
 11
37.152345642
 21
63.910936327
 31
0.0
  0
LINE
  5
AF
  8
0
  6
HIDDEN2
 62
     7
 10
38.502345642
 20
94.060936327
 30
0.0
 11
38.502345642
 21
64.450936327
 31
0.0
  0
LINE
  5
B0
  8
0
  6
HIDDEN2
 62
     7
 10
55.462845642
 20
88.278436327
 30
0.0
 11
55.462845642
 21
70.233436327
 31
0.0
  0
LINE
  5
B1
  8
0
  6
HIDDEN2
 62
     7
 10
65.8530497376
 20
76.982086327
 30
0.0
 11
65.8530497376
 21
81.529786327
 31
0.0
  0
LINE
  5
B2
  8
0
  6
HIDDEN2
 62
     7
 10
71.1505741582
 20
81.529786327
 30
0.0
 11
71.1505741582
 21
76.982086327
 31
0.0
  0
LINE
  5
B3
  8
HIDDEN
  6
HIDDEN2
 62
     7
 10
62.352345642
 20
82.9844574571
 30
0.0
 11
62.352345642
 21
81.190657704
 31
0.0
  0
LINE
  5
B4
  8
HIDDEN
  6
HIDDEN2
 62
     7
 10
62.352345642
 20
87.580936327
 30
0.0
 11
62.352345642
 21
82.9785474821
 31
0.0
  0
ARC
  5
B5
  8
VISIBLE
  6
CONTINUOUS
 62
     7
 10
48.6659116226
 20
39.4964798297
 30
0.0
 40
22.85495461827831
 50
106.66972862
 51
107.8116210883
  0
ARC
  5
B6
  8
VISIBLE
  6
CONTINUOUS
 62
     7
 10
47.6161760999
 20
115.2010438316
 30
0.0
 40
18.90307622993204
 50
251.681140601
 51
268.1542977898
  0
ARC
  5
B7
  8
VISIBLE
  6
CONTINUOUS
 62
     7
 10
47.5757096299
 20
37.7276193462
 30
0.0
 40
24.28637498037326
 50
91.3409918531
 51
103.0062887202
  0
POLYLINE
  5
B8
  8
VISIBLE
  6
CONTINUOUS
 62
     7
 66
     1
 10
0.0
 20
0.0
 30
0.0
  0
VERTEX
  5
239
  8
VISIBLE
  6
CONTINUOUS
 62
     7
 10
47.457345642
 20
61.6516180301
 30
0.0
  0
VERTEX
  5
23A
  8
VISIBLE
  6
CONTINUOUS
 62
     7
 10
47.4572506903
 20
61.6591088275
 30
0.0
  0
VERTEX
  5
23B
  8
VISIBLE
  6
CONTINUOUS
 62
     7
 10
47.4569655906
 20
61.666577191
 30
0.0
  0
VERTEX
  5
23C
  8
VISIBLE
  6
CONTINUOUS
 62
     7
 10
47.4564899762
 20
61.6740229827
 30
0.0
  0
VERTEX
  5
23D
  8
VISIBLE
  6
CONTINUOUS
 62
     7
 10
47.4558234804
 20
61.6814460642
 30
0.0
  0
VERTEX
  5
23E
  8
VISIBLE
  6
CONTINUOUS
 62
     7
 10
47.4549657364
 20
61.6888462976
 30
0.0
  0
VERTEX
  5
23F
  8
VISIBLE
  6
CONTINUOUS
 62
     7
 10
47.4539163774
 20
61.6962235447
 30
0.0
  0
VERTEX
  5
240
  8
VISIBLE
  6
CONTINUOUS
 62
     7
 10
47.4526750368
 20
61.7035776673
 30
0.0
  0
VERTEX
  5
241
  8
VISIBLE
  6
CONTINUOUS
 62
     7
 10
47.4512413478
 20
61.7109085273
 30
0.0
  0
VERTEX
  5
242
  8
VISIBLE
  6
CONTINUOUS
 62
     7
 10
47.4496149435
 20
61.7182159866
 30
0.0
  0
VERTEX
  5
243
  8
VISIBLE
  6
CONTINUOUS
 62
     7
 10
47.4477954574
 20
61.7254999071
 30
0.0
  0
VERTEX
  5
244
  8
VISIBLE
  6
CONTINUOUS
 62
     7
 10
47.4457825226
 20
61.7327601505
 30
0.0
  0
VERTEX
  5
245
  8
VISIBLE
  6
CONTINUOUS
 62
     7
 10
47.4435757724
 20
61.7399965788
 30
0.0
  0
VERTEX
  5
246
  8
VISIBLE
  6
CONTINUOUS
 62
     7
 10
47.44117484
 20
61.7472090539
 30
0.0
  0
VERTEX
  5
247
  8
VISIBLE
  6
CONTINUOUS
 62
     7
 10
47.4385793588
 20
61.7543974376
 30
0.0
  0
VERTEX
  5
248
  8
VISIBLE
  6
CONTINUOUS
 62
     7
 10
47.4357889619
 20
61.7615615917
 30
0.0
  0
VERTEX
  5
249
  8
VISIBLE
  6
CONTINUOUS
 62
     7
 10
47.4328032826
 20
61.7687013782
 30
0.0
  0
VERTEX
  5
24A
  8
VISIBLE
  6
CONTINUOUS
 62
     7
 10
47.4296219542
 20
61.7758166589
 30
0.0
  0
VERTEX
  5
24B
  8
VISIBLE
  6
CONTINUOUS
 62
     7
 10
47.4262446098
 20
61.7829072956
 30
0.0
  0
VERTEX
  5
24C
  8
VISIBLE
  6
CONTINUOUS
 62
     7
 10
47.4226818802
 20
61.7899506617
 30
0.0
  0
VERTEX
  5
24D
  8
VISIBLE
  6
CONTINUOUS
 62
     7
 10
47.4189440144
 20
61.7969237236
 30
0.0
  0
VERTEX
  5
24E
  8
VISIBLE
  6
CONTINUOUS
 62
     7
 10
47.415030074
 20
61.8038257327
 30
0.0
  0
VERTEX
  5
24F
  8
VISIBLE
  6
CONTINUOUS
 62
     7
 10
47.4109391204
 20
61.8106559407
 30
0.0
  0
VERTEX
  5
250
  8
VISIBLE
  6
CONTINUOUS
 62
     7
 10
47.4066702151
 20
61.817413599
 30
0.0
  0
VERTEX
  5
251
  8
VISIBLE
  6
CONTINUOUS
 62
     7
 10
47.4022224195
 20
61.8240979593
 30
0.0
  0
VERTEX
  5
252
  8
VISIBLE
  6
CONTINUOUS
 62
     7
 10
47.397594795
 20
61.830708273
 30
0.0
  0
VERTEX
  5
253
  8
VISIBLE
  6
CONTINUOUS
 62
     7
 10
47.3927864032
 20
61.8372437916
 30
0.0
  0
VERTEX
  5
254
  8
VISIBLE
  6
CONTINUOUS
 62
     7
 10
47.3877963053
 20
61.8437037668
 30
0.0
  0
VERTEX
  5
255
  8
VISIBLE
  6
CONTINUOUS
 62
     7
 10
47.382623563
 20
61.8500874501
 30
0.0
  0
VERTEX
  5
256
  8
VISIBLE
  6
CONTINUOUS
 62
     7
 10
47.3772672376
 20
61.8563940929
 30
0.0
  0
VERTEX
  5
257
  8
VISIBLE
  6
CONTINUOUS
 62
     7
 10
47.3717263905
 20
61.8626229469
 30
0.0
  0
VERTEX
  5
258
  8
VISIBLE
  6
CONTINUOUS
 62
     7
 10
47.3660000833
 20
61.8687732636
 30
0.0
  0
VERTEX
  5
259
  8
VISIBLE
  6
CONTINUOUS
 62
     7
 10
47.3600873773
 20
61.8748442945
 30
0.0
  0
VERTEX
  5
25A
  8
VISIBLE
  6
CONTINUOUS
 62
     7
 10
47.3539873341
 20
61.8808352911
 30
0.0
  0
VERTEX
  5
25B
  8
VISIBLE
  6
CONTINUOUS
 62
     7
 10
47.347699015
 20
61.886745505
 30
0.0
  0
VERTEX
  5
25C
  8
VISIBLE
  6
CONTINUOUS
 62
     7
 10
47.3412214815
 20
61.8925741878
 30
0.0
  0
VERTEX
  5
25D
  8
VISIBLE
  6
CONTINUOUS
 62
     7
 10
47.334553795
 20
61.8983205909
 30
0.0
  0
VERTEX
  5
25E
  8
VISIBLE
  6
CONTINUOUS
 62
     7
 10
47.3277163387
 20
61.9039645702
 30
0.0
  0
VERTEX
  5
25F
  8
VISIBLE
  6
CONTINUOUS
 62
     7
 10
47.3207302803
 20
61.909485238
 30
0.0
  0
VERTEX
  5
260
  8
VISIBLE
  6
CONTINUOUS
 62
     7
 10
47.3135958585
 20
61.9148807306
 30
0.0
  0
VERTEX
  5
261
  8
VISIBLE
  6
CONTINUOUS
 62
     7
 10
47.3063133118
 20
61.9201491841
 30
0.0
  0
VERTEX
  5
262
  8
VISIBLE
  6
CONTINUOUS
 62
     7
 10
47.298882879
 20
61.9252887349
 30
0.0
  0
VERTEX
  5
263
  8
VISIBLE
  6
CONTINUOUS
 62
     7
 10
47.2913047987
 20
61.9302975192
 30
0.0
  0
VERTEX
  5
264
  8
VISIBLE
  6
CONTINUOUS
 62
     7
 10
47.2835793094
 20
61.9351736731
 30
0.0
  0
VERTEX
  5
265
  8
VISIBLE
  6
CONTINUOUS
 62
     7
 10
47.2757066497
 20
61.939915333
 30
0.0
  0
VERTEX
  5
266
  8
VISIBLE
  6
CONTINUOUS
 62
     7
 10
47.2676870584
 20
61.9445206352
 30
0.0
  0
VERTEX
  5
267
  8
VISIBLE
  6
CONTINUOUS
 62
     7
 10
47.2595207741
 20
61.9489877157
 30
0.0
  0
VERTEX
  5
268
  8
VISIBLE
  6
CONTINUOUS
 62
     7
 10
47.2512080353
 20
61.953314711
 30
0.0
  0
VERTEX
  5
269
  8
VISIBLE
  6
CONTINUOUS
 62
     7
 10
47.2427490807
 20
61.9574997572
 30
0.0
  0
VERTEX
  5
26A
  8
VISIBLE
  6
CONTINUOUS
 62
     7
 10
47.2341441488
 20
61.9615409906
 30
0.0
  0
VERTEX
  5
26B
  8
VISIBLE
  6
CONTINUOUS
 62
     7
 10
47.2253934785
 20
61.9654365474
 30
0.0
  0
VERTEX
  5
26C
  8
VISIBLE
  6
CONTINUOUS
 62
     7
 10
47.2164973081
 20
61.9691845638
 30
0.0
  0
VERTEX
  5
26D
  8
VISIBLE
  6
CONTINUOUS
 62
     7
 10
47.2074558765
 20
61.9727831762
 30
0.0
  0
VERTEX
  5
26E
  8
VISIBLE
  6
CONTINUOUS
 62
     7
 10
47.1982694222
 20
61.9762305207
 30
0.0
  0
VERTEX
  5
26F
  8
VISIBLE
  6
CONTINUOUS
 62
     7
 10
47.1889381837
 20
61.9795247337
 30
0.0
  0
VERTEX
  5
270
  8
VISIBLE
  6
CONTINUOUS
 62
     7
 10
47.1794887034
 20
61.9826534667
 30
0.0
  0
VERTEX
  5
271
  8
VISIBLE
  6
CONTINUOUS
 62
     7
 10
47.169949218
 20
61.9856045381
 30
0.0
  0
VERTEX
  5
272
  8
VISIBLE
  6
CONTINUOUS
 62
     7
 10
47.160322508
 20
61.9883763341
 30
0.0
  0
VERTEX
  5
273
  8
VISIBLE
  6
CONTINUOUS
 62
     7
 10
47.1506113539
 20
61.9909672408
 30
0.0
  0
VERTEX
  5
274
  8
VISIBLE
  6
CONTINUOUS
 62
     7
 10
47.1408185361
 20
61.9933756445
 30
0.0
  0
VERTEX
  5
275
  8
VISIBLE
  6
CONTINUOUS
 62
     7
 10
47.1309468352
 20
61.9955999313
 30
0.0
  0
VERTEX
  5
276
  8
VISIBLE
  6
CONTINUOUS
 62
     7
 10
47.1209990318
 20
61.9976384873
 30
0.0
  0
VERTEX
  5
277
  8
VISIBLE
  6
CONTINUOUS
 62
     7
 10
47.1109779061
 20
61.9994896988
 30
0.0
  0
VERTEX
  5
278
  8
VISIBLE
  6
CONTINUOUS
 62
     7
 10
47.1008862389
 20
62.0011519519
 30
0.0
  0
VERTEX
  5
279
  8
VISIBLE
  6
CONTINUOUS
 62
     7
 10
47.0907268105
 20
62.0026236328
 30
0.0
  0
VERTEX
  5
27A
  8
VISIBLE
  6
CONTINUOUS
 62
     7
 10
47.0805024014
 20
62.0039031277
 30
0.0
  0
VERTEX
  5
27B
  8
VISIBLE
  6
CONTINUOUS
 62
     7
 10
47.0702157923
 20
62.0049888228
 30
0.0
  0
VERTEX
  5
27C
  8
VISIBLE
  6
CONTINUOUS
 62
     7
 10
47.0598697634
 20
62.0058791041
 30
0.0
  0
VERTEX
  5
27D
  8
VISIBLE
  6
CONTINUOUS
 62
     7
 10
47.0494670955
 20
62.006572358
 30
0.0
  0
VERTEX
  5
27E
  8
VISIBLE
  6
CONTINUOUS
 62
     7
 10
47.0390105688
 20
62.0070669706
 30
0.0
  0
VERTEX
  5
27F
  8
VISIBLE
  6
CONTINUOUS
 62
     7
 10
47.0285029641
 20
62.007361328
 30
0.0
  0
VERTEX
  5
280
  8
VISIBLE
  6
CONTINUOUS
 62
     7
 10
47.0179470616
 20
62.0074538164
 30
0.0
  0
VERTEX
  5
281
  8
VISIBLE
  6
CONTINUOUS
 62
     7
 10
47.007345642
 20
62.0073428221
 30
0.0
  0
SEQEND
  5
282
  8
VISIBLE
  6
CONTINUOUS
 62
     7
  0
ARC
  5
B9
  8
VISIBLE
  6
CONTINUOUS
 62
     7
 10
47.0039597705
 20
96.7613948548
 30
0.0
 40
0.4536327365926948
 50
270.4276542093
 51
1.8903183888
  0
LINE
  5
BA
  8
VISIBLE
  6
CONTINUOUS
 62
     7
 10
56.052345642
 20
63.539686327
 30
0.0
 11
100.873944622
 21
69.9427700164
 31
0.0
  0
LINE
  5
BB
  8
VISIBLE
  6
CONTINUOUS
 62
     7
 10
100.873944622
 20
88.5691026376
 30
0.0
 11
56.052345642
 21
94.972186327
 31
0.0
  0
LINE
  5
BC
  8
VISIBLE
  6
CONTINUOUS
 62
     7
 10
55.062345642
 20
63.539686327
 30
0.0
 11
56.052345642
 21
63.539686327
 31
0.0
  0
LINE
  5
BD
  8
VISIBLE
  6
CONTINUOUS
 62
     7
 10
56.052345642
 20
94.972186327
 30
0.0
 11
55.062345642
 21
94.972186327
 31
0.0
  0
LINE
  5
BE
  8
HIDDEN
  6
HIDDEN2
 62
     7
 10
96.664845642
 20
73.630936327
 30
0.0
 11
101.0604227786
 21
73.630936327
 31
0.0
  0
LINE
  5
BF
  8
HIDDEN
  6
HIDDEN2
 62
     7
 10
101.0604227786
 20
84.880936327
 30
0.0
 11
96.664845642
 21
84.880936327
 31
0.0
  0
LINE
  5
C0
  8
HIDDEN
  6
HIDDEN2
 62
     7
 10
96.664845642
 20
84.880936327
 30
0.0
 11
96.0905430623
 21
83.925136327
 31
0.0
  0
LINE
  5
C1
  8
HIDDEN
  6
HIDDEN2
 62
     7
 10
96.0905430623
 20
74.586736327
 30
0.0
 11
96.664845642
 21
73.630936327
 31
0.0
  0
LINE
  5
C2
  8
HIDDEN
  6
HIDDEN2
 62
     7
 10
72.589845642
 20
74.586736327
 30
0.0
 11
96.0905430623
 21
74.586736327
 31
0.0
  0
LINE
  5
C3
  8
HIDDEN
  6
HIDDEN2
 62
     7
 10
96.0905430623
 20
83.925136327
 30
0.0
 11
72.589845642
 21
83.925136327
 31
0.0
  0
LINE
  5
C4
  8
HIDDEN
  6
HIDDEN2
 62
     7
 10
72.589845642
 20
83.925136327
 30
0.0
 11
71.1505741582
 21
81.529786327
 31
0.0
  0
LINE
  5
C5
  8
0
  6
HIDDEN2
 62
     7
 10
71.1505741582
 20
76.982086327
 30
0.0
 11
72.589845642
 21
74.586736327
 31
0.0
  0
LINE
  5
C6
  8
0
  6
HIDDEN2
 62
     7
 10
101.839845642
 20
85.330936327
 30
0.0
 11
101.0604227786
 21
84.880936327
 31
0.0
  0
LINE
  5
C7
  8
0
  6
HIDDEN2
 62
     7
 10
101.0604227786
 20
73.630936327
 30
0.0
 11
101.839845642
 21
73.180936327
 31
0.0
  0
ARC
  5
C8
  8
VISIBLE
  6
CONTINUOUS
 62
     7
 10
100.714845642
 20
87.4554094507
 30
0.0
 40
1.125000000000001
 50
0.0
 51
81.8699
  0
ARC
  5
C9
  8
VISIBLE
  6
CONTINUOUS
 62
     7
 10
100.714845642
 20
71.0564632033
 30
0.0
 40
1.125
 50
278.1301
 51
0.0
  0
ARC
  5
CA
  8
VISIBLE
  6
CONTINUOUS
 62
     7
 10
55.062345642
 20
95.422186327
 30
0.0
 40
0.4500000000000004
 50
205.1220349258
 51
270.0
  0
ARC
  5
CB
  8
VISIBLE
  6
CONTINUOUS
 62
     7
 10
55.062345642
 20
63.089686327
 30
0.0
 40
0.4500000000000003
 50
90.0
 51
180.0
  0
LINE
  5
CC
  8
VISIBLE
  6
CONTINUOUS
 62
     7
 10
40.752345642
 20
61.255936327
 30
0.0
 11
41.6774157842
 21
61.255936327
 31
0.0
  0
LINE
  5
CD
  8
VISIBLE
  6
CONTINUOUS
 62
     7
 10
41.674845642
 20
97.255936327
 30
0.0
 11
40.752345642
 21
97.255936327
 31
0.0
  0
LINE
  5
CE
  8
VISIBLE
  6
CONTINUOUS
 62
     7
 10
39.852345642
 20
60.130936327
 30
0.0
 11
40.302345642
 21
60.580936327
 31
0.0
  0
LINE
  5
CF
  8
VISIBLE
  6
CONTINUOUS
 62
     7
 10
40.302345642
 20
97.930936327
 30
0.0
 11
39.852345642
 21
98.380936327
 31
0.0
  0
LINE
  5
D0
  8
VISIBLE
  6
CONTINUOUS
 62
     7
 10
29.502345642
 20
60.130936327
 30
0.0
 11
39.852345642
 21
60.130936327
 31
0.0
  0
LINE
  5
D1
  8
VISIBLE
  6
CONTINUOUS
 62
     7
 10
39.852345642
 20
98.380936327
 30
0.0
 11
29.502345642
 21
98.380936327
 31
0.0
  0
LINE
  5
D2
  8
VISIBLE
  6
CONTINUOUS
 62
     7
 10
29.502345642
 20
98.380936327
 30
0.0
 11
29.052345642
 21
97.930936327
 31
0.0
  0
LINE
  5
D3
  8
VISIBLE
  6
CONTINUOUS
 62
     7
 10
29.052345642
 20
60.580936327
 30
0.0
 11
29.502345642
 21
60.130936327
 31
0.0
  0
LINE
  5
D4
  8
0
  6
HIDDEN2
 62
     7
 10
39.6408460408
 20
68.23095406
 30
0.0
 11
54.5296310076
 21
70.323436327
 31
0.0
  0
LINE
  5
D5
  8
0
  6
HIDDEN2
 62
     7
 10
54.5296310076
 20
88.188436327
 30
0.0
 11
39.6408460408
 21
90.2809185939
 31
0.0
  0
LINE
  5
D6
  8
0
  6
HIDDEN2
 62
     7
 10
54.5296310076
 20
70.323436327
 30
0.0
 11
54.6319610693
 21
70.323436327
 31
0.0
  0
LINE
  5
D7
  8
0
  6
HIDDEN2
 62
     7
 10
54.787845642
 20
88.278436327
 30
0.0
 11
54.6319610693
 21
88.188436327
 31
0.0
  0
LINE
  5
D8
  8
0
  6
HIDDEN2
 62
     7
 10
54.6319610693
 20
70.323436327
 30
0.0
 11
54.787845642
 21
70.233436327
 31
0.0
  0
LINE
  5
D9
  8
0
  6
HIDDEN2
 62
     7
 10
55.462845642
 20
70.233436327
 30
0.0
 11
55.5476788386
 21
70.4665136189
 31
0.0
  0
LINE
  5
DA
  8
0
  6
HIDDEN2
 62
     7
 10
55.5476788386
 20
88.0453590351
 30
0.0
 11
55.462845642
 21
88.278436327
 31
0.0
  0
LINE
  5
DB
  8
0
  6
HIDDEN2
 62
     7
 10
55.5476788386
 20
70.4665136189
 30
0.0
 11
58.852218114
 21
70.930936327
 31
0.0
  0
LINE
  5
DC
  8
HIDDEN
  6
HIDDEN2
 62
     7
 10
58.852218114
 20
70.930936327
 30
0.0
 11
62.352345642
 21
70.930936327
 31
0.0
  0
LINE
  5
DD
  8
HIDDEN
  6
HIDDEN2
 62
     7
 10
62.352345642
 20
87.580936327
 30
0.0
 11
58.852218114
 21
87.580936327
 31
0.0
  0
LINE
  5
DE
  8
0
  6
HIDDEN2
 62
     7
 10
54.6319610693
 20
88.188436327
 30
0.0
 11
54.5296310076
 21
88.188436327
 31
0.0
  0
LINE
  5
DF
  8
0
  6
HIDDEN2
 62
     7
 10
58.852218114
 20
87.580936327
 30
0.0
 11
55.5476788386
 21
88.0453590351
 31
0.0
  0
LINE
  5
E0
  8
0
  6
HIDDEN2
 62
     7
 10
37.152345642
 20
63.910936327
 30
0.0
 11
37.962345642
 21
63.910936327
 31
0.0
  0
LINE
  5
E1
  8
HIDDEN
  6
HIDDEN2
 62
     7
 10
37.962345642
 20
94.600936327
 30
0.0
 11
37.152345642
 21
94.600936327
 31
0.0
  0
ARC
  5
E2
  8
0
  6
HIDDEN2
 62
     7
 10
37.962345642
 20
64.450936327
 30
0.0
 40
0.5399999999999999
 50
270.0
 51
0.0
  0
ARC
  5
E3
  8
0
  6
HIDDEN2
 62
     7
 10
37.962345642
 20
94.060936327
 30
0.0
 40
0.5400000000000029
 50
0.0
 51
90.0
  0
LINE
  5
E4
  8
0
  6
HIDDEN2
 62
     7
 10
38.502345642
 20
66.259013525
 30
0.0
 11
39.6408460408
 21
68.23095406
 31
0.0
  0
LINE
  5
E5
  8
0
  6
HIDDEN2
 62
     7
 10
39.6408460408
 20
90.2809185939
 30
0.0
 11
38.502345642
 21
92.252859129
 31
0.0
  0
LINE
  5
E6
  8
0
  6
HIDDEN2
 62
     7
 10
54.787845642
 20
70.233436327
 30
0.0
 11
55.462845642
 21
70.233436327
 31
0.0
  0
LINE
  5
E7
  8
0
  6
HIDDEN2
 62
     7
 10
55.462845642
 20
88.278436327
 30
0.0
 11
54.787845642
 21
88.278436327
 31
0.0
  0
LINE
  5
E8
  8
0
  6
HIDDEN2
 62
     7
 10
62.352345642
 20
71.155936327
 30
0.0
 11
65.8530497376
 21
76.982086327
 31
0.0
  0
LINE
  5
E9
  8
0
  6
HIDDEN2
 62
     7
 10
65.8530497376
 20
81.529786327
 30
0.0
 11
62.352345642
 21
87.355936327
 31
0.0
  0
LINE
  5
EA
  8
0
  6
HIDDEN2
 62
     7
 10
71.1505741582
 20
81.529786327
 30
0.0
 11
65.8530497376
 21
81.529786327
 31
0.0
  0
LINE
  5
EB
  8
0
  6
HIDDEN2
 62
     7
 10
65.8530497376
 20
76.982086327
 30
0.0
 11
71.1505741582
 21
76.982086327
 31
0.0
  0
ARC
  5
EC
  8
VISIBLE
  6
CONTINUOUS
 62
     7
 10
40.752345642
 20
60.805936327
 30
0.0
 40
0.4500000000000003
 50
90.0
 51
180.0
  0
ARC
  5
ED
  8
VISIBLE
  6
CONTINUOUS
 62
     7
 10
40.752345642
 20
97.705936327
 30
0.0
 40
0.4500000000000004
 50
180.0
 51
270.0
  0
LINE
  5
EE
  8
HIDDEN
  6
HIDDEN2
 62
     7
 10
96.5296520027
 20
73.855936327
 30
0.0
 11
80.239845642
 21
73.855936327
 31
0.0
  0
LINE
  5
EF
  8
HIDDEN
  6
HIDDEN2
 62
     7
 10
96.5296520027
 20
84.655936327
 30
0.0
 11
80.239845642
 21
84.655936327
 31
0.0
  0
LINE
  5
F0
  8
HIDDEN
  6
HIDDEN2
 62
     7
 10
80.239845642
 20
84.655936327
 30
0.0
 11
80.239845642
 21
73.855936327
 31
0.0
  0
LINE
  5
F1
  8
0
  6
HIDDEN2
 62
     7
 10
29.0783264041
 20
94.555936327
 30
0.0
 11
37.0744033557
 21
94.555936327
 31
0.0
  0
LINE
  5
F2
  8
0
  6
HIDDEN2
 62
     7
 10
29.0783264041
 20
63.955936327
 30
0.0
 11
37.0744033557
 21
63.955936327
 31
0.0
  0
LINE
  5
F3
  8
VISIBLE
  6
CONTINUOUS
 62
     7
 10
25.002345642
 20
90.6699696706
 30
0.0
 11
25.002345642
 21
92.4699696706
 31
0.0
  0
LINE
  5
F4
  8
VISIBLE
  6
CONTINUOUS
 62
     7
 10
25.002345642
 20
92.4699696706
 30
0.0
 11
25.002345642
 21
93.588436327
 31
0.0
  0
LINE
  5
F5
  8
VISIBLE
  6
CONTINUOUS
 62
     7
 10
21.402345642
 20
92.0682025774
 30
0.0
 11
21.402345642
 21
93.138999179
 31
0.0
  0
LINE
  5
F6
  8
VISIBLE
  6
CONTINUOUS
 62
     7
 10
21.6965147571
 20
92.3344185677
 30
0.0
 11
21.402345642
 21
92.0682025774
 31
0.0
  0
LINE
  5
F7
  8
VISIBLE
  6
CONTINUOUS
 62
     7
 10
21.402345642
 20
90.282020769
 30
0.0
 11
21.402345642
 21
92.0682025774
 31
0.0
  0
LINE
  5
F8
  8
VISIBLE
  6
CONTINUOUS
 62
     7
 10
21.402345642
 20
90.2922909114
 30
0.0
 11
21.6965147571
 21
90.5344185677
 31
0.0
  0
LINE
  5
F9
  8
VISIBLE
  6
CONTINUOUS
 62
     7
 10
25.002345642
 20
92.4699696706
 30
0.0
 11
21.85178279
 21
92.4699696706
 31
0.0
  0
LINE
  5
FA
  8
VISIBLE
  6
CONTINUOUS
 62
     7
 10
21.85178279
 20
92.4699696706
 30
0.0
 11
21.6965147571
 21
92.3344185677
 31
0.0
  0
LINE
  5
FB
  8
VISIBLE
  6
CONTINUOUS
 62
     7
 10
21.6965147571
 20
90.5344185677
 30
0.0
 11
21.85178279
 21
90.6699696706
 31
0.0
  0
LINE
  5
FC
  8
VISIBLE
  6
CONTINUOUS
 62
     7
 10
21.85178279
 20
90.6699696706
 30
0.0
 11
25.002345642
 21
90.6699696706
 31
0.0
  0
LINE
  5
FD
  8
VISIBLE
  6
CONTINUOUS
 62
     7
 10
25.002345642
 20
77.455936327
 30
0.0
 11
25.002345642
 21
81.055936327
 31
0.0
  0
LINE
  5
FE
  8
VISIBLE
  6
CONTINUOUS
 62
     7
 10
25.002345642
 20
81.055936327
 30
0.0
 11
25.002345642
 21
90.6699696706
 31
0.0
  0
LINE
  5
FF
  8
VISIBLE
  6
CONTINUOUS
 62
     7
 10
21.402345642
 20
81.031847993
 30
0.0
 11
21.402345642
 21
90.2922909114
 31
0.0
  0
LINE
  5
100
  8
VISIBLE
  6
CONTINUOUS
 62
     7
 10
21.6965147571
 20
81.055936327
 30
0.0
 11
21.402345642
 21
81.031847993
 31
0.0
  0
LINE
  5
101
  8
VISIBLE
  6
CONTINUOUS
 62
     7
 10
21.402345642
 20
77.4800246609
 30
0.0
 11
21.402345642
 21
81.031847993
 31
0.0
  0
LINE
  5
102
  8
VISIBLE
  6
CONTINUOUS
 62
     7
 10
21.402345642
 20
77.4800246609
 30
0.0
 11
21.6965147571
 21
77.455936327
 31
0.0
  0
LINE
  5
103
  8
VISIBLE
  6
CONTINUOUS
 62
     7
 10
25.002345642
 20
81.055936327
 30
0.0
 11
21.85178279
 21
81.055936327
 31
0.0
  0
LINE
  5
104
  8
VISIBLE
  6
CONTINUOUS
 62
     7
 10
21.85178279
 20
81.055936327
 30
0.0
 11
21.6965147571
 21
81.055936327
 31
0.0
  0
LINE
  5
105
  8
VISIBLE
  6
CONTINUOUS
 62
     7
 10
21.6965147571
 20
77.455936327
 30
0.0
 11
21.85178279
 21
77.455936327
 31
0.0
  0
LINE
  5
106
  8
VISIBLE
  6
CONTINUOUS
 62
     7
 10
21.85178279
 20
77.455936327
 30
0.0
 11
25.002345642
 21
77.455936327
 31
0.0
  0
LINE
  5
107
  8
VISIBLE
  6
CONTINUOUS
 62
     7
 10
25.002345642
 20
66.0419029834
 30
0.0
 11
25.002345642
 21
67.8419029834
 31
0.0
  0
LINE
  5
108
  8
VISIBLE
  6
CONTINUOUS
 62
     7
 10
25.002345642
 20
67.8419029834
 30
0.0
 11
25.002345642
 21
77.455936327
 31
0.0
  0
LINE
  5
109
  8
VISIBLE
  6
CONTINUOUS
 62
     7
 10
21.402345642
 20
68.2195817426
 30
0.0
 11
21.402345642
 21
77.4800246609
 31
0.0
  0
LINE
  5
10A
  8
VISIBLE
  6
CONTINUOUS
 62
     7
 10
21.6965147571
 20
67.9774540863
 30
0.0
 11
21.402345642
 21
68.2195817426
 31
0.0
  0
LINE
  5
10B
  8
VISIBLE
  6
CONTINUOUS
 62
     7
 10
21.402345642
 20
66.4436700766
 30
0.0
 11
21.402345642
 21
68.2252317288
 31
0.0
  0
LINE
  5
10C
  8
VISIBLE
  6
CONTINUOUS
 62
     7
 10
21.402345642
 20
66.4436700766
 30
0.0
 11
21.6965147571
 21
66.1774540863
 31
0.0
  0
LINE
  5
10D
  8
VISIBLE
  6
CONTINUOUS
 62
     7
 10
25.002345642
 20
67.8419029834
 30
0.0
 11
21.85178279
 21
67.8419029834
 31
0.0
  0
LINE
  5
10E
  8
VISIBLE
  6
CONTINUOUS
 62
     7
 10
21.85178279
 20
67.8419029834
 30
0.0
 11
21.6965147571
 21
67.9774540863
 31
0.0
  0
LINE
  5
10F
  8
VISIBLE
  6
CONTINUOUS
 62
     7
 10
21.6965147571
 20
66.1774540863
 30
0.0
 11
21.85178279
 21
66.0419029834
 31
0.0
  0
LINE
  5
110
  8
VISIBLE
  6
CONTINUOUS
 62
     7
 10
21.85178279
 20
66.0419029834
 30
0.0
 11
25.002345642
 21
66.0419029834
 31
0.0
  0
LINE
  5
111
  8
VISIBLE
  6
CONTINUOUS
 62
     7
 10
25.002345642
 20
64.923436327
 30
0.0
 11
25.002345642
 21
66.0419029834
 31
0.0
  0
LINE
  5
112
  8
VISIBLE
  6
CONTINUOUS
 62
     7
 10
21.402345642
 20
65.372873475
 30
0.0
 11
21.402345642
 21
66.4436700766
 31
0.0
  0
LINE
  5
113
  8
VISIBLE
  6
CONTINUOUS
 62
     7
 10
25.969845642
 20
94.555936327
 30
0.0
 11
25.002345642
 21
93.588436327
 31
0.0
  0
LINE
  5
114
  8
VISIBLE
  6
CONTINUOUS
 62
     7
 10
25.002345642
 20
64.923436327
 30
0.0
 11
25.969845642
 21
63.955936327
 31
0.0
  0
LINE
  5
115
  8
VISIBLE
  6
CONTINUOUS
 62
     7
 10
25.969845642
 20
63.955936327
 30
0.0
 11
29.052345642
 21
63.955936327
 31
0.0
  0
LINE
  5
116
  8
VISIBLE
  6
CONTINUOUS
 62
     7
 10
29.052345642
 20
94.555936327
 30
0.0
 11
25.969845642
 21
94.555936327
 31
0.0
  0
LINE
  5
117
  8
VISIBLE
  6
CONTINUOUS
 62
     7
 10
21.85178279
 20
93.588436327
 30
0.0
 11
21.402345642
 21
93.138999179
 31
0.0
  0
LINE
  5
118
  8
VISIBLE
  6
CONTINUOUS
 62
     7
 10
25.002345642
 20
93.588436327
 30
0.0
 11
21.85178279
 21
93.588436327
 31
0.0
  0
LINE
  5
119
  8
VISIBLE
  6
CONTINUOUS
 62
     7
 10
21.402345642
 20
65.372873475
 30
0.0
 11
21.85178279
 21
64.923436327
 31
0.0
  0
LINE
  5
11A
  8
VISIBLE
  6
CONTINUOUS
 62
     7
 10
21.85178279
 20
64.923436327
 30
0.0
 11
25.002345642
 21
64.923436327
 31
0.0
  0
LINE
  5
11D
  8
STANDARD
  6
DASHDOT2
 62
     7
 10
102.7145135286
 20
79.255936327
 30
0.0
 11
20.4626923527
 21
79.255936327
 31
0.0
  0
ENDBLK
  5
11F
  8
0
  0
BLOCK
  8
0
  2
SE1
 70
     0
 10
0.0
 20
0.0
 30
0.0
  3
SE1
  1

  0
ARC
  5
122
  8
VISIBLE
  6
CONTINUOUS
 62
     7
 10
141.9929331466
 20
79.255936327
 30
0.0
 40
21.93750000000001
 50
285.2831719632
 51
307.9798724449
  0
CIRCLE
  5
123
  8
0
  6
HIDDEN2
 62
     7
 10
141.9929331466
 20
79.255936327
 30
0.0
 40
15.71625
  0
LINE
  5
124
  8
0
  6
HIDDEN2
 62
     7
 10
147.7754331466
 20
61.390936327
 30
0.0
 11
147.7754331466
 21
61.0260619788
 31
0.0
  0
LINE
  5
125
  8
VISIBLE
  6
CONTINUOUS
 62
     7
 10
147.7754331466
 20
61.0260619788
 30
0.0
 11
147.7754331466
 21
58.0942586997
 31
0.0
  0
LINE
  5
126
  8
0
  6
HIDDEN2
 62
     7
 10
146.8754331466
 20
62.290936327
 30
0.0
 11
147.5147514435
 21
61.6516180301
 31
0.0
  0
LINE
  5
127
  8
0
  6
HIDDEN2
 62
     7
 10
136.2104331466
 20
61.390936327
 30
0.0
 11
136.4711148498
 21
61.6516180301
 31
0.0
  0
LINE
  5
128
  8
VISIBLE
  6
CONTINUOUS
 62
     7
 10
136.2104331466
 20
58.0942586997
 30
0.0
 11
136.2104331466
 21
61.0260619788
 31
0.0
  0
LINE
  5
129
  8
0
  6
HIDDEN2
 62
     7
 10
136.2104331466
 20
61.0260619788
 30
0.0
 11
136.2104331466
 21
61.390936327
 31
0.0
  0
ARC
  5
12A
  8
VISIBLE
  6
CONTINUOUS
 62
     7
 10
141.9929331466
 20
79.255936327
 30
0.0
 40
21.9375
 50
105.2831719632
 51
254.7168280368
  0
LINE
  5
12B
  8
0
  6
HIDDEN2
 62
     7
 10
136.2104331466
 20
96.130936327
 30
0.0
 11
136.2104331466
 21
96.776358518
 31
0.0
  0
LINE
  5
12C
  8
0
  6
HIDDEN2
 62
     7
 10
137.1104331466
 20
95.230936327
 30
0.0
 11
136.2104331466
 21
96.130936327
 31
0.0
  0
LINE
  5
12D
  8
0
  6
HIDDEN2
 62
     7
 10
147.7754331466
 20
96.130936327
 30
0.0
 11
146.8754331466
 21
95.230936327
 31
0.0
  0
LINE
  5
12E
  8
VISIBLE
  6
CONTINUOUS
 62
     7
 10
147.7754331466
 20
100.4176139543
 30
0.0
 11
147.7754331466
 21
97.4858106752
 31
0.0
  0
LINE
  5
12F
  8
HIDDEN
  6
HIDDEN2
 62
     7
 10
147.7754331466
 20
97.4858106752
 30
0.0
 11
147.7754331466
 21
96.776358518
 31
0.0
  0
ARC
  5
130
  8
VISIBLE
  6
CONTINUOUS
 62
     7
 10
141.9929331466
 20
79.255936327
 30
0.0
 40
21.9375
 50
322.0201275551
 51
74.7168280368
  0
LINE
  5
131
  8
VISIBLE
  6
CONTINUOUS
 62
     7
 10
155.4929331466
 20
65.7091424259
 30
0.0
 11
155.4929331466
 21
61.9642069094
 31
0.0
  0
LINE
  5
132
  8
VISIBLE
  6
CONTINUOUS
 62
     7
 10
159.2846625642
 20
65.755936327
 30
0.0
 11
155.5397270478
 21
65.755936327
 31
0.0
  0
LINE
  5
133
  8
0
  6
HIDDEN2
 62
     7
 10
137.1104331466
 20
62.290936327
 30
0.0
 11
136.4711148498
 21
61.6516180301
 31
0.0
  0
LINE
  5
134
  8
HIDDEN
  6
HIDDEN2
 62
     7
 10
147.7754331466
 20
96.130936327
 30
0.0
 11
147.7754331466
 21
96.776358518
 31
0.0
  0
CIRCLE
  5
135
  8
VISIBLE
  6
CONTINUOUS
 62
     7
 10
141.9929331466
 20
79.255936327
 30
0.0
 40
19.125
  0
CIRCLE
  5
136
  8
VISIBLE
  6
CONTINUOUS
 62
     7
 10
141.9929331466
 20
79.255936327
 30
0.0
 40
15.345
  0
LINE
  5
137
  8
0
  6
HIDDEN2
 62
     7
 10
137.1104331466
 20
95.230936327
 30
0.0
 11
146.8754331466
 21
95.230936327
 31
0.0
  0
LINE
  5
138
  8
0
  6
HIDDEN2
 62
     7
 10
146.8754331466
 20
62.290936327
 30
0.0
 11
137.1104331466
 21
62.290936327
 31
0.0
  0
LINE
  5
139
  8
HIDDEN
  6
HIDDEN2
 62
     7
 10
136.2104331466
 20
96.776358518
 30
0.0
 11
136.2104331466
 21
97.4858106752
 31
0.0
  0
LINE
  5
13A
  8
VISIBLE
  6
CONTINUOUS
 62
     7
 10
136.2104331466
 20
97.4858106752
 30
0.0
 11
136.2104331466
 21
100.4176139543
 31
0.0
  0
POLYLINE
  5
13B
  8
HIDDEN
  6
HIDDEN2
 62
     7
 66
     1
 10
0.0
 20
0.0
 30
0.0
  0
VERTEX
  5
283
  8
HIDDEN
  6
HIDDEN2
 62
     7
 10
136.2104331466
 20
96.776358518
 30
0.0
  0
VERTEX
  5
284
  8
HIDDEN
  6
HIDDEN2
 62
     7
 10
136.2104328983
 20
96.7662203279
 30
0.0
  0
VERTEX
  5
285
  8
HIDDEN
  6
HIDDEN2
 62
     7
 10
136.2104322785
 20
96.7561078661
 30
0.0
  0
VERTEX
  5
286
  8
HIDDEN
  6
HIDDEN2
 62
     7
 10
136.210431475
 20
96.7460228704
 30
0.0
  0
VERTEX
  5
287
  8
HIDDEN
  6
HIDDEN2
 62
     7
 10
136.2104306755
 20
96.7359670787
 30
0.0
  0
VERTEX
  5
288
  8
HIDDEN
  6
HIDDEN2
 62
     7
 10
136.2104300677
 20
96.7259422289
 30
0.0
  0
VERTEX
  5
289
  8
HIDDEN
  6
HIDDEN2
 62
     7
 10
136.2104298393
 20
96.7159500588
 30
0.0
  0
VERTEX
  5
28A
  8
HIDDEN
  6
HIDDEN2
 62
     7
 10
136.2104301781
 20
96.7059923062
 30
0.0
  0
VERTEX
  5
28B
  8
HIDDEN
  6
HIDDEN2
 62
     7
 10
136.2104312719
 20
96.6960707092
 30
0.0
  0
VERTEX
  5
28C
  8
HIDDEN
  6
HIDDEN2
 62
     7
 10
136.2104333082
 20
96.6861870055
 30
0.0
  0
VERTEX
  5
28D
  8
HIDDEN
  6
HIDDEN2
 62
     7
 10
136.210436475
 20
96.676342933
 30
0.0
  0
VERTEX
  5
28E
  8
HIDDEN
  6
HIDDEN2
 62
     7
 10
136.2104409598
 20
96.6665402296
 30
0.0
  0
VERTEX
  5
28F
  8
HIDDEN
  6
HIDDEN2
 62
     7
 10
136.2104469505
 20
96.6567806332
 30
0.0
  0
VERTEX
  5
290
  8
HIDDEN
  6
HIDDEN2
 62
     7
 10
136.2104546347
 20
96.6470658816
 30
0.0
  0
VERTEX
  5
291
  8
HIDDEN
  6
HIDDEN2
 62
     7
 10
136.2104642002
 20
96.6373977128
 30
0.0
  0
VERTEX
  5
292
  8
HIDDEN
  6
HIDDEN2
 62
     7
 10
136.2104758348
 20
96.6277778645
 30
0.0
  0
VERTEX
  5
293
  8
HIDDEN
  6
HIDDEN2
 62
     7
 10
136.2104897261
 20
96.6182080747
 30
0.0
  0
VERTEX
  5
294
  8
HIDDEN
  6
HIDDEN2
 62
     7
 10
136.2105060618
 20
96.6086900812
 30
0.0
  0
VERTEX
  5
295
  8
HIDDEN
  6
HIDDEN2
 62
     7
 10
136.2105250298
 20
96.5992256219
 30
0.0
  0
VERTEX
  5
296
  8
HIDDEN
  6
HIDDEN2
 62
     7
 10
136.2105469457
 20
96.5898313373
 30
0.0
  0
VERTEX
  5
297
  8
HIDDEN
  6
HIDDEN2
 62
     7
 10
136.2105723154
 20
96.5805249204
 30
0.0
  0
VERTEX
  5
298
  8
HIDDEN
  6
HIDDEN2
 62
     7
 10
136.2106016118
 20
96.5713096875
 30
0.0
  0
VERTEX
  5
299
  8
HIDDEN
  6
HIDDEN2
 62
     7
 10
136.210635308
 20
96.5621889549
 30
0.0
  0
VERTEX
  5
29A
  8
HIDDEN
  6
HIDDEN2
 62
     7
 10
136.2106738769
 20
96.5531660391
 30
0.0
  0
VERTEX
  5
29B
  8
HIDDEN
  6
HIDDEN2
 62
     7
 10
136.2107177915
 20
96.5442442564
 30
0.0
  0
VERTEX
  5
29C
  8
HIDDEN
  6
HIDDEN2
 62
     7
 10
136.2107675249
 20
96.5354269231
 30
0.0
  0
VERTEX
  5
29D
  8
HIDDEN
  6
HIDDEN2
 62
     7
 10
136.2108235499
 20
96.5267173556
 30
0.0
  0
VERTEX
  5
29E
  8
HIDDEN
  6
HIDDEN2
 62
     7
 10
136.2108863396
 20
96.5181188704
 30
0.0
  0
VERTEX
  5
29F
  8
HIDDEN
  6
HIDDEN2
 62
     7
 10
136.2109563669
 20
96.5096347836
 30
0.0
  0
VERTEX
  5
2A0
  8
HIDDEN
  6
HIDDEN2
 62
     7
 10
136.2110341049
 20
96.5012684118
 30
0.0
  0
VERTEX
  5
2A1
  8
HIDDEN
  6
HIDDEN2
 62
     7
 10
136.2111200266
 20
96.4930230713
 30
0.0
  0
VERTEX
  5
2A2
  8
HIDDEN
  6
HIDDEN2
 62
     7
 10
136.2112146048
 20
96.4849020784
 30
0.0
  0
VERTEX
  5
2A3
  8
HIDDEN
  6
HIDDEN2
 62
     7
 10
136.2113183126
 20
96.4769087495
 30
0.0
  0
VERTEX
  5
2A4
  8
HIDDEN
  6
HIDDEN2
 62
     7
 10
136.211431623
 20
96.469046401
 30
0.0
  0
VERTEX
  5
2A5
  8
HIDDEN
  6
HIDDEN2
 62
     7
 10
136.2115550089
 20
96.4613183492
 30
0.0
  0
VERTEX
  5
2A6
  8
HIDDEN
  6
HIDDEN2
 62
     7
 10
136.2116889434
 20
96.4537279105
 30
0.0
  0
VERTEX
  5
2A7
  8
HIDDEN
  6
HIDDEN2
 62
     7
 10
136.2118338995
 20
96.4462784013
 30
0.0
  0
VERTEX
  5
2A8
  8
HIDDEN
  6
HIDDEN2
 62
     7
 10
136.2119906392
 20
96.4389777978
 30
0.0
  0
VERTEX
  5
2A9
  8
HIDDEN
  6
HIDDEN2
 62
     7
 10
136.2121598845
 20
96.4318344522
 30
0.0
  0
VERTEX
  5
2AA
  8
HIDDEN
  6
HIDDEN2
 62
     7
 10
136.2123420478
 20
96.4248522448
 30
0.0
  0
VERTEX
  5
2AB
  8
HIDDEN
  6
HIDDEN2
 62
     7
 10
136.2125375414
 20
96.4180350557
 30
0.0
  0
VERTEX
  5
2AC
  8
HIDDEN
  6
HIDDEN2
 62
     7
 10
136.2127467777
 20
96.4113867654
 30
0.0
  0
VERTEX
  5
2AD
  8
HIDDEN
  6
HIDDEN2
 62
     7
 10
136.212970169
 20
96.4049112539
 30
0.0
  0
VERTEX
  5
2AE
  8
HIDDEN
  6
HIDDEN2
 62
     7
 10
136.2132081279
 20
96.3986124017
 30
0.0
  0
VERTEX
  5
2AF
  8
HIDDEN
  6
HIDDEN2
 62
     7
 10
136.2134610667
 20
96.3924940888
 30
0.0
  0
VERTEX
  5
2B0
  8
HIDDEN
  6
HIDDEN2
 62
     7
 10
136.2137293978
 20
96.3865601957
 30
0.0
  0
VERTEX
  5
2B1
  8
HIDDEN
  6
HIDDEN2
 62
     7
 10
136.2140135335
 20
96.3808146024
 30
0.0
  0
VERTEX
  5
2B2
  8
HIDDEN
  6
HIDDEN2
 62
     7
 10
136.2143138862
 20
96.3752611894
 30
0.0
  0
VERTEX
  5
2B3
  8
HIDDEN
  6
HIDDEN2
 62
     7
 10
136.2146308685
 20
96.3699038368
 30
0.0
  0
VERTEX
  5
2B4
  8
HIDDEN
  6
HIDDEN2
 62
     7
 10
136.2149648925
 20
96.364746425
 30
0.0
  0
VERTEX
  5
2B5
  8
HIDDEN
  6
HIDDEN2
 62
     7
 10
136.2153163708
 20
96.359792834
 30
0.0
  0
VERTEX
  5
2B6
  8
HIDDEN
  6
HIDDEN2
 62
     7
 10
136.2156857156
 20
96.3550469443
 30
0.0
  0
VERTEX
  5
2B7
  8
HIDDEN
  6
HIDDEN2
 62
     7
 10
136.2160733395
 20
96.3505126361
 30
0.0
  0
VERTEX
  5
2B8
  8
HIDDEN
  6
HIDDEN2
 62
     7
 10
136.2164796548
 20
96.3461937895
 30
0.0
  0
VERTEX
  5
2B9
  8
HIDDEN
  6
HIDDEN2
 62
     7
 10
136.2169050739
 20
96.342094285
 30
0.0
  0
VERTEX
  5
2BA
  8
HIDDEN
  6
HIDDEN2
 62
     7
 10
136.2173503193
 20
96.3382165663
 30
0.0
  0
VERTEX
  5
2BB
  8
HIDDEN
  6
HIDDEN2
 62
     7
 10
136.2178158011
 20
96.3345616293
 30
0.0
  0
VERTEX
  5
2BC
  8
HIDDEN
  6
HIDDEN2
 62
     7
 10
136.2183014626
 20
96.331131182
 30
0.0
  0
VERTEX
  5
2BD
  8
HIDDEN
  6
HIDDEN2
 62
     7
 10
136.2188072473
 20
96.3279269326
 30
0.0
  0
VERTEX
  5
2BE
  8
HIDDEN
  6
HIDDEN2
 62
     7
 10
136.2193330985
 20
96.3249505891
 30
0.0
  0
VERTEX
  5
2BF
  8
HIDDEN
  6
HIDDEN2
 62
     7
 10
136.2198789596
 20
96.3222038598
 30
0.0
  0
VERTEX
  5
2C0
  8
HIDDEN
  6
HIDDEN2
 62
     7
 10
136.220444774
 20
96.3196884525
 30
0.0
  0
VERTEX
  5
2C1
  8
HIDDEN
  6
HIDDEN2
 62
     7
 10
136.2210304852
 20
96.3174060756
 30
0.0
  0
VERTEX
  5
2C2
  8
HIDDEN
  6
HIDDEN2
 62
     7
 10
136.2216360365
 20
96.3153584371
 30
0.0
  0
VERTEX
  5
2C3
  8
HIDDEN
  6
HIDDEN2
 62
     7
 10
136.2222613714
 20
96.313547245
 30
0.0
  0
VERTEX
  5
2C4
  8
HIDDEN
  6
HIDDEN2
 62
     7
 10
136.2229064332
 20
96.3119742075
 30
0.0
  0
VERTEX
  5
2C5
  8
HIDDEN
  6
HIDDEN2
 62
     7
 10
136.2235711652
 20
96.3106410327
 30
0.0
  0
VERTEX
  5
2C6
  8
HIDDEN
  6
HIDDEN2
 62
     7
 10
136.2242555111
 20
96.3095494287
 30
0.0
  0
VERTEX
  5
2C7
  8
HIDDEN
  6
HIDDEN2
 62
     7
 10
136.224959414
 20
96.3087011036
 30
0.0
  0
VERTEX
  5
2C8
  8
HIDDEN
  6
HIDDEN2
 62
     7
 10
136.2256828175
 20
96.3080977655
 30
0.0
  0
VERTEX
  5
2C9
  8
HIDDEN
  6
HIDDEN2
 62
     7
 10
136.2264256649
 20
96.3077411225
 30
0.0
  0
VERTEX
  5
2CA
  8
HIDDEN
  6
HIDDEN2
 62
     7
 10
136.2271878996
 20
96.3076328827
 30
0.0
  0
VERTEX
  5
2CB
  8
HIDDEN
  6
HIDDEN2
 62
     7
 10
136.227969465
 20
96.3077747543
 30
0.0
  0
SEQEND
  5
2CC
  8
HIDDEN
  6
HIDDEN2
 62
     7
  0
LINE
  5
13C
  8
0
  6
HIDDEN2
 62
     7
 10
147.5147514435
 20
61.6516180301
 30
0.0
 11
147.7754331466
 21
61.390936327
 31
0.0
  0
POLYLINE
  5
13D
  8
HIDDEN
  6
HIDDEN2
 62
     7
 66
     1
 10
0.0
 20
0.0
 30
0.0
  0
VERTEX
  5
2CD
  8
HIDDEN
  6
HIDDEN2
 62
     7
 10
147.5147514435
 20
61.6516180301
 30
0.0
  0
VERTEX
  5
2CE
  8
HIDDEN
  6
HIDDEN2
 62
     7
 10
147.5072609045
 20
61.6591088275
 30
0.0
  0
VERTEX
  5
2CF
  8
HIDDEN
  6
HIDDEN2
 62
     7
 10
147.49979319
 20
61.666577191
 30
0.0
  0
VERTEX
  5
2D0
  8
HIDDEN
  6
HIDDEN2
 62
     7
 10
147.4923482492
 20
61.6740229827
 30
0.0
  0
VERTEX
  5
2D1
  8
HIDDEN
  6
HIDDEN2
 62
     7
 10
147.4849260314
 20
61.6814460642
 30
0.0
  0
VERTEX
  5
2D2
  8
HIDDEN
  6
HIDDEN2
 62
     7
 10
147.4775264858
 20
61.6888462976
 30
0.0
  0
VERTEX
  5
2D3
  8
HIDDEN
  6
HIDDEN2
 62
     7
 10
147.4701495616
 20
61.6962235447
 30
0.0
  0
VERTEX
  5
2D4
  8
HIDDEN
  6
HIDDEN2
 62
     7
 10
147.462795208
 20
61.7035776673
 30
0.0
  0
VERTEX
  5
2D5
  8
HIDDEN
  6
HIDDEN2
 62
     7
 10
147.4554633742
 20
61.7109085273
 30
0.0
  0
VERTEX
  5
2D6
  8
HIDDEN
  6
HIDDEN2
 62
     7
 10
147.4481540095
 20
61.7182159866
 30
0.0
  0
VERTEX
  5
2D7
  8
HIDDEN
  6
HIDDEN2
 62
     7
 10
147.4408670632
 20
61.7254999071
 30
0.0
  0
VERTEX
  5
2D8
  8
HIDDEN
  6
HIDDEN2
 62
     7
 10
147.4336024843
 20
61.7327601505
 30
0.0
  0
VERTEX
  5
2D9
  8
HIDDEN
  6
HIDDEN2
 62
     7
 10
147.4263602222
 20
61.7399965788
 30
0.0
  0
VERTEX
  5
2DA
  8
HIDDEN
  6
HIDDEN2
 62
     7
 10
147.419140226
 20
61.7472090539
 30
0.0
  0
VERTEX
  5
2DB
  8
HIDDEN
  6
HIDDEN2
 62
     7
 10
147.411942445
 20
61.7543974376
 30
0.0
  0
VERTEX
  5
2DC
  8
HIDDEN
  6
HIDDEN2
 62
     7
 10
147.4047668285
 20
61.7615615917
 30
0.0
  0
VERTEX
  5
2DD
  8
HIDDEN
  6
HIDDEN2
 62
     7
 10
147.3976133256
 20
61.7687013782
 30
0.0
  0
VERTEX
  5
2DE
  8
HIDDEN
  6
HIDDEN2
 62
     7
 10
147.3904818855
 20
61.7758166589
 30
0.0
  0
VERTEX
  5
2DF
  8
HIDDEN
  6
HIDDEN2
 62
     7
 10
147.3833724575
 20
61.7829072956
 30
0.0
  0
VERTEX
  5
2E0
  8
HIDDEN
  6
HIDDEN2
 62
     7
 10
147.3763074991
 20
61.7899506617
 30
0.0
  0
VERTEX
  5
2E1
  8
HIDDEN
  6
HIDDEN2
 62
     7
 10
147.3693096261
 20
61.7969237236
 30
0.0
  0
VERTEX
  5
2E2
  8
HIDDEN
  6
HIDDEN2
 62
     7
 10
147.3623790251
 20
61.8038257327
 30
0.0
  0
VERTEX
  5
2E3
  8
HIDDEN
  6
HIDDEN2
 62
     7
 10
147.3555158827
 20
61.8106559407
 30
0.0
  0
VERTEX
  5
2E4
  8
HIDDEN
  6
HIDDEN2
 62
     7
 10
147.3487203855
 20
61.817413599
 30
0.0
  0
VERTEX
  5
2E5
  8
HIDDEN
  6
HIDDEN2
 62
     7
 10
147.3419927202
 20
61.8240979593
 30
0.0
  0
VERTEX
  5
2E6
  8
HIDDEN
  6
HIDDEN2
 62
     7
 10
147.3353330732
 20
61.830708273
 30
0.0
  0
VERTEX
  5
2E7
  8
HIDDEN
  6
HIDDEN2
 62
     7
 10
147.3287416313
 20
61.8372437916
 30
0.0
  0
VERTEX
  5
2E8
  8
HIDDEN
  6
HIDDEN2
 62
     7
 10
147.322218581
 20
61.8437037668
 30
0.0
  0
VERTEX
  5
2E9
  8
HIDDEN
  6
HIDDEN2
 62
     7
 10
147.315764109
 20
61.8500874501
 30
0.0
  0
VERTEX
  5
2EA
  8
HIDDEN
  6
HIDDEN2
 62
     7
 10
147.3093784017
 20
61.8563940929
 30
0.0
  0
VERTEX
  5
2EB
  8
HIDDEN
  6
HIDDEN2
 62
     7
 10
147.303061646
 20
61.8626229469
 30
0.0
  0
VERTEX
  5
2EC
  8
HIDDEN
  6
HIDDEN2
 62
     7
 10
147.2968140282
 20
61.8687732636
 30
0.0
  0
VERTEX
  5
2ED
  8
HIDDEN
  6
HIDDEN2
 62
     7
 10
147.2906357352
 20
61.8748442945
 30
0.0
  0
VERTEX
  5
2EE
  8
HIDDEN
  6
HIDDEN2
 62
     7
 10
147.2845269533
 20
61.8808352911
 30
0.0
  0
VERTEX
  5
2EF
  8
HIDDEN
  6
HIDDEN2
 62
     7
 10
147.2784878694
 20
61.886745505
 30
0.0
  0
VERTEX
  5
2F0
  8
HIDDEN
  6
HIDDEN2
 62
     7
 10
147.2725186699
 20
61.8925741878
 30
0.0
  0
VERTEX
  5
2F1
  8
HIDDEN
  6
HIDDEN2
 62
     7
 10
147.2666195415
 20
61.8983205909
 30
0.0
  0
VERTEX
  5
2F2
  8
HIDDEN
  6
HIDDEN2
 62
     7
 10
147.2608103463
 20
61.9039645702
 30
0.0
  0
VERTEX
  5
2F3
  8
HIDDEN
  6
HIDDEN2
 62
     7
 10
147.2551115998
 20
61.909485238
 30
0.0
  0
VERTEX
  5
2F4
  8
HIDDEN
  6
HIDDEN2
 62
     7
 10
147.2495244689
 20
61.9148807306
 30
0.0
  0
VERTEX
  5
2F5
  8
HIDDEN
  6
HIDDEN2
 62
     7
 10
147.2440501204
 20
61.9201491841
 30
0.0
  0
VERTEX
  5
2F6
  8
HIDDEN
  6
HIDDEN2
 62
     7
 10
147.2386897211
 20
61.9252887349
 30
0.0
  0
VERTEX
  5
2F7
  8
HIDDEN
  6
HIDDEN2
 62
     7
 10
147.2334444378
 20
61.9302975192
 30
0.0
  0
VERTEX
  5
2F8
  8
HIDDEN
  6
HIDDEN2
 62
     7
 10
147.2283154375
 20
61.9351736731
 30
0.0
  0
VERTEX
  5
2F9
  8
HIDDEN
  6
HIDDEN2
 62
     7
 10
147.2233038868
 20
61.939915333
 30
0.0
  0
VERTEX
  5
2FA
  8
HIDDEN
  6
HIDDEN2
 62
     7
 10
147.2184109526
 20
61.9445206352
 30
0.0
  0
VERTEX
  5
2FB
  8
HIDDEN
  6
HIDDEN2
 62
     7
 10
147.2136378017
 20
61.9489877157
 30
0.0
  0
VERTEX
  5
2FC
  8
HIDDEN
  6
HIDDEN2
 62
     7
 10
147.208985601
 20
61.953314711
 30
0.0
  0
VERTEX
  5
2FD
  8
HIDDEN
  6
HIDDEN2
 62
     7
 10
147.2044555173
 20
61.9574997572
 30
0.0
  0
VERTEX
  5
2FE
  8
HIDDEN
  6
HIDDEN2
 62
     7
 10
147.2000487174
 20
61.9615409906
 30
0.0
  0
VERTEX
  5
2FF
  8
HIDDEN
  6
HIDDEN2
 62
     7
 10
147.1957663681
 20
61.9654365474
 30
0.0
  0
VERTEX
  5
300
  8
HIDDEN
  6
HIDDEN2
 62
     7
 10
147.1916096363
 20
61.9691845638
 30
0.0
  0
VERTEX
  5
301
  8
HIDDEN
  6
HIDDEN2
 62
     7
 10
147.1875796888
 20
61.9727831762
 30
0.0
  0
VERTEX
  5
302
  8
HIDDEN
  6
HIDDEN2
 62
     7
 10
147.1836776923
 20
61.9762305207
 30
0.0
  0
VERTEX
  5
303
  8
HIDDEN
  6
HIDDEN2
 62
     7
 10
147.1799048138
 20
61.9795247337
 30
0.0
  0
VERTEX
  5
304
  8
HIDDEN
  6
HIDDEN2
 62
     7
 10
147.1762736962
 20
61.9826534667
 30
0.0
  0
VERTEX
  5
305
  8
HIDDEN
  6
HIDDEN2
 62
     7
 10
147.1727971785
 20
61.9856045381
 30
0.0
  0
VERTEX
  5
306
  8
HIDDEN
  6
HIDDEN2
 62
     7
 10
147.1694767214
 20
61.9883763341
 30
0.0
  0
VERTEX
  5
307
  8
HIDDEN
  6
HIDDEN2
 62
     7
 10
147.1663137856
 20
61.9909672408
 30
0.0
  0
VERTEX
  5
308
  8
HIDDEN
  6
HIDDEN2
 62
     7
 10
147.1633098316
 20
61.9933756445
 30
0.0
  0
VERTEX
  5
309
  8
HIDDEN
  6
HIDDEN2
 62
     7
 10
147.1604663202
 20
61.9955999313
 30
0.0
  0
VERTEX
  5
30A
  8
HIDDEN
  6
HIDDEN2
 62
     7
 10
147.1577847121
 20
61.9976384873
 30
0.0
  0
VERTEX
  5
30B
  8
HIDDEN
  6
HIDDEN2
 62
     7
 10
147.1552664678
 20
61.9994896988
 30
0.0
  0
VERTEX
  5
30C
  8
HIDDEN
  6
HIDDEN2
 62
     7
 10
147.152913048
 20
62.0011519519
 30
0.0
  0
VERTEX
  5
30D
  8
HIDDEN
  6
HIDDEN2
 62
     7
 10
147.1507259135
 20
62.0026236328
 30
0.0
  0
VERTEX
  5
30E
  8
HIDDEN
  6
HIDDEN2
 62
     7
 10
147.1487065249
 20
62.0039031277
 30
0.0
  0
VERTEX
  5
30F
  8
HIDDEN
  6
HIDDEN2
 62
     7
 10
147.1468563428
 20
62.0049888228
 30
0.0
  0
VERTEX
  5
310
  8
HIDDEN
  6
HIDDEN2
 62
     7
 10
147.1451768279
 20
62.0058791041
 30
0.0
  0
VERTEX
  5
311
  8
HIDDEN
  6
HIDDEN2
 62
     7
 10
147.1436694408
 20
62.006572358
 30
0.0
  0
VERTEX
  5
312
  8
HIDDEN
  6
HIDDEN2
 62
     7
 10
147.1423356423
 20
62.0070669706
 30
0.0
  0
VERTEX
  5
313
  8
HIDDEN
  6
HIDDEN2
 62
     7
 10
147.141176893
 20
62.007361328
 30
0.0
  0
VERTEX
  5
314
  8
HIDDEN
  6
HIDDEN2
 62
     7
 10
147.1401946535
 20
62.0074538164
 30
0.0
  0
VERTEX
  5
315
  8
HIDDEN
  6
HIDDEN2
 62
     7
 10
147.1393903845
 20
62.0073428221
 30
0.0
  0
SEQEND
  5
316
  8
HIDDEN
  6
HIDDEN2
 62
     7
  0
POLYLINE
  5
13E
  8
HIDDEN
  6
HIDDEN2
 62
     7
 66
     1
 10
0.0
 20
0.0
 30
0.0
  0
VERTEX
  5
317
  8
HIDDEN
  6
HIDDEN2
 62
     7
 10
147.7578968282
 20
96.3077747543
 30
0.0
  0
VERTEX
  5
318
  8
HIDDEN
  6
HIDDEN2
 62
     7
 10
147.7586773037
 20
96.3076319615
 30
0.0
  0
VERTEX
  5
319
  8
HIDDEN
  6
HIDDEN2
 62
     7
 10
147.7594382552
 20
96.3077369588
 30
0.0
  0
VERTEX
  5
31A
  8
HIDDEN
  6
HIDDEN2
 62
     7
 10
147.7601796667
 20
96.3080883142
 30
0.0
  0
VERTEX
  5
31B
  8
HIDDEN
  6
HIDDEN2
 62
     7
 10
147.7609015222
 20
96.3086845953
 30
0.0
  0
VERTEX
  5
31C
  8
HIDDEN
  6
HIDDEN2
 62
     7
 10
147.7616038059
 20
96.3095243699
 30
0.0
  0
VERTEX
  5
31D
  8
HIDDEN
  6
HIDDEN2
 62
     7
 10
147.7622865018
 20
96.3106062059
 30
0.0
  0
VERTEX
  5
31E
  8
HIDDEN
  6
HIDDEN2
 62
     7
 10
147.7629495939
 20
96.3119286709
 30
0.0
  0
VERTEX
  5
31F
  8
HIDDEN
  6
HIDDEN2
 62
     7
 10
147.7635930662
 20
96.3134903327
 30
0.0
  0
VERTEX
  5
320
  8
HIDDEN
  6
HIDDEN2
 62
     7
 10
147.764216903
 20
96.3152897592
 30
0.0
  0
VERTEX
  5
321
  8
HIDDEN
  6
HIDDEN2
 62
     7
 10
147.7648210881
 20
96.317325518
 30
0.0
  0
VERTEX
  5
322
  8
HIDDEN
  6
HIDDEN2
 62
     7
 10
147.7654056057
 20
96.319596177
 30
0.0
  0
VERTEX
  5
323
  8
HIDDEN
  6
HIDDEN2
 62
     7
 10
147.7659704398
 20
96.322100304
 30
0.0
  0
VERTEX
  5
324
  8
HIDDEN
  6
HIDDEN2
 62
     7
 10
147.7665155744
 20
96.3248364666
 30
0.0
  0
VERTEX
  5
325
  8
HIDDEN
  6
HIDDEN2
 62
     7
 10
147.7670409937
 20
96.3278032328
 30
0.0
  0
VERTEX
  5
326
  8
HIDDEN
  6
HIDDEN2
 62
     7
 10
147.7675466816
 20
96.3309991702
 30
0.0
  0
VERTEX
  5
327
  8
HIDDEN
  6
HIDDEN2
 62
     7
 10
147.7680326223
 20
96.3344228466
 30
0.0
  0
VERTEX
  5
328
  8
HIDDEN
  6
HIDDEN2
 62
     7
 10
147.7684987998
 20
96.3380728298
 30
0.0
  0
VERTEX
  5
329
  8
HIDDEN
  6
HIDDEN2
 62
     7
 10
147.7689451981
 20
96.3419476877
 30
0.0
  0
VERTEX
  5
32A
  8
HIDDEN
  6
HIDDEN2
 62
     7
 10
147.7693719797
 20
96.3460468083
 30
0.0
  0
VERTEX
  5
32B
  8
HIDDEN
  6
HIDDEN2
 62
     7
 10
147.7697795908
 20
96.3503676142
 30
0.0
  0
VERTEX
  5
32C
  8
HIDDEN
  6
HIDDEN2
 62
     7
 10
147.7701684407
 20
96.354905724
 30
0.0
  0
VERTEX
  5
32D
  8
HIDDEN
  6
HIDDEN2
 62
     7
 10
147.7705389388
 20
96.3596567567
 30
0.0
  0
VERTEX
  5
32E
  8
HIDDEN
  6
HIDDEN2
 62
     7
 10
147.7708914945
 20
96.3646163311
 30
0.0
  0
VERTEX
  5
32F
  8
HIDDEN
  6
HIDDEN2
 62
     7
 10
147.7712265172
 20
96.3697800661
 30
0.0
  0
VERTEX
  5
330
  8
HIDDEN
  6
HIDDEN2
 62
     7
 10
147.7715444162
 20
96.3751435803
 30
0.0
  0
VERTEX
  5
331
  8
HIDDEN
  6
HIDDEN2
 62
     7
 10
147.771845601
 20
96.3807024928
 30
0.0
  0
VERTEX
  5
332
  8
HIDDEN
  6
HIDDEN2
 62
     7
 10
147.7721304809
 20
96.3864524224
 30
0.0
  0
VERTEX
  5
333
  8
HIDDEN
  6
HIDDEN2
 62
     7
 10
147.7723994653
 20
96.3923889878
 30
0.0
  0
VERTEX
  5
334
  8
HIDDEN
  6
HIDDEN2
 62
     7
 10
147.7726529636
 20
96.398507808
 30
0.0
  0
VERTEX
  5
335
  8
HIDDEN
  6
HIDDEN2
 62
     7
 10
147.7728913851
 20
96.4048045017
 30
0.0
  0
VERTEX
  5
336
  8
HIDDEN
  6
HIDDEN2
 62
     7
 10
147.7731151393
 20
96.4112746878
 30
0.0
  0
VERTEX
  5
337
  8
HIDDEN
  6
HIDDEN2
 62
     7
 10
147.7733246356
 20
96.4179139852
 30
0.0
  0
VERTEX
  5
338
  8
HIDDEN
  6
HIDDEN2
 62
     7
 10
147.7735202833
 20
96.4247180126
 30
0.0
  0
VERTEX
  5
339
  8
HIDDEN
  6
HIDDEN2
 62
     7
 10
147.7737024918
 20
96.431682389
 30
0.0
  0
VERTEX
  5
33A
  8
HIDDEN
  6
HIDDEN2
 62
     7
 10
147.7738716705
 20
96.4388027332
 30
0.0
  0
VERTEX
  5
33B
  8
HIDDEN
  6
HIDDEN2
 62
     7
 10
147.7740282287
 20
96.4460746639
 30
0.0
  0
VERTEX
  5
33C
  8
HIDDEN
  6
HIDDEN2
 62
     7
 10
147.774173005
 20
96.4534982876
 30
0.0
  0
VERTEX
  5
33D
  8
HIDDEN
  6
HIDDEN2
 62
     7
 10
147.7743068717
 20
96.4610734675
 30
0.0
  0
VERTEX
  5
33E
  8
HIDDEN
  6
HIDDEN2
 62
     7
 10
147.7744302893
 20
96.4687954582
 30
0.0
  0
VERTEX
  5
33F
  8
HIDDEN
  6
HIDDEN2
 62
     7
 10
147.7745437184
 20
96.4766595143
 30
0.0
  0
VERTEX
  5
340
  8
HIDDEN
  6
HIDDEN2
 62
     7
 10
147.7746476195
 20
96.4846608904
 30
0.0
  0
VERTEX
  5
341
  8
HIDDEN
  6
HIDDEN2
 62
     7
 10
147.774742453
 20
96.4927948409
 30
0.0
  0
VERTEX
  5
342
  8
HIDDEN
  6
HIDDEN2
 62
     7
 10
147.7748286795
 20
96.5010566204
 30
0.0
  0
VERTEX
  5
343
  8
HIDDEN
  6
HIDDEN2
 62
     7
 10
147.7749067594
 20
96.5094414836
 30
0.0
  0
VERTEX
  5
344
  8
HIDDEN
  6
HIDDEN2
 62
     7
 10
147.7749771533
 20
96.5179446848
 30
0.0
  0
VERTEX
  5
345
  8
HIDDEN
  6
HIDDEN2
 62
     7
 10
147.7750403217
 20
96.5265614787
 30
0.0
  0
VERTEX
  5
346
  8
HIDDEN
  6
HIDDEN2
 62
     7
 10
147.775096725
 20
96.5352871199
 30
0.0
  0
VERTEX
  5
347
  8
HIDDEN
  6
HIDDEN2
 62
     7
 10
147.7751468239
 20
96.5441168628
 30
0.0
  0
VERTEX
  5
348
  8
HIDDEN
  6
HIDDEN2
 62
     7
 10
147.7751910787
 20
96.5530459621
 30
0.0
  0
VERTEX
  5
349
  8
HIDDEN
  6
HIDDEN2
 62
     7
 10
147.77522995
 20
96.5620696722
 30
0.0
  0
VERTEX
  5
34A
  8
HIDDEN
  6
HIDDEN2
 62
     7
 10
147.7752638983
 20
96.5711832477
 30
0.0
  0
VERTEX
  5
34B
  8
HIDDEN
  6
HIDDEN2
 62
     7
 10
147.775293384
 20
96.5803819432
 30
0.0
  0
VERTEX
  5
34C
  8
HIDDEN
  6
HIDDEN2
 62
     7
 10
147.7753188678
 20
96.5896610133
 30
0.0
  0
VERTEX
  5
34D
  8
HIDDEN
  6
HIDDEN2
 62
     7
 10
147.77534081
 20
96.5990157124
 30
0.0
  0
VERTEX
  5
34E
  8
HIDDEN
  6
HIDDEN2
 62
     7
 10
147.7753597627
 20
96.6084412722
 30
0.0
  0
VERTEX
  5
34F
  8
HIDDEN
  6
HIDDEN2
 62
     7
 10
147.7753760951
 20
96.6179339721
 30
0.0
  0
VERTEX
  5
350
  8
HIDDEN
  6
HIDDEN2
 62
     7
 10
147.7753899935
 20
96.6274906385
 30
0.0
  0
VERTEX
  5
351
  8
HIDDEN
  6
HIDDEN2
 62
     7
 10
147.7754016444
 20
96.6371080976
 30
0.0
  0
VERTEX
  5
352
  8
HIDDEN
  6
HIDDEN2
 62
     7
 10
147.7754112341
 20
96.646783176
 30
0.0
  0
VERTEX
  5
353
  8
HIDDEN
  6
HIDDEN2
 62
     7
 10
147.7754189491
 20
96.6565126998
 30
0.0
  0
VERTEX
  5
354
  8
HIDDEN
  6
HIDDEN2
 62
     7
 10
147.7754249757
 20
96.6662934954
 30
0.0
  0
VERTEX
  5
355
  8
HIDDEN
  6
HIDDEN2
 62
     7
 10
147.7754295004
 20
96.6761223891
 30
0.0
  0
VERTEX
  5
356
  8
HIDDEN
  6
HIDDEN2
 62
     7
 10
147.7754327095
 20
96.6859962073
 30
0.0
  0
VERTEX
  5
357
  8
HIDDEN
  6
HIDDEN2
 62
     7
 10
147.7754347895
 20
96.6959117764
 30
0.0
  0
VERTEX
  5
358
  8
HIDDEN
  6
HIDDEN2
 62
     7
 10
147.7754359267
 20
96.7058659225
 30
0.0
  0
VERTEX
  5
359
  8
HIDDEN
  6
HIDDEN2
 62
     7
 10
147.7754363075
 20
96.7158554722
 30
0.0
  0
VERTEX
  5
35A
  8
HIDDEN
  6
HIDDEN2
 62
     7
 10
147.7754361183
 20
96.7258772517
 30
0.0
  0
VERTEX
  5
35B
  8
HIDDEN
  6
HIDDEN2
 62
     7
 10
147.7754355456
 20
96.7359280873
 30
0.0
  0
VERTEX
  5
35C
  8
HIDDEN
  6
HIDDEN2
 62
     7
 10
147.7754347756
 20
96.7460048054
 30
0.0
  0
VERTEX
  5
35D
  8
HIDDEN
  6
HIDDEN2
 62
     7
 10
147.7754339949
 20
96.7561042323
 30
0.0
  0
VERTEX
  5
35E
  8
HIDDEN
  6
HIDDEN2
 62
     7
 10
147.7754333898
 20
96.7662231944
 30
0.0
  0
VERTEX
  5
35F
  8
HIDDEN
  6
HIDDEN2
 62
     7
 10
147.7754331466
 20
96.776358518
 30
0.0
  0
SEQEND
  5
360
  8
HIDDEN
  6
HIDDEN2
 62
     7
  0
POLYLINE
  5
13F
  8
HIDDEN
  6
HIDDEN2
 62
     7
 66
     1
 10
0.0
 20
0.0
 30
0.0
  0
VERTEX
  5
361
  8
HIDDEN
  6
HIDDEN2
 62
     7
 10
136.8464759087
 20
62.0073428221
 30
0.0
  0
VERTEX
  5
362
  8
HIDDEN
  6
HIDDEN2
 62
     7
 10
136.8456723793
 20
62.0074521616
 30
0.0
  0
VERTEX
  5
363
  8
HIDDEN
  6
HIDDEN2
 62
     7
 10
136.8446885059
 20
62.0073563147
 30
0.0
  0
VERTEX
  5
364
  8
HIDDEN
  6
HIDDEN2
 62
     7
 10
136.8435263501
 20
62.0070574005
 30
0.0
  0
VERTEX
  5
365
  8
HIDDEN
  6
HIDDEN2
 62
     7
 10
136.8421879735
 20
62.0065575381
 30
0.0
  0
VERTEX
  5
366
  8
HIDDEN
  6
HIDDEN2
 62
     7
 10
136.8406754377
 20
62.0058588468
 30
0.0
  0
VERTEX
  5
367
  8
HIDDEN
  6
HIDDEN2
 62
     7
 10
136.8389908044
 20
62.0049634455
 30
0.0
  0
VERTEX
  5
368
  8
HIDDEN
  6
HIDDEN2
 62
     7
 10
136.837136135
 20
62.0038734536
 30
0.0
  0
VERTEX
  5
369
  8
HIDDEN
  6
HIDDEN2
 62
     7
 10
136.8351134913
 20
62.0025909901
 30
0.0
  0
VERTEX
  5
36A
  8
HIDDEN
  6
HIDDEN2
 62
     7
 10
136.8329249348
 20
62.0011181742
 30
0.0
  0
VERTEX
  5
36B
  8
HIDDEN
  6
HIDDEN2
 62
     7
 10
136.8305725271
 20
61.999457125
 30
0.0
  0
VERTEX
  5
36C
  8
HIDDEN
  6
HIDDEN2
 62
     7
 10
136.8280583299
 20
61.9976099618
 30
0.0
  0
VERTEX
  5
36D
  8
HIDDEN
  6
HIDDEN2
 62
     7
 10
136.8253844046
 20
61.9955788036
 30
0.0
  0
VERTEX
  5
36E
  8
HIDDEN
  6
HIDDEN2
 62
     7
 10
136.822552813
 20
61.9933657696
 30
0.0
  0
VERTEX
  5
36F
  8
HIDDEN
  6
HIDDEN2
 62
     7
 10
136.8195656167
 20
61.9909729789
 30
0.0
  0
VERTEX
  5
370
  8
HIDDEN
  6
HIDDEN2
 62
     7
 10
136.8164248772
 20
61.9884025508
 30
0.0
  0
VERTEX
  5
371
  8
HIDDEN
  6
HIDDEN2
 62
     7
 10
136.8131326561
 20
61.9856566044
 30
0.0
  0
VERTEX
  5
372
  8
HIDDEN
  6
HIDDEN2
 62
     7
 10
136.8096910151
 20
61.9827372587
 30
0.0
  0
VERTEX
  5
373
  8
HIDDEN
  6
HIDDEN2
 62
     7
 10
136.8061020157
 20
61.979646633
 30
0.0
  0
VERTEX
  5
374
  8
HIDDEN
  6
HIDDEN2
 62
     7
 10
136.8023668959
 20
61.9763863751
 30
0.0
  0
VERTEX
  5
375
  8
HIDDEN
  6
HIDDEN2
 62
     7
 10
136.7984876956
 20
61.972959271
 30
0.0
  0
VERTEX
  5
376
  8
HIDDEN
  6
HIDDEN2
 62
     7
 10
136.7944676795
 20
61.9693691468
 30
0.0
  0
VERTEX
  5
377
  8
HIDDEN
  6
HIDDEN2
 62
     7
 10
136.7903101122
 20
61.9656198289
 30
0.0
  0
VERTEX
  5
378
  8
HIDDEN
  6
HIDDEN2
 62
     7
 10
136.7860182583
 20
61.9617151435
 30
0.0
  0
VERTEX
  5
379
  8
HIDDEN
  6
HIDDEN2
 62
     7
 10
136.7815953825
 20
61.9576589169
 30
0.0
  0
VERTEX
  5
37A
  8
HIDDEN
  6
HIDDEN2
 62
     7
 10
136.7770447496
 20
61.9534549753
 30
0.0
  0
VERTEX
  5
37B
  8
HIDDEN
  6
HIDDEN2
 62
     7
 10
136.772369624
 20
61.9491071451
 30
0.0
  0
VERTEX
  5
37C
  8
HIDDEN
  6
HIDDEN2
 62
     7
 10
136.7675732705
 20
61.9446192524
 30
0.0
  0
VERTEX
  5
37D
  8
HIDDEN
  6
HIDDEN2
 62
     7
 10
136.7626589538
 20
61.9399951236
 30
0.0
  0
VERTEX
  5
37E
  8
HIDDEN
  6
HIDDEN2
 62
     7
 10
136.7576299384
 20
61.9352385849
 30
0.0
  0
VERTEX
  5
37F
  8
HIDDEN
  6
HIDDEN2
 62
     7
 10
136.7524894891
 20
61.9303534626
 30
0.0
  0
VERTEX
  5
380
  8
HIDDEN
  6
HIDDEN2
 62
     7
 10
136.7472408705
 20
61.9253435829
 30
0.0
  0
VERTEX
  5
381
  8
HIDDEN
  6
HIDDEN2
 62
     7
 10
136.7418873472
 20
61.9202127722
 30
0.0
  0
VERTEX
  5
382
  8
HIDDEN
  6
HIDDEN2
 62
     7
 10
136.7364321839
 20
61.9149648566
 30
0.0
  0
VERTEX
  5
383
  8
HIDDEN
  6
HIDDEN2
 62
     7
 10
136.7308786452
 20
61.9096036625
 30
0.0
  0
VERTEX
  5
384
  8
HIDDEN
  6
HIDDEN2
 62
     7
 10
136.7252299959
 20
61.904133016
 30
0.0
  0
VERTEX
  5
385
  8
HIDDEN
  6
HIDDEN2
 62
     7
 10
136.7194895005
 20
61.8985567436
 30
0.0
  0
VERTEX
  5
386
  8
HIDDEN
  6
HIDDEN2
 62
     7
 10
136.7136565666
 20
61.8928752577
 30
0.0
  0
VERTEX
  5
387
  8
HIDDEN
  6
HIDDEN2
 62
     7
 10
136.7077304618
 20
61.8870888036
 30
0.0
  0
VERTEX
  5
388
  8
HIDDEN
  6
HIDDEN2
 62
     7
 10
136.7017142411
 20
61.8812009564
 30
0.0
  0
VERTEX
  5
389
  8
HIDDEN
  6
HIDDEN2
 62
     7
 10
136.6956109593
 20
61.8752152911
 30
0.0
  0
VERTEX
  5
38A
  8
HIDDEN
  6
HIDDEN2
 62
     7
 10
136.6894236713
 20
61.8691353827
 30
0.0
  0
VERTEX
  5
38B
  8
HIDDEN
  6
HIDDEN2
 62
     7
 10
136.6831554321
 20
61.8629648065
 30
0.0
  0
VERTEX
  5
38C
  8
HIDDEN
  6
HIDDEN2
 62
     7
 10
136.6768092965
 20
61.8567071373
 30
0.0
  0
VERTEX
  5
38D
  8
HIDDEN
  6
HIDDEN2
 62
     7
 10
136.6703883195
 20
61.8503659504
 30
0.0
  0
VERTEX
  5
38E
  8
HIDDEN
  6
HIDDEN2
 62
     7
 10
136.6638955559
 20
61.8439448208
 30
0.0
  0
VERTEX
  5
38F
  8
HIDDEN
  6
HIDDEN2
 62
     7
 10
136.6573340605
 20
61.8374473235
 30
0.0
  0
VERTEX
  5
390
  8
HIDDEN
  6
HIDDEN2
 62
     7
 10
136.6507068884
 20
61.8308770337
 30
0.0
  0
VERTEX
  5
391
  8
HIDDEN
  6
HIDDEN2
 62
     7
 10
136.6440170944
 20
61.8242375264
 30
0.0
  0
VERTEX
  5
392
  8
HIDDEN
  6
HIDDEN2
 62
     7
 10
136.6372677334
 20
61.8175323766
 30
0.0
  0
VERTEX
  5
393
  8
HIDDEN
  6
HIDDEN2
 62
     7
 10
136.6304618603
 20
61.8107651596
 30
0.0
  0
VERTEX
  5
394
  8
HIDDEN
  6
HIDDEN2
 62
     7
 10
136.62360253
 20
61.8039394502
 30
0.0
  0
VERTEX
  5
395
  8
HIDDEN
  6
HIDDEN2
 62
     7
 10
136.6166927974
 20
61.7970588237
 30
0.0
  0
VERTEX
  5
396
  8
HIDDEN
  6
HIDDEN2
 62
     7
 10
136.6097357174
 20
61.790126855
 30
0.0
  0
VERTEX
  5
397
  8
HIDDEN
  6
HIDDEN2
 62
     7
 10
136.6027343449
 20
61.7831471193
 30
0.0
  0
VERTEX
  5
398
  8
HIDDEN
  6
HIDDEN2
 62
     7
 10
136.5956897073
 20
61.7761211923
 30
0.0
  0
VERTEX
  5
399
  8
HIDDEN
  6
HIDDEN2
 62
     7
 10
136.5886022173
 20
61.7690498123
 30
0.0
  0
VERTEX
  5
39A
  8
HIDDEN
  6
HIDDEN2
 62
     7
 10
136.5814740079
 20
61.7619352977
 30
0.0
  0
VERTEX
  5
39B
  8
HIDDEN
  6
HIDDEN2
 62
     7
 10
136.5743072119
 20
61.7547799671
 30
0.0
  0
VERTEX
  5
39C
  8
HIDDEN
  6
HIDDEN2
 62
     7
 10
136.567103962
 20
61.747586139
 30
0.0
  0
VERTEX
  5
39D
  8
HIDDEN
  6
HIDDEN2
 62
     7
 10
136.559866391
 20
61.7403561319
 30
0.0
  0
VERTEX
  5
39E
  8
HIDDEN
  6
HIDDEN2
 62
     7
 10
136.5525966319
 20
61.7330922643
 30
0.0
  0
VERTEX
  5
39F
  8
HIDDEN
  6
HIDDEN2
 62
     7
 10
136.5452968175
 20
61.7257968549
 30
0.0
  0
VERTEX
  5
3A0
  8
HIDDEN
  6
HIDDEN2
 62
     7
 10
136.5379690805
 20
61.718472222
 30
0.0
  0
VERTEX
  5
3A1
  8
HIDDEN
  6
HIDDEN2
 62
     7
 10
136.5306155538
 20
61.7111206843
 30
0.0
  0
VERTEX
  5
3A2
  8
HIDDEN
  6
HIDDEN2
 62
     7
 10
136.5232383702
 20
61.7037445602
 30
0.0
  0
VERTEX
  5
3A3
  8
HIDDEN
  6
HIDDEN2
 62
     7
 10
136.5158396626
 20
61.6963461683
 30
0.0
  0
VERTEX
  5
3A4
  8
HIDDEN
  6
HIDDEN2
 62
     7
 10
136.5084215637
 20
61.6889278271
 30
0.0
  0
VERTEX
  5
3A5
  8
HIDDEN
  6
HIDDEN2
 62
     7
 10
136.5009862064
 20
61.6814918551
 30
0.0
  0
VERTEX
  5
3A6
  8
HIDDEN
  6
HIDDEN2
 62
     7
 10
136.4935357236
 20
61.6740405709
 30
0.0
  0
VERTEX
  5
3A7
  8
HIDDEN
  6
HIDDEN2
 62
     7
 10
136.486072248
 20
61.666576293
 30
0.0
  0
VERTEX
  5
3A8
  8
HIDDEN
  6
HIDDEN2
 62
     7
 10
136.4785979124
 20
61.6591013399
 30
0.0
  0
VERTEX
  5
3A9
  8
HIDDEN
  6
HIDDEN2
 62
     7
 10
136.4711148498
 20
61.6516180301
 30
0.0
  0
SEQEND
  5
3AA
  8
HIDDEN
  6
HIDDEN2
 62
     7
  0
ARC
  5
140
  8
VISIBLE
  6
CONTINUOUS
 62
     7
 10
141.9929331466
 20
79.255936327
 30
0.0
 40
2.699999999999995
 50
14.4775121859
 51
75.5224878141
  0
ARC
  5
141
  8
VISIBLE
  6
CONTINUOUS
 62
     7
 10
141.9929331466
 20
79.255936327
 30
0.0
 40
2.699999999999995
 50
345.5224878141
 51
14.4775121859
  0
ARC
  5
142
  8
VISIBLE
  6
CONTINUOUS
 62
     7
 10
141.9929331466
 20
79.255936327
 30
0.0
 40
2.699999999999995
 50
194.4775121859
 51
255.5224878141
  0
ARC
  5
143
  8
VISIBLE
  6
CONTINUOUS
 62
     7
 10
141.9929331466
 20
79.255936327
 30
0.0
 40
2.699999999999995
 50
165.5224878141
 51
194.4775121859
  0
ARC
  5
144
  8
VISIBLE
  6
CONTINUOUS
 62
     7
 10
141.9929331466
 20
79.255936327
 30
0.0
 40
2.699999999999995
 50
284.4775121859
 51
345.5224878141
  0
ARC
  5
145
  8
VISIBLE
  6
CONTINUOUS
 62
     7
 10
141.9929331466
 20
79.255936327
 30
0.0
 40
2.699999999999995
 50
255.5224878141
 51
284.4775121859
  0
ARC
  5
146
  8
VISIBLE
  6
CONTINUOUS
 62
     7
 10
141.9929331466
 20
79.255936327
 30
0.0
 40
2.699999999999996
 50
104.4775121859
 51
165.5224878141
  0
ARC
  5
147
  8
VISIBLE
  6
CONTINUOUS
 62
     7
 10
141.9929331466
 20
79.255936327
 30
0.0
 40
2.699999999999994
 50
75.5224878141
 51
104.4775121859
  0
CIRCLE
  5
148
  8
VISIBLE
  6
CONTINUOUS
 62
     7
 10
141.9929331466
 20
79.255936327
 30
0.0
 40
7.695
  0
ARC
  5
149
  8
VISIBLE
  6
CONTINUOUS
 62
     7
 10
141.9929331466
 20
79.255936327
 30
0.0
 40
14.3325
 50
187.2147535521
 51
232.7852464479
  0
LINE
  5
14A
  8
VISIBLE
  6
CONTINUOUS
 62
     7
 10
127.9304331466
 20
81.055936327
 30
0.0
 11
127.7739122151
 21
81.055936327
 31
0.0
  0
LINE
  5
14B
  8
VISIBLE
  6
CONTINUOUS
 62
     7
 10
127.7739122151
 20
77.455936327
 30
0.0
 11
127.9304331466
 21
77.455936327
 31
0.0
  0
ARC
  5
14C
  8
VISIBLE
  6
CONTINUOUS
 62
     7
 10
141.9929331466
 20
79.255936327
 30
0.0
 40
14.3325
 50
172.7852464479
 51
187.2147535521
  0
LINE
  5
14D
  8
VISIBLE
  6
CONTINUOUS
 62
     7
 10
127.9304331466
 20
77.455936327
 30
0.0
 11
128.2239254879
 21
77.4800246609
 31
0.0
  0
ARC
  5
14E
  8
VISIBLE
  6
CONTINUOUS
 62
     7
 10
127.9304331466
 20
79.255936327
 30
0.0
 40
1.8
 50
279.3840492303
 51
80.6159507697
  0
LINE
  5
14F
  8
VISIBLE
  6
CONTINUOUS
 62
     7
 10
128.2239254879
 20
81.031847993
 30
0.0
 11
127.9304331466
 21
81.055936327
 31
0.0
  0
ARC
  5
150
  8
VISIBLE
  6
CONTINUOUS
 62
     7
 10
141.9929331466
 20
79.255936327
 30
0.0
 40
14.3325
 50
112.7852464479
 51
127.2147535521
  0
ARC
  5
151
  8
VISIBLE
  6
CONTINUOUS
 62
     7
 10
141.9929331466
 20
79.255936327
 30
0.0
 40
14.3325
 50
127.2147535521
 51
172.7852464479
  0
LINE
  5
152
  8
VISIBLE
  6
CONTINUOUS
 62
     7
 10
133.4028374198
 20
90.5344185677
 30
0.0
 11
133.5704446996
 21
90.2922909114
 31
0.0
  0
ARC
  5
153
  8
VISIBLE
  6
CONTINUOUS
 62
     7
 10
134.9616831466
 20
91.4344185677
 30
0.0
 40
1.8
 50
219.3840492303
 51
20.6159507697
  0
LINE
  5
154
  8
VISIBLE
  6
CONTINUOUS
 62
     7
 10
136.6464139349
 20
92.0682025774
 30
0.0
 11
136.5205288734
 21
92.3344185677
 31
0.0
  0
LINE
  5
155
  8
VISIBLE
  6
CONTINUOUS
 62
     7
 10
133.3245769541
 20
90.6699696706
 30
0.0
 11
133.4028374198
 21
90.5344185677
 31
0.0
  0
LINE
  5
156
  8
VISIBLE
  6
CONTINUOUS
 62
     7
 10
136.5205288734
 20
92.3344185677
 30
0.0
 11
136.4422684077
 21
92.4699696706
 31
0.0
  0
ARC
  5
157
  8
VISIBLE
  6
CONTINUOUS
 62
     7
 10
141.9929331466
 20
79.255936327
 30
0.0
 40
14.3325
 50
52.7852464479
 51
67.2147535521
  0
ARC
  5
158
  8
VISIBLE
  6
CONTINUOUS
 62
     7
 10
141.9929331466
 20
79.255936327
 30
0.0
 40
14.3325
 50
67.2147535521
 51
112.7852464479
  0
LINE
  5
159
  8
VISIBLE
  6
CONTINUOUS
 62
     7
 10
147.4653374198
 20
92.3344185677
 30
0.0
 11
147.3394523583
 21
92.0682025774
 31
0.0
  0
ARC
  5
15A
  8
VISIBLE
  6
CONTINUOUS
 62
     7
 10
149.0241831466
 20
91.4344185677
 30
0.0
 40
1.799999999999998
 50
159.3840492303
 51
320.6159507697
  0
LINE
  5
15B
  8
VISIBLE
  6
CONTINUOUS
 62
     7
 10
150.4154215937
 20
90.2922909114
 30
0.0
 11
150.5830288734
 21
90.5344185677
 31
0.0
  0
LINE
  5
15C
  8
VISIBLE
  6
CONTINUOUS
 62
     7
 10
147.5435978856
 20
92.4699696706
 30
0.0
 11
147.4653374198
 21
92.3344185677
 31
0.0
  0
LINE
  5
15D
  8
VISIBLE
  6
CONTINUOUS
 62
     7
 10
150.5830288734
 20
90.5344185677
 30
0.0
 11
150.6612893392
 21
90.6699696706
 31
0.0
  0
ARC
  5
15E
  8
VISIBLE
  6
CONTINUOUS
 62
     7
 10
141.9929331466
 20
79.255936327
 30
0.0
 40
14.3325
 50
352.7852464479
 51
7.2147535521
  0
ARC
  5
15F
  8
VISIBLE
  6
CONTINUOUS
 62
     7
 10
141.9929331466
 20
79.255936327
 30
0.0
 40
14.3325
 50
7.2147535521
 51
52.7852464479
  0
LINE
  5
160
  8
VISIBLE
  6
CONTINUOUS
 62
     7
 10
156.0554331466
 20
81.055936327
 30
0.0
 11
155.7619408054
 21
81.031847993
 31
0.0
  0
ARC
  5
161
  8
VISIBLE
  6
CONTINUOUS
 62
     7
 10
156.0554331466
 20
79.255936327
 30
0.0
 40
1.8
 50
99.3840492303
 51
260.6159507697
  0
LINE
  5
162
  8
VISIBLE
  6
CONTINUOUS
 62
     7
 10
155.7619408054
 20
77.4800246609
 30
0.0
 11
156.0554331466
 21
77.455936327
 31
0.0
  0
LINE
  5
163
  8
VISIBLE
  6
CONTINUOUS
 62
     7
 10
156.2119540781
 20
81.055936327
 30
0.0
 11
156.0554331466
 21
81.055936327
 31
0.0
  0
LINE
  5
164
  8
VISIBLE
  6
CONTINUOUS
 62
     7
 10
156.0554331466
 20
77.455936327
 30
0.0
 11
156.2119540781
 21
77.455936327
 31
0.0
  0
ARC
  5
165
  8
VISIBLE
  6
CONTINUOUS
 62
     7
 10
141.9929331466
 20
79.255936327
 30
0.0
 40
14.3325
 50
292.7852464479
 51
307.2147535521
  0
ARC
  5
166
  8
VISIBLE
  6
CONTINUOUS
 62
     7
 10
141.9929331466
 20
79.255936327
 30
0.0
 40
14.3325
 50
307.2147535521
 51
352.7852464479
  0
LINE
  5
167
  8
VISIBLE
  6
CONTINUOUS
 62
     7
 10
150.5830288734
 20
67.9774540863
 30
0.0
 11
150.4154215937
 21
68.2195817426
 31
0.0
  0
ARC
  5
168
  8
VISIBLE
  6
CONTINUOUS
 62
     7
 10
149.0241831466
 20
67.0774540863
 30
0.0
 40
1.8
 50
39.3840492303
 51
200.6159507697
  0
LINE
  5
169
  8
VISIBLE
  6
CONTINUOUS
 62
     7
 10
147.3394523583
 20
66.4436700766
 30
0.0
 11
147.4653374198
 21
66.1774540863
 31
0.0
  0
LINE
  5
16A
  8
VISIBLE
  6
CONTINUOUS
 62
     7
 10
150.6612893392
 20
67.8419029834
 30
0.0
 11
150.5830288734
 21
67.9774540863
 31
0.0
  0
LINE
  5
16B
  8
VISIBLE
  6
CONTINUOUS
 62
     7
 10
147.4653374198
 20
66.1774540863
 30
0.0
 11
147.5435978856
 21
66.0419029834
 31
0.0
  0
ARC
  5
16C
  8
VISIBLE
  6
CONTINUOUS
 62
     7
 10
141.9929331466
 20
79.255936327
 30
0.0
 40
14.3325
 50
232.7852464479
 51
247.2147535521
  0
ARC
  5
16D
  8
VISIBLE
  6
CONTINUOUS
 62
     7
 10
141.9929331466
 20
79.255936327
 30
0.0
 40
14.3325
 50
247.2147535521
 51
292.7852464479
  0
LINE
  5
16E
  8
VISIBLE
  6
CONTINUOUS
 62
     7
 10
136.5205288734
 20
66.1774540863
 30
0.0
 11
136.6464139349
 21
66.4436700766
 31
0.0
  0
ARC
  5
16F
  8
VISIBLE
  6
CONTINUOUS
 62
     7
 10
134.9616831466
 20
67.0774540863
 30
0.0
 40
1.8
 50
339.3840492303
 51
140.6159507697
  0
LINE
  5
170
  8
VISIBLE
  6
CONTINUOUS
 62
     7
 10
133.5704446996
 20
68.2195817426
 30
0.0
 11
133.4028374198
 21
67.9774540863
 31
0.0
  0
LINE
  5
171
  8
VISIBLE
  6
CONTINUOUS
 62
     7
 10
136.4422684077
 20
66.0419029834
 30
0.0
 11
136.5205288734
 21
66.1774540863
 31
0.0
  0
LINE
  5
172
  8
VISIBLE
  6
CONTINUOUS
 62
     7
 10
133.4028374198
 20
67.9774540863
 30
0.0
 11
133.3245769541
 21
67.8419029834
 31
0.0
  0
LINE
  5
173
  8
STANDARD
  6
DASHDOT2
 62
     7
 10
143.1179331215
 20
79.255936327
 30
0.0
 11
140.8679331718
 21
79.255936327
 31
0.0
  0
LINE
  5
174
  8
STANDARD
  6
DASHDOT2
 62
     7
 10
141.9929331466
 20
80.3809363018
 30
0.0
 11
141.9929331466
 21
78.1309363521
 31
0.0
  0
LINE
  5
175
  8
STANDARD
  6
DASHDOT2
 62
     7
 10
143.6804331089
 20
79.255936327
 30
0.0
 11
164.7179331466
 21
79.255936327
 31
0.0
  0
LINE
  5
176
  8
STANDARD
  6
DASHDOT2
 62
     7
 10
141.9929331466
 20
80.9434362893
 30
0.0
 11
141.9929331466
 21
101.980936327
 31
0.0
  0
LINE
  5
177
  8
STANDARD
  6
DASHDOT2
 62
     7
 10
140.3054331843
 20
79.255936327
 30
0.0
 11
119.2679331466
 21
79.255936327
 31
0.0
  0
LINE
  5
178
  8
STANDARD
  6
DASHDOT2
 62
     7
 10
141.9929331466
 20
77.5684363647
 30
0.0
 11
141.9929331466
 21
56.530936327
 31
0.0
  0
ENDBLK
  5
17A
  8
0
  0
ENDSEC
  0
SECTION
  2
ENTITIES
  0
INSERT
  5
5F
  8
DEFAULT
  2
SEANNOT_GROUP
 10
0.0
 20
0.0
 30
0.0
  0
INSERT
  5
68
  8
DEFAULT
  2
GDIMGGROUP
 10
0.0
 20
0.0
 30
0.0
  0
INSERT
  5
74
  8
DEFAULT
  2
GDIMGGROUP1
 10
0.0
 20
0.0
 30
0.0
  0
INSERT
  5
7E
  8
DEFAULT
  2
SE
 10
0.0
 20
0.0
 30
0.0
  0
INSERT
  5
121
  8
DEFAULT
  2
SE1
 10
0.0
 20
0.0
 30
0.0
  0
ENDSEC
  0
EOF
