  0
SECTION
  2
HEADER
  9
$ACADVER
  1
AC1009
  9
$DWGCODEPAGE
  3
ansi_1252
  9
$INSBASE
 10
0.0
 20
0.0
 30
0.0
  9
$EXTMIN
 10
0.0
 20
0.0
 30
0.0
  9
$EXTMAX
 10
180.0
 20
160.0
 30
0.0
  9
$LIMMIN
 10
0.0
 20
0.0
  9
$LIMMAX
 10
180.0
 20
160.0
  9
$ORTHOMODE
 70
     0
  9
$REGENMODE
 70
     1
  9
$FILLMODE
 70
     1
  9
$QTEXTMODE
 70
     0
  9
$MIRRTEXT
 70
     1
  9
$DRAGMODE
 70
     2
  9
$LTSCALE
 40
1.0
  9
$OSMODE
 70
    37
  9
$ATTMODE
 70
     1
  9
$TEXTSIZE
 40
2.5
  9
$TRACEWID
 40
1.0
  9
$TEXTSTYLE
  7
STANDARD
  9
$CLAYER
  8
0
  9
$CELTYPE
  6
BYLAYER
  9
$CECOLOR
 62
   256
  9
$DIMSCALE
 40
1.0
  9
$DIMASZ
 40
2.5
  9
$DIMEXO
 40
0.625
  9
$DIMDLI
 40
3.75
  9
$DIMRND
 40
0.0
  9
$DIMDLE
 40
0.0
  9
$DIMEXE
 40
1.25
  9
$DIMTP
 40
0.0
  9
$DIMTM
 40
0.0
  9
$DIMTXT
 40
2.5
  9
$DIMCEN
 40
2.5
  9
$DIMTSZ
 40
0.0
  9
$DIMTOL
 70
     0
  9
$DIMLIM
 70
     0
  9
$DIMTIH
 70
     0
  9
$DIMTOH
 70
     0
  9
$DIMSE1
 70
     0
  9
$DIMSE2
 70
     0
  9
$DIMTAD
 70
     1
  9
$DIMZIN
 70
     8
  9
$DIMBLK
  1

  9
$DIMASO
 70
     1
  9
$DIMSHO
 70
     1
  9
$DIMPOST
  1

  9
$DIMAPOST
  1

  9
$DIMALT
 70
     0
  9
$DIMALTD
 70
     3
  9
$DIMALTF
 40
0.0393700787
  9
$DIMLFAC
 40
1.0
  9
$DIMTOFL
 70
     1
  9
$DIMTVP
 40
0.0
  9
$DIMTIX
 70
     0
  9
$DIMSOXD
 70
     0
  9
$DIMSAH
 70
     0
  9
$DIMBLK1
  1

  9
$DIMBLK2
  1

  9
$DIMSTYLE
  2
ISO-25
  9
$DIMCLRD
 70
     0
  9
$DIMCLRE
 70
     0
  9
$DIMCLRT
 70
     0
  9
$DIMTFAC
 40
1.0
  9
$DIMGAP
 40
0.625
  9
$LUNITS
 70
     2
  9
$LUPREC
 70
     4
  9
$SKETCHINC
 40
1.0
  9
$FILLETRAD
 40
10.0
  9
$AUNITS
 70
     0
  9
$AUPREC
 70
     0
  9
$MENU
  1
.
  9
$ELEVATION
 40
0.0
  9
$PELEVATION
 40
0.0
  9
$THICKNESS
 40
0.0
  9
$LIMCHECK
 70
     0
  9
$CHAMFERA
 40
10.0
  9
$CHAMFERB
 40
10.0
  9
$SKPOLY
 70
     0
  9
$TDCREATE
 40
2456136.392487847
  9
$TDUPDATE
 40
2456136.392487859
  9
$TDINDWG
 40
0.0000000116
  9
$TDUSRTIMER
 40
0.0000000116
  9
$USRTIMER
 70
     1
  9
$ANGBASE
 50
0.0
  9
$ANGDIR
 70
     0
  9
$PDMODE
 70
     0
  9
$PDSIZE
 40
0.0
  9
$PLINEWID
 40
0.0
  9
$COORDS
 70
     1
  9
$SPLFRAME
 70
     0
  9
$SPLINETYPE
 70
     6
  9
$SPLINESEGS
 70
     8
  9
$ATTDIA
 70
     0
  9
$ATTREQ
 70
     1
  9
$HANDLING
 70
     1
  9
$HANDSEED
  5
284
  9
$SURFTAB1
 70
     6
  9
$SURFTAB2
 70
     6
  9
$SURFTYPE
 70
     6
  9
$SURFU
 70
     6
  9
$SURFV
 70
     6
  9
$UCSNAME
  2

  9
$UCSORG
 10
0.0
 20
0.0
 30
0.0
  9
$UCSXDIR
 10
1.0
 20
0.0
 30
0.0
  9
$UCSYDIR
 10
0.0
 20
1.0
 30
0.0
  9
$PUCSNAME
  2

  9
$PUCSORG
 10
0.0
 20
0.0
 30
0.0
  9
$PUCSXDIR
 10
1.0
 20
0.0
 30
0.0
  9
$PUCSYDIR
 10
0.0
 20
1.0
 30
0.0
  9
$USERI1
 70
     0
  9
$USERI2
 70
     0
  9
$USERI3
 70
     0
  9
$USERI4
 70
     0
  9
$USERI5
 70
     0
  9
$USERR1
 40
0.0
  9
$USERR2
 40
0.0
  9
$USERR3
 40
0.0
  9
$USERR4
 40
0.0
  9
$USERR5
 40
0.0
  9
$WORLDVIEW
 70
     1
  9
$SHADEDGE
 70
     3
  9
$SHADEDIF
 70
    70
  9
$TILEMODE
 70
     1
  9
$MAXACTVP
 70
    64
  9
$PLIMCHECK
 70
     0
  9
$PEXTMIN
 10
0.0
 20
0.0
 30
0.0
  9
$PEXTMAX
 10
180.0
 20
160.0
 30
0.0
  9
$PLIMMIN
 10
0.0
 20
0.0
  9
$PLIMMAX
 10
180.0
 20
160.0
  9
$UNITMODE
 70
     0
  9
$VISRETAIN
 70
     1
  9
$PLINEGEN
 70
     0
  9
$PSLTSCALE
 70
     1
  0
ENDSEC
  0
SECTION
  2
TABLES
  0
TABLE
  2
VPORT
 70
     1
  0
VPORT
  2
*ACTIVE
 70
     0
 10
0.0
 20
0.0
 11
1.0
 21
1.0
 12
344.1869158879
 22
148.5
 13
0.0
 23
0.0
 14
10.0
 24
10.0
 15
10.0
 25
10.0
 16
0.0
 26
0.0
 36
1.0
 17
0.0
 27
0.0
 37
0.0
 40
297.0
 41
1.9729729729
 42
50.0
 43
0.0
 44
0.0
 50
0.0
 51
0.0
 71
     0
 72
   100
 73
     1
 74
     3
 75
     0
 76
     0
 77
     0
 78
     0
  0
ENDTAB
  0
TABLE
  2
LTYPE
 70
     3
  0
LTYPE
  2
CONTINUOUS
 70
     0
  3
Solid line
 72
    65
 73
     0
 40
0.0
  0
LTYPE
  2
HIDDEN2
 70
     0
  3
Hidden (.5x) _ _ _ _ _ _ _ _ _ _ _ _ _ _ _ _ _ 
 72
    65
 73
     2
 40
4.7625
 49
3.175
 49
-1.5875
  0
LTYPE
  2
DASHDOT2
 70
     0
  3
Dash dot (.5x) _._._._._._._._._._._._._._._.
 72
    65
 73
     4
 40
12.7
 49
6.35
 49
-3.175
 49
0.0
 49
-3.175
  0
ENDTAB
  0
TABLE
  2
LAYER
 70
     5
  0
LAYER
  2
0
 70
     0
 62
     7
  6
CONTINUOUS
  0
LAYER
  2
DEFAULT
 70
     0
 62
     7
  6
CONTINUOUS
  0
LAYER
  2
VISIBLE
 70
     0
 62
     7
  6
CONTINUOUS
  0
LAYER
  2
HIDDEN
 70
     0
 62
     7
  6
CONTINUOUS
  0
LAYER
  2
STANDARD
 70
     0
 62
     7
  6
CONTINUOUS
  0
ENDTAB
  0
TABLE
  2
STYLE
 70
     3
  0
STYLE
  2
STANDARD
 70
     0
 40
0.0
 41
1.0
 50
0.0
 71
     0
 42
2.5
  3
txt
  4

  0
STYLE
  2
SEACAD_ARIAL_TTF
 70
     0
 40
0.0
 41
1.0
 50
0.0
 71
     0
 42
0.2
  3
arial.ttf
  4

  0
STYLE
  2
SEACAD_SEMECA1_TTF
 70
     0
 40
0.0
 41
1.0
 50
0.0
 71
     0
 42
0.2
  3
semeca1.ttf
  4

  0
ENDTAB
  0
TABLE
  2
VIEW
 70
     0
  0
ENDTAB
  0
TABLE
  2
UCS
 70
     0
  0
ENDTAB
  0
TABLE
  2
APPID
 70
     1
  0
APPID
  2
ACAD
 70
     0
  0
ENDTAB
  0
TABLE
  2
DIMSTYLE
 70
     1
  0
DIMSTYLE
  2
ISO-25
 70
     0
  3

  4

  5

  6

  7

 40
1.0
 41
2.5
 42
0.625
 43
3.75
 44
1.25
 45
0.0
 46
0.0
 47
0.0
 48
0.0
140
2.5
141
2.5
142
0.0
143
0.0393700787
144
1.0
145
0.0
146
1.0
147
0.625
 71
     0
 72
     0
 73
     0
 74
     0
 75
     0
 76
     0
 77
     1
 78
     8
170
     0
171
     3
172
     1
173
     0
174
     0
175
     0
176
     0
177
     0
178
     0
  0
ENDTAB
  0
ENDSEC
  0
SECTION
  2
BLOCKS
  0
BLOCK
  8
0
  2
$MODEL_SPACE
 70
     0
 10
0.0
 20
0.0
 30
0.0
  3
$MODEL_SPACE
  1

  0
ENDBLK
  5
21
  8
0
  0
BLOCK
 67
     1
  8
0
  2
$PAPER_SPACE
 70
     0
 10
0.0
 20
0.0
 30
0.0
  3
$PAPER_SPACE
  1

  0
ENDBLK
  5
1D
 67
     1
  8
0
  0
BLOCK
  8
0
  2
SEANNOT_GROUP
 70
     0
 10
0.0
 20
0.0
 30
0.0
  3
SEANNOT_GROUP
  1

  0
POLYLINE
  5
60
  8
DEFAULT
  6
CONTINUOUS
 62
     7
 66
     1
 10
0.0
 20
0.0
 30
0.0
  0
VERTEX
  5
183
  8
DEFAULT
  6
CONTINUOUS
 62
     7
 10
80.4790930224
 20
99.3058541475
 30
0.0
  0
VERTEX
  5
184
  8
DEFAULT
  6
CONTINUOUS
 62
     7
 10
72.6926353809
 20
90.4902754692
 30
0.0
  0
SEQEND
  5
182
  8
DEFAULT
  6
CONTINUOUS
 62
     7
  0
POLYLINE
  5
61
  8
DEFAULT
  6
CONTINUOUS
 62
     7
 66
     1
 10
0.0
 20
0.0
 30
0.0
  0
VERTEX
  5
186
  8
DEFAULT
  6
CONTINUOUS
 62
     7
 10
74.0353542915
 20
92.6398607201
 30
0.0
  0
VERTEX
  5
187
  8
DEFAULT
  6
CONTINUOUS
 62
     7
 10
74.659937675
 20
92.0881905194
 30
0.0
  0
VERTEX
  5
188
  8
DEFAULT
  6
CONTINUOUS
 62
     7
 10
72.6926353809
 20
90.4902754692
 30
0.0
  0
VERTEX
  5
189
  8
DEFAULT
  6
CONTINUOUS
 62
     7
 10
74.0353542915
 20
92.6398607201
 30
0.0
  0
SEQEND
  5
185
  8
DEFAULT
  6
CONTINUOUS
 62
     7
  0
LINE
  5
62
  8
DEFAULT
  6
CONTINUOUS
 62
     7
 10
80.4790930224
 20
99.3058541475
 30
0.0
 11
108.1421365006
 21
99.3058541475
 31
0.0
  0
TEXT
  5
64
  8
DEFAULT
  6
CONTINUOUS
 62
     7
 10
80.4790930224
 20
99.9308541475
 30
0.0
 40
2.5
  1
SK50 DIN69871A
  7
SEACAD_ARIAL_TTF
 11
80.4790930224
 21
102.4308541475
 31
0.0
 73
     3
  0
ENDBLK
  5
66
  8
0
  0
BLOCK
  8
0
  2
SE
 70
     0
 10
0.0
 20
0.0
 30
0.0
  3
SE
  1

  0
LINE
  5
6A
  8
VISIBLE
  6
CONTINUOUS
 62
     7
 10
55.2568809426
 20
55.8974549482
 30
0.0
 11
55.2568809426
 21
59.7674031579
 31
0.0
  0
LINE
  5
6B
  8
VISIBLE
  6
CONTINUOUS
 62
     7
 10
52.5461894315
 20
57.0076331587
 30
0.0
 11
52.5461894315
 21
61.1453041514
 31
0.0
  0
LINE
  5
6C
  8
VISIBLE
  6
CONTINUOUS
 62
     7
 10
50.8575724538
 20
57.0076331587
 30
0.0
 11
50.8575724538
 21
61.1453041514
 31
0.0
  0
LINE
  5
6D
  8
VISIBLE
  6
CONTINUOUS
 62
     7
 10
48.1018809426
 20
55.8974549482
 30
0.0
 11
48.1018809426
 21
59.7674031579
 31
0.0
  0
LINE
  5
6E
  8
VISIBLE
  6
CONTINUOUS
 62
     7
 10
56.6968809426
 20
92.7753825754
 30
0.0
 11
56.6968809426
 21
61.3428825754
 31
0.0
  0
LINE
  5
71
  8
HIDDEN
  6
HIDDEN2
 62
     7
 10
97.3093809426
 20
82.6841325754
 30
0.0
 11
97.3093809426
 21
71.4341325754
 31
0.0
  0
LINE
  5
72
  8
HIDDEN
  6
HIDDEN2
 62
     7
 10
96.735078363
 20
81.7283325754
 30
0.0
 11
96.735078363
 21
72.3899325754
 31
0.0
  0
LINE
  5
73
  8
HIDDEN
  6
HIDDEN2
 62
     7
 10
73.2343809426
 20
81.7283325754
 30
0.0
 11
73.2343809426
 21
72.3899325754
 31
0.0
  0
LINE
  5
74
  8
HIDDEN
  6
HIDDEN2
 62
     7
 10
101.7049580792
 20
71.4341325754
 30
0.0
 11
101.7049580792
 21
82.6841325754
 31
0.0
  0
LINE
  5
75
  8
VISIBLE
  6
CONTINUOUS
 62
     7
 10
102.4843809426
 20
68.8596594517
 30
0.0
 11
102.4843809426
 21
85.2586056991
 31
0.0
  0
LINE
  5
76
  8
VISIBLE
  6
CONTINUOUS
 62
     7
 10
48.1018809426
 20
55.8974549482
 30
0.0
 11
50.2404630737
 21
55.8974549482
 31
0.0
  0
POLYLINE
  5
77
  8
VISIBLE
  6
CONTINUOUS
 62
     7
 66
     1
 10
0.0
 20
0.0
 30
0.0
  0
VERTEX
  5
18A
  8
VISIBLE
  6
CONTINUOUS
 62
     7
 10
50.2404630737
 20
55.8974549482
 30
0.0
  0
VERTEX
  5
18B
  8
VISIBLE
  6
CONTINUOUS
 62
     7
 10
50.2662121262
 20
55.9436921848
 30
0.0
  0
VERTEX
  5
18C
  8
VISIBLE
  6
CONTINUOUS
 62
     7
 10
50.2919581931
 20
55.989931109
 30
0.0
  0
VERTEX
  5
18D
  8
VISIBLE
  6
CONTINUOUS
 62
     7
 10
50.3177012527
 20
56.0361717301
 30
0.0
  0
VERTEX
  5
18E
  8
VISIBLE
  6
CONTINUOUS
 62
     7
 10
50.3434412835
 20
56.0824140573
 30
0.0
  0
VERTEX
  5
18F
  8
VISIBLE
  6
CONTINUOUS
 62
     7
 10
50.3691782637
 20
56.1286580999
 30
0.0
  0
VERTEX
  5
190
  8
VISIBLE
  6
CONTINUOUS
 62
     7
 10
50.3949121717
 20
56.1749038672
 30
0.0
  0
VERTEX
  5
191
  8
VISIBLE
  6
CONTINUOUS
 62
     7
 10
50.4206429857
 20
56.2211513684
 30
0.0
  0
VERTEX
  5
192
  8
VISIBLE
  6
CONTINUOUS
 62
     7
 10
50.4463706842
 20
56.2674006127
 30
0.0
  0
VERTEX
  5
193
  8
VISIBLE
  6
CONTINUOUS
 62
     7
 10
50.4720952454
 20
56.3136516096
 30
0.0
  0
VERTEX
  5
194
  8
VISIBLE
  6
CONTINUOUS
 62
     7
 10
50.4978166476
 20
56.3599043682
 30
0.0
  0
VERTEX
  5
195
  8
VISIBLE
  6
CONTINUOUS
 62
     7
 10
50.5235348693
 20
56.4061588977
 30
0.0
  0
VERTEX
  5
196
  8
VISIBLE
  6
CONTINUOUS
 62
     7
 10
50.5492498886
 20
56.4524152076
 30
0.0
  0
VERTEX
  5
197
  8
VISIBLE
  6
CONTINUOUS
 62
     7
 10
50.574961684
 20
56.4986733069
 30
0.0
  0
VERTEX
  5
198
  8
VISIBLE
  6
CONTINUOUS
 62
     7
 10
50.6006702338
 20
56.5449332051
 30
0.0
  0
VERTEX
  5
199
  8
VISIBLE
  6
CONTINUOUS
 62
     7
 10
50.6263755163
 20
56.5911949113
 30
0.0
  0
VERTEX
  5
19A
  8
VISIBLE
  6
CONTINUOUS
 62
     7
 10
50.6520775098
 20
56.6374584348
 30
0.0
  0
VERTEX
  5
19B
  8
VISIBLE
  6
CONTINUOUS
 62
     7
 10
50.6777761926
 20
56.6837237849
 30
0.0
  0
VERTEX
  5
19C
  8
VISIBLE
  6
CONTINUOUS
 62
     7
 10
50.7034715432
 20
56.7299909709
 30
0.0
  0
VERTEX
  5
19D
  8
VISIBLE
  6
CONTINUOUS
 62
     7
 10
50.7291635397
 20
56.776260002
 30
0.0
  0
VERTEX
  5
19E
  8
VISIBLE
  6
CONTINUOUS
 62
     7
 10
50.7548521605
 20
56.8225308875
 30
0.0
  0
VERTEX
  5
19F
  8
VISIBLE
  6
CONTINUOUS
 62
     7
 10
50.780537384
 20
56.8688036366
 30
0.0
  0
VERTEX
  5
1A0
  8
VISIBLE
  6
CONTINUOUS
 62
     7
 10
50.8062191885
 20
56.9150782587
 30
0.0
  0
VERTEX
  5
1A1
  8
VISIBLE
  6
CONTINUOUS
 62
     7
 10
50.8318975523
 20
56.961354763
 30
0.0
  0
VERTEX
  5
1A2
  8
VISIBLE
  6
CONTINUOUS
 62
     7
 10
50.8575724538
 20
57.0076331587
 30
0.0
  0
SEQEND
  5
1A3
  8
VISIBLE
  6
CONTINUOUS
 62
     7
  0
LINE
  5
78
  8
VISIBLE
  6
CONTINUOUS
 62
     7
 10
50.8575724538
 20
57.3590076948
 30
0.0
 11
52.5461894315
 21
57.3590076948
 31
0.0
  0
POLYLINE
  5
79
  8
VISIBLE
  6
CONTINUOUS
 62
     7
 66
     1
 10
0.0
 20
0.0
 30
0.0
  0
VERTEX
  5
1A4
  8
VISIBLE
  6
CONTINUOUS
 62
     7
 10
52.5461894315
 20
57.0076331587
 30
0.0
  0
VERTEX
  5
1A5
  8
VISIBLE
  6
CONTINUOUS
 62
     7
 10
52.5718643329
 20
56.961354763
 30
0.0
  0
VERTEX
  5
1A6
  8
VISIBLE
  6
CONTINUOUS
 62
     7
 10
52.5975426967
 20
56.9150782587
 30
0.0
  0
VERTEX
  5
1A7
  8
VISIBLE
  6
CONTINUOUS
 62
     7
 10
52.6232245012
 20
56.8688036366
 30
0.0
  0
VERTEX
  5
1A8
  8
VISIBLE
  6
CONTINUOUS
 62
     7
 10
52.6489097247
 20
56.8225308875
 30
0.0
  0
VERTEX
  5
1A9
  8
VISIBLE
  6
CONTINUOUS
 62
     7
 10
52.6745983456
 20
56.776260002
 30
0.0
  0
VERTEX
  5
1AA
  8
VISIBLE
  6
CONTINUOUS
 62
     7
 10
52.7002903421
 20
56.7299909709
 30
0.0
  0
VERTEX
  5
1AB
  8
VISIBLE
  6
CONTINUOUS
 62
     7
 10
52.7259856926
 20
56.6837237849
 30
0.0
  0
VERTEX
  5
1AC
  8
VISIBLE
  6
CONTINUOUS
 62
     7
 10
52.7516843755
 20
56.6374584348
 30
0.0
  0
VERTEX
  5
1AD
  8
VISIBLE
  6
CONTINUOUS
 62
     7
 10
52.7773863689
 20
56.5911949113
 30
0.0
  0
VERTEX
  5
1AE
  8
VISIBLE
  6
CONTINUOUS
 62
     7
 10
52.8030916514
 20
56.5449332051
 30
0.0
  0
VERTEX
  5
1AF
  8
VISIBLE
  6
CONTINUOUS
 62
     7
 10
52.8288002012
 20
56.4986733069
 30
0.0
  0
VERTEX
  5
1B0
  8
VISIBLE
  6
CONTINUOUS
 62
     7
 10
52.8545119966
 20
56.4524152076
 30
0.0
  0
VERTEX
  5
1B1
  8
VISIBLE
  6
CONTINUOUS
 62
     7
 10
52.880227016
 20
56.4061588977
 30
0.0
  0
VERTEX
  5
1B2
  8
VISIBLE
  6
CONTINUOUS
 62
     7
 10
52.9059452376
 20
56.3599043682
 30
0.0
  0
VERTEX
  5
1B3
  8
VISIBLE
  6
CONTINUOUS
 62
     7
 10
52.9316666399
 20
56.3136516096
 30
0.0
  0
VERTEX
  5
1B4
  8
VISIBLE
  6
CONTINUOUS
 62
     7
 10
52.9573912011
 20
56.2674006127
 30
0.0
  0
VERTEX
  5
1B5
  8
VISIBLE
  6
CONTINUOUS
 62
     7
 10
52.9831188995
 20
56.2211513684
 30
0.0
  0
VERTEX
  5
1B6
  8
VISIBLE
  6
CONTINUOUS
 62
     7
 10
53.0088497136
 20
56.1749038672
 30
0.0
  0
VERTEX
  5
1B7
  8
VISIBLE
  6
CONTINUOUS
 62
     7
 10
53.0345836215
 20
56.1286580999
 30
0.0
  0
VERTEX
  5
1B8
  8
VISIBLE
  6
CONTINUOUS
 62
     7
 10
53.0603206017
 20
56.0824140573
 30
0.0
  0
VERTEX
  5
1B9
  8
VISIBLE
  6
CONTINUOUS
 62
     7
 10
53.0860606325
 20
56.0361717301
 30
0.0
  0
VERTEX
  5
1BA
  8
VISIBLE
  6
CONTINUOUS
 62
     7
 10
53.1118036922
 20
55.989931109
 30
0.0
  0
VERTEX
  5
1BB
  8
VISIBLE
  6
CONTINUOUS
 62
     7
 10
53.1375497591
 20
55.9436921848
 30
0.0
  0
VERTEX
  5
1BC
  8
VISIBLE
  6
CONTINUOUS
 62
     7
 10
53.1632988115
 20
55.8974549482
 30
0.0
  0
SEQEND
  5
1BD
  8
VISIBLE
  6
CONTINUOUS
 62
     7
  0
LINE
  5
7A
  8
VISIBLE
  6
CONTINUOUS
 62
     7
 10
53.1632988115
 20
55.8974549482
 30
0.0
 11
55.2568809426
 21
55.8974549482
 31
0.0
  0
LINE
  5
7B
  8
VISIBLE
  6
CONTINUOUS
 62
     7
 10
55.2967590697
 20
93.0341325754
 30
0.0
 11
55.299543578
 21
93.0341325754
 31
0.0
  0
LINE
  5
7C
  8
VISIBLE
  6
CONTINUOUS
 62
     7
 10
50.2404630737
 20
98.2208102027
 30
0.0
 11
48.1018809426
 21
98.2208102027
 31
0.0
  0
LINE
  5
7D
  8
VISIBLE
  6
CONTINUOUS
 62
     7
 10
55.2568809426
 20
98.2208102027
 30
0.0
 11
53.1632988115
 21
98.2208102027
 31
0.0
  0
POLYLINE
  5
7E
  8
VISIBLE
  6
CONTINUOUS
 62
     7
 66
     1
 10
0.0
 20
0.0
 30
0.0
  0
VERTEX
  5
1BE
  8
VISIBLE
  6
CONTINUOUS
 62
     7
 10
53.1632988115
 20
98.2208102027
 30
0.0
  0
VERTEX
  5
1BF
  8
VISIBLE
  6
CONTINUOUS
 62
     7
 10
53.1375495674
 20
98.1745726219
 30
0.0
  0
VERTEX
  5
1C0
  8
VISIBLE
  6
CONTINUOUS
 62
     7
 10
53.1118033328
 20
98.1283333964
 30
0.0
  0
VERTEX
  5
1C1
  8
VISIBLE
  6
CONTINUOUS
 62
     7
 10
53.0860601283
 20
98.0820925151
 30
0.0
  0
VERTEX
  5
1C2
  8
VISIBLE
  6
CONTINUOUS
 62
     7
 10
53.0603199746
 20
98.035849967
 30
0.0
  0
VERTEX
  5
1C3
  8
VISIBLE
  6
CONTINUOUS
 62
     7
 10
53.0345828924
 20
97.9896057412
 30
0.0
  0
VERTEX
  5
1C4
  8
VISIBLE
  6
CONTINUOUS
 62
     7
 10
53.0088489025
 20
97.9433598264
 30
0.0
  0
VERTEX
  5
1C5
  8
VISIBLE
  6
CONTINUOUS
 62
     7
 10
52.9831180254
 20
97.8971122118
 30
0.0
  0
VERTEX
  5
1C6
  8
VISIBLE
  6
CONTINUOUS
 62
     7
 10
52.9573902819
 20
97.8508628863
 30
0.0
  0
VERTEX
  5
1C7
  8
VISIBLE
  6
CONTINUOUS
 62
     7
 10
52.9316656927
 20
97.8046118388
 30
0.0
  0
VERTEX
  5
1C8
  8
VISIBLE
  6
CONTINUOUS
 62
     7
 10
52.9059442784
 20
97.7583590584
 30
0.0
  0
VERTEX
  5
1C9
  8
VISIBLE
  6
CONTINUOUS
 62
     7
 10
52.8802260597
 20
97.7121045339
 30
0.0
  0
VERTEX
  5
1CA
  8
VISIBLE
  6
CONTINUOUS
 62
     7
 10
52.8545110573
 20
97.6658482544
 30
0.0
  0
VERTEX
  5
1CB
  8
VISIBLE
  6
CONTINUOUS
 62
     7
 10
52.828799292
 20
97.6195902089
 30
0.0
  0
VERTEX
  5
1CC
  8
VISIBLE
  6
CONTINUOUS
 62
     7
 10
52.8030907843
 20
97.5733303862
 30
0.0
  0
VERTEX
  5
1CD
  8
VISIBLE
  6
CONTINUOUS
 62
     7
 10
52.777385555
 20
97.5270687754
 30
0.0
  0
VERTEX
  5
1CE
  8
VISIBLE
  6
CONTINUOUS
 62
     7
 10
52.7516836248
 20
97.4808053655
 30
0.0
  0
VERTEX
  5
1CF
  8
VISIBLE
  6
CONTINUOUS
 62
     7
 10
52.7259850143
 20
97.4345401453
 30
0.0
  0
VERTEX
  5
1D0
  8
VISIBLE
  6
CONTINUOUS
 62
     7
 10
52.7002897443
 20
97.3882731039
 30
0.0
  0
VERTEX
  5
1D1
  8
VISIBLE
  6
CONTINUOUS
 62
     7
 10
52.6745978353
 20
97.3420042303
 30
0.0
  0
VERTEX
  5
1D2
  8
VISIBLE
  6
CONTINUOUS
 62
     7
 10
52.6489093082
 20
97.2957335134
 30
0.0
  0
VERTEX
  5
1D3
  8
VISIBLE
  6
CONTINUOUS
 62
     7
 10
52.6232241836
 20
97.2494609421
 30
0.0
  0
VERTEX
  5
1D4
  8
VISIBLE
  6
CONTINUOUS
 62
     7
 10
52.5975424821
 20
97.2031865055
 30
0.0
  0
VERTEX
  5
1D5
  8
VISIBLE
  6
CONTINUOUS
 62
     7
 10
52.5718642245
 20
97.1569101925
 30
0.0
  0
VERTEX
  5
1D6
  8
VISIBLE
  6
CONTINUOUS
 62
     7
 10
52.5461894315
 20
97.1106319921
 30
0.0
  0
SEQEND
  5
1D7
  8
VISIBLE
  6
CONTINUOUS
 62
     7
  0
LINE
  5
7F
  8
VISIBLE
  6
CONTINUOUS
 62
     7
 10
52.5461894315
 20
96.7592574561
 30
0.0
 11
50.8575724538
 21
96.7592574561
 31
0.0
  0
POLYLINE
  5
80
  8
VISIBLE
  6
CONTINUOUS
 62
     7
 66
     1
 10
0.0
 20
0.0
 30
0.0
  0
VERTEX
  5
1D8
  8
VISIBLE
  6
CONTINUOUS
 62
     7
 10
50.8575724538
 20
97.1106319921
 30
0.0
  0
VERTEX
  5
1D9
  8
VISIBLE
  6
CONTINUOUS
 62
     7
 10
50.8318976607
 20
97.1569101925
 30
0.0
  0
VERTEX
  5
1DA
  8
VISIBLE
  6
CONTINUOUS
 62
     7
 10
50.8062194031
 20
97.2031865055
 30
0.0
  0
VERTEX
  5
1DB
  8
VISIBLE
  6
CONTINUOUS
 62
     7
 10
50.7805377017
 20
97.2494609421
 30
0.0
  0
VERTEX
  5
1DC
  8
VISIBLE
  6
CONTINUOUS
 62
     7
 10
50.754852577
 20
97.2957335134
 30
0.0
  0
VERTEX
  5
1DD
  8
VISIBLE
  6
CONTINUOUS
 62
     7
 10
50.7291640499
 20
97.3420042303
 30
0.0
  0
VERTEX
  5
1DE
  8
VISIBLE
  6
CONTINUOUS
 62
     7
 10
50.703472141
 20
97.3882731039
 30
0.0
  0
VERTEX
  5
1DF
  8
VISIBLE
  6
CONTINUOUS
 62
     7
 10
50.6777768709
 20
97.4345401453
 30
0.0
  0
VERTEX
  5
1E0
  8
VISIBLE
  6
CONTINUOUS
 62
     7
 10
50.6520782604
 20
97.4808053655
 30
0.0
  0
VERTEX
  5
1E1
  8
VISIBLE
  6
CONTINUOUS
 62
     7
 10
50.6263763302
 20
97.5270687754
 30
0.0
  0
VERTEX
  5
1E2
  8
VISIBLE
  6
CONTINUOUS
 62
     7
 10
50.6006711009
 20
97.5733303862
 30
0.0
  0
VERTEX
  5
1E3
  8
VISIBLE
  6
CONTINUOUS
 62
     7
 10
50.5749625933
 20
97.6195902089
 30
0.0
  0
VERTEX
  5
1E4
  8
VISIBLE
  6
CONTINUOUS
 62
     7
 10
50.5492508279
 20
97.6658482544
 30
0.0
  0
VERTEX
  5
1E5
  8
VISIBLE
  6
CONTINUOUS
 62
     7
 10
50.5235358256
 20
97.7121045339
 30
0.0
  0
VERTEX
  5
1E6
  8
VISIBLE
  6
CONTINUOUS
 62
     7
 10
50.4978176069
 20
97.7583590584
 30
0.0
  0
VERTEX
  5
1E7
  8
VISIBLE
  6
CONTINUOUS
 62
     7
 10
50.4720961926
 20
97.8046118388
 30
0.0
  0
VERTEX
  5
1E8
  8
VISIBLE
  6
CONTINUOUS
 62
     7
 10
50.4463716033
 20
97.8508628863
 30
0.0
  0
VERTEX
  5
1E9
  8
VISIBLE
  6
CONTINUOUS
 62
     7
 10
50.4206438598
 20
97.8971122118
 30
0.0
  0
VERTEX
  5
1EA
  8
VISIBLE
  6
CONTINUOUS
 62
     7
 10
50.3949129828
 20
97.9433598264
 30
0.0
  0
VERTEX
  5
1EB
  8
VISIBLE
  6
CONTINUOUS
 62
     7
 10
50.3691789928
 20
97.9896057412
 30
0.0
  0
VERTEX
  5
1EC
  8
VISIBLE
  6
CONTINUOUS
 62
     7
 10
50.3434419106
 20
98.035849967
 30
0.0
  0
VERTEX
  5
1ED
  8
VISIBLE
  6
CONTINUOUS
 62
     7
 10
50.317701757
 20
98.0820925151
 30
0.0
  0
VERTEX
  5
1EE
  8
VISIBLE
  6
CONTINUOUS
 62
     7
 10
50.2919585525
 20
98.1283333964
 30
0.0
  0
VERTEX
  5
1EF
  8
VISIBLE
  6
CONTINUOUS
 62
     7
 10
50.2662123178
 20
98.1745726219
 30
0.0
  0
VERTEX
  5
1F0
  8
VISIBLE
  6
CONTINUOUS
 62
     7
 10
50.2404630737
 20
98.2208102027
 30
0.0
  0
SEQEND
  5
1F1
  8
VISIBLE
  6
CONTINUOUS
 62
     7
  0
LINE
  5
81
  8
VISIBLE
  6
CONTINUOUS
 62
     7
 10
55.2568809426
 20
63.5591325754
 30
0.0
 11
55.2568809426
 21
98.2208102027
 31
0.0
  0
LINE
  5
82
  8
VISIBLE
  6
CONTINUOUS
 62
     7
 10
55.2568809426
 20
59.7674031579
 30
0.0
 11
55.2568809426
 21
63.5591325754
 31
0.0
  0
LINE
  5
83
  8
VISIBLE
  6
CONTINUOUS
 62
     7
 10
52.5461894315
 20
63.5591325754
 30
0.0
 11
52.5461894315
 21
97.1106319921
 31
0.0
  0
LINE
  5
84
  8
VISIBLE
  6
CONTINUOUS
 62
     7
 10
50.8575724538
 20
63.5591325754
 30
0.0
 11
50.8575724538
 21
97.1106319921
 31
0.0
  0
LINE
  5
85
  8
VISIBLE
  6
CONTINUOUS
 62
     7
 10
48.1018809426
 20
63.5591325754
 30
0.0
 11
48.1018809426
 21
98.2208102027
 31
0.0
  0
LINE
  5
86
  8
VISIBLE
  6
CONTINUOUS
 62
     7
 10
48.1018809426
 20
63.5591325754
 30
0.0
 11
48.1018809426
 21
59.7674031579
 31
0.0
  0
LINE
  5
87
  8
VISIBLE
  6
CONTINUOUS
 62
     7
 10
48.1018809426
 20
59.7674031579
 30
0.0
 11
50.2404630737
 21
59.7674031579
 31
0.0
  0
POLYLINE
  5
88
  8
VISIBLE
  6
CONTINUOUS
 62
     7
 66
     1
 10
0.0
 20
0.0
 30
0.0
  0
VERTEX
  5
1F2
  8
VISIBLE
  6
CONTINUOUS
 62
     7
 10
50.2404630737
 20
59.7674031579
 30
0.0
  0
VERTEX
  5
1F3
  8
VISIBLE
  6
CONTINUOUS
 62
     7
 10
50.2665048766
 20
59.824663352
 30
0.0
  0
VERTEX
  5
1F4
  8
VISIBLE
  6
CONTINUOUS
 62
     7
 10
50.2925204216
 20
59.8819380213
 30
0.0
  0
VERTEX
  5
1F5
  8
VISIBLE
  6
CONTINUOUS
 62
     7
 10
50.3185093891
 20
59.9392269983
 30
0.0
  0
VERTEX
  5
1F6
  8
VISIBLE
  6
CONTINUOUS
 62
     7
 10
50.3444714597
 20
59.9965301156
 30
0.0
  0
VERTEX
  5
1F7
  8
VISIBLE
  6
CONTINUOUS
 62
     7
 10
50.3704063139
 20
60.0538472058
 30
0.0
  0
VERTEX
  5
1F8
  8
VISIBLE
  6
CONTINUOUS
 62
     7
 10
50.3963136321
 20
60.1111781016
 30
0.0
  0
VERTEX
  5
1F9
  8
VISIBLE
  6
CONTINUOUS
 62
     7
 10
50.4221930947
 20
60.1685226356
 30
0.0
  0
VERTEX
  5
1FA
  8
VISIBLE
  6
CONTINUOUS
 62
     7
 10
50.4480443824
 20
60.2258806403
 30
0.0
  0
VERTEX
  5
1FB
  8
VISIBLE
  6
CONTINUOUS
 62
     7
 10
50.4738671755
 20
60.2832519484
 30
0.0
  0
VERTEX
  5
1FC
  8
VISIBLE
  6
CONTINUOUS
 62
     7
 10
50.4996611546
 20
60.3406363925
 30
0.0
  0
VERTEX
  5
1FD
  8
VISIBLE
  6
CONTINUOUS
 62
     7
 10
50.525426
 20
60.3980338052
 30
0.0
  0
VERTEX
  5
1FE
  8
VISIBLE
  6
CONTINUOUS
 62
     7
 10
50.5511613924
 20
60.4554440191
 30
0.0
  0
VERTEX
  5
1FF
  8
VISIBLE
  6
CONTINUOUS
 62
     7
 10
50.5768670122
 20
60.5128668668
 30
0.0
  0
VERTEX
  5
200
  8
VISIBLE
  6
CONTINUOUS
 62
     7
 10
50.6025425398
 20
60.570302181
 30
0.0
  0
VERTEX
  5
201
  8
VISIBLE
  6
CONTINUOUS
 62
     7
 10
50.6281876557
 20
60.6277497942
 30
0.0
  0
VERTEX
  5
202
  8
VISIBLE
  6
CONTINUOUS
 62
     7
 10
50.6538020405
 20
60.6852095391
 30
0.0
  0
VERTEX
  5
203
  8
VISIBLE
  6
CONTINUOUS
 62
     7
 10
50.6793853746
 20
60.7426812483
 30
0.0
  0
VERTEX
  5
204
  8
VISIBLE
  6
CONTINUOUS
 62
     7
 10
50.7049373384
 20
60.8001647543
 30
0.0
  0
VERTEX
  5
205
  8
VISIBLE
  6
CONTINUOUS
 62
     7
 10
50.7304576126
 20
60.8576598898
 30
0.0
  0
VERTEX
  5
206
  8
VISIBLE
  6
CONTINUOUS
 62
     7
 10
50.7559458774
 20
60.9151664875
 30
0.0
  0
VERTEX
  5
207
  8
VISIBLE
  6
CONTINUOUS
 62
     7
 10
50.7814018135
 20
60.9726843799
 30
0.0
  0
VERTEX
  5
208
  8
VISIBLE
  6
CONTINUOUS
 62
     7
 10
50.8068251012
 20
61.0302133996
 30
0.0
  0
VERTEX
  5
209
  8
VISIBLE
  6
CONTINUOUS
 62
     7
 10
50.8322154212
 20
61.0877533792
 30
0.0
  0
VERTEX
  5
20A
  8
VISIBLE
  6
CONTINUOUS
 62
     7
 10
50.8575724538
 20
61.1453041514
 30
0.0
  0
SEQEND
  5
20B
  8
VISIBLE
  6
CONTINUOUS
 62
     7
  0
LINE
  5
89
  8
VISIBLE
  6
CONTINUOUS
 62
     7
 10
50.8575724538
 20
61.1453041514
 30
0.0
 11
50.8575724538
 21
61.5903825754
 31
0.0
  0
LINE
  5
8A
  8
VISIBLE
  6
CONTINUOUS
 62
     7
 10
50.8575724538
 20
61.5903825754
 30
0.0
 11
52.5461894315
 21
61.5903825754
 31
0.0
  0
LINE
  5
8B
  8
VISIBLE
  6
CONTINUOUS
 62
     7
 10
52.5461894315
 20
61.5903825754
 30
0.0
 11
52.5461894315
 21
61.1453041514
 31
0.0
  0
POLYLINE
  5
8C
  8
VISIBLE
  6
CONTINUOUS
 62
     7
 66
     1
 10
0.0
 20
0.0
 30
0.0
  0
VERTEX
  5
20C
  8
VISIBLE
  6
CONTINUOUS
 62
     7
 10
52.5461894315
 20
61.1453041514
 30
0.0
  0
VERTEX
  5
20D
  8
VISIBLE
  6
CONTINUOUS
 62
     7
 10
52.571555552
 20
61.0877327441
 30
0.0
  0
VERTEX
  5
20E
  8
VISIBLE
  6
CONTINUOUS
 62
     7
 10
52.5969535884
 20
61.030175256
 30
0.0
  0
VERTEX
  5
20F
  8
VISIBLE
  6
CONTINUOUS
 62
     7
 10
52.6223833005
 20
60.972631673
 30
0.0
  0
VERTEX
  5
210
  8
VISIBLE
  6
CONTINUOUS
 62
     7
 10
52.647844448
 20
60.9151019806
 30
0.0
  0
VERTEX
  5
211
  8
VISIBLE
  6
CONTINUOUS
 62
     7
 10
52.6733367906
 20
60.8575861645
 30
0.0
  0
VERTEX
  5
212
  8
VISIBLE
  6
CONTINUOUS
 62
     7
 10
52.6988600881
 20
60.8000842106
 30
0.0
  0
VERTEX
  5
213
  8
VISIBLE
  6
CONTINUOUS
 62
     7
 10
52.7244141002
 20
60.7425961045
 30
0.0
  0
VERTEX
  5
214
  8
VISIBLE
  6
CONTINUOUS
 62
     7
 10
52.7499985865
 20
60.6851218318
 30
0.0
  0
VERTEX
  5
215
  8
VISIBLE
  6
CONTINUOUS
 62
     7
 10
52.7756133069
 20
60.6276613783
 30
0.0
  0
VERTEX
  5
216
  8
VISIBLE
  6
CONTINUOUS
 62
     7
 10
52.8012580211
 20
60.5702147298
 30
0.0
  0
VERTEX
  5
217
  8
VISIBLE
  6
CONTINUOUS
 62
     7
 10
52.8269324887
 20
60.5127818718
 30
0.0
  0
VERTEX
  5
218
  8
VISIBLE
  6
CONTINUOUS
 62
     7
 10
52.8526364696
 20
60.4553627902
 30
0.0
  0
VERTEX
  5
219
  8
VISIBLE
  6
CONTINUOUS
 62
     7
 10
52.8783697234
 20
60.3979574705
 30
0.0
  0
VERTEX
  5
21A
  8
VISIBLE
  6
CONTINUOUS
 62
     7
 10
52.9041320099
 20
60.3405658986
 30
0.0
  0
VERTEX
  5
21B
  8
VISIBLE
  6
CONTINUOUS
 62
     7
 10
52.9299230888
 20
60.28318806
 30
0.0
  0
VERTEX
  5
21C
  8
VISIBLE
  6
CONTINUOUS
 62
     7
 10
52.9557427197
 20
60.2258239406
 30
0.0
  0
VERTEX
  5
21D
  8
VISIBLE
  6
CONTINUOUS
 62
     7
 10
52.9815906626
 20
60.168473526
 30
0.0
  0
VERTEX
  5
21E
  8
VISIBLE
  6
CONTINUOUS
 62
     7
 10
53.007466677
 20
60.1111368019
 30
0.0
  0
VERTEX
  5
21F
  8
VISIBLE
  6
CONTINUOUS
 62
     7
 10
53.0333705228
 20
60.0538137541
 30
0.0
  0
VERTEX
  5
220
  8
VISIBLE
  6
CONTINUOUS
 62
     7
 10
53.0593019595
 20
59.9965043682
 30
0.0
  0
VERTEX
  5
221
  8
VISIBLE
  6
CONTINUOUS
 62
     7
 10
53.0852607471
 20
59.9392086299
 30
0.0
  0
VERTEX
  5
222
  8
VISIBLE
  6
CONTINUOUS
 62
     7
 10
53.1112466451
 20
59.8819265249
 30
0.0
  0
VERTEX
  5
223
  8
VISIBLE
  6
CONTINUOUS
 62
     7
 10
53.1372594133
 20
59.824658039
 30
0.0
  0
VERTEX
  5
224
  8
VISIBLE
  6
CONTINUOUS
 62
     7
 10
53.1632988115
 20
59.7674031579
 30
0.0
  0
SEQEND
  5
225
  8
VISIBLE
  6
CONTINUOUS
 62
     7
  0
LINE
  5
8D
  8
VISIBLE
  6
CONTINUOUS
 62
     7
 10
53.1632988115
 20
59.7674031579
 30
0.0
 11
55.2568809426
 21
59.7674031579
 31
0.0
  0
LINE
  5
8E
  8
VISIBLE
  6
CONTINUOUS
 62
     7
 10
50.2404630737
 20
63.5591325754
 30
0.0
 11
48.1018809426
 21
63.5591325754
 31
0.0
  0
LINE
  5
8F
  8
VISIBLE
  6
CONTINUOUS
 62
     7
 10
55.2568809426
 20
63.5591325754
 30
0.0
 11
53.1632988115
 21
63.5591325754
 31
0.0
  0
LINE
  5
90
  8
VISIBLE
  6
CONTINUOUS
 62
     7
 10
53.1632988115
 20
63.5591325754
 30
0.0
 11
52.5461894315
 21
63.5591325754
 31
0.0
  0
LINE
  5
91
  8
VISIBLE
  6
CONTINUOUS
 62
     7
 10
52.5461894315
 20
63.5591325754
 30
0.0
 11
50.8575724538
 21
63.5591325754
 31
0.0
  0
LINE
  5
92
  8
VISIBLE
  6
CONTINUOUS
 62
     7
 10
50.8575724538
 20
63.5591325754
 30
0.0
 11
50.2404630737
 21
63.5591325754
 31
0.0
  0
LINE
  5
93
  8
VISIBLE
  6
CONTINUOUS
 62
     7
 10
29.6968809426
 20
94.1591325754
 30
0.0
 11
29.6968809426
 21
59.9591325754
 31
0.0
  0
LINE
  5
94
  8
HIDDEN
  6
HIDDEN2
 62
     7
 10
49.6908142906
 20
84.2591325754
 30
0.0
 11
49.6908142906
 21
69.8591325754
 31
0.0
  0
LINE
  5
95
  8
0
  6
HIDDEN2
 62
     7
 10
54.8968809426
 20
70.2416325754
 30
0.0
 11
54.8968809426
 21
78.4442557932
 31
0.0
  0
LINE
  5
96
  8
HIDDEN
  6
HIDDEN2
 62
     7
 10
34.6468809426
 20
91.0541325754
 30
0.0
 11
34.6468809426
 21
63.0641325754
 31
0.0
  0
LINE
  5
97
  8
0
  6
HIDDEN2
 62
     7
 10
35.3218809426
 20
90.8291325754
 30
0.0
 11
35.3218809426
 21
63.2891325754
 31
0.0
  0
LINE
  5
98
  8
HIDDEN
  6
HIDDEN2
 62
     7
 10
50.9508142906
 20
84.2591325754
 30
0.0
 11
50.9508142906
 21
69.8591325754
 31
0.0
  0
LINE
  5
99
  8
HIDDEN
  6
HIDDEN2
 62
     7
 10
71.5612244629
 20
78.9437325754
 30
0.0
 11
71.5612244629
 21
75.1745325754
 31
0.0
  0
LINE
  5
9A
  8
0
  6
HIDDEN2
 62
     7
 10
57.6851145592
 20
75.1745325754
 30
0.0
 11
57.6851145592
 21
78.9437325754
 31
0.0
  0
LINE
  5
9B
  8
0
  6
HIDDEN2
 62
     7
 10
54.8968809426
 20
80.265888055
 30
0.0
 11
54.8968809426
 21
78.4442557932
 31
0.0
  0
LINE
  5
9C
  8
0
  6
HIDDEN2
 62
     7
 10
54.8968809426
 20
83.8766325754
 30
0.0
 11
54.8968809426
 21
80.2888720504
 31
0.0
  0
ARC
  5
9D
  8
VISIBLE
  6
CONTINUOUS
 62
     7
 10
48.4099299913
 20
35.4957420336
 30
0.0
 40
24.69817601258832
 50
95.1521105452
 51
103.523557915
  0
LINE
  5
9E
  8
VISIBLE
  6
CONTINUOUS
 62
     7
 10
46.1920298359
 20
60.0941325754
 30
0.0
 11
47.6518809426
 21
60.0941325754
 31
0.0
  0
ARC
  5
9F
  8
VISIBLE
  6
CONTINUOUS
 62
     7
 10
48.1300784451
 20
116.6046177001
 30
0.0
 40
22.89830205819392
 50
261.9110953004
 51
268.8033745683
  0
ARC
  5
A0
  8
VISIBLE
  6
CONTINUOUS
 62
     7
 10
48.7377953601
 20
113.9229242849
 30
0.0
 40
20.35236089087378
 50
251.6171734543
 51
259.1539300295
  0
ARC
  5
A1
  8
VISIBLE
  6
CONTINUOUS
 62
     7
 10
47.6829430135
 20
94.1598367566
 30
0.0
 40
0.4496016342761839
 50
266.0383942208
 51
329.878483249
  0
ARC
  5
A2
  8
VISIBLE
  6
CONTINUOUS
 62
     7
 10
47.7619111058
 20
59.8037920472
 30
0.0
 40
0.3401564221784859
 50
1.8978284012
 51
58.5999168618
  0
LINE
  5
A3
  8
VISIBLE
  6
CONTINUOUS
 62
     7
 10
47.9391362994
 20
60.0941325754
 30
0.0
 11
47.6518809426
 21
60.0941325754
 31
0.0
  0
LINE
  5
A4
  8
VISIBLE
  6
CONTINUOUS
 62
     7
 10
56.6968809426
 20
61.3428825754
 30
0.0
 11
101.5184799226
 21
67.7459662648
 31
0.0
  0
LINE
  5
A5
  8
VISIBLE
  6
CONTINUOUS
 62
     7
 10
101.5184799226
 20
86.372298886
 30
0.0
 11
56.6968809426
 21
92.7753825754
 31
0.0
  0
LINE
  5
A6
  8
VISIBLE
  6
CONTINUOUS
 62
     7
 10
55.7068809426
 20
61.3428825754
 30
0.0
 11
56.6968809426
 21
61.3428825754
 31
0.0
  0
LINE
  5
A7
  8
VISIBLE
  6
CONTINUOUS
 62
     7
 10
56.6968809426
 20
92.7753825754
 30
0.0
 11
55.7068809426
 21
92.7753825754
 31
0.0
  0
LINE
  5
A8
  8
HIDDEN
  6
HIDDEN2
 62
     7
 10
97.3093809426
 20
71.4341325754
 30
0.0
 11
101.7049580792
 21
71.4341325754
 31
0.0
  0
LINE
  5
A9
  8
HIDDEN
  6
HIDDEN2
 62
     7
 10
101.7049580792
 20
82.6841325754
 30
0.0
 11
97.3093809426
 21
82.6841325754
 31
0.0
  0
LINE
  5
AA
  8
HIDDEN
  6
HIDDEN2
 62
     7
 10
97.3093809426
 20
82.6841325754
 30
0.0
 11
96.735078363
 21
81.7283325754
 31
0.0
  0
LINE
  5
AB
  8
HIDDEN
  6
HIDDEN2
 62
     7
 10
96.735078363
 20
72.3899325754
 30
0.0
 11
97.3093809426
 21
71.4341325754
 31
0.0
  0
LINE
  5
AC
  8
HIDDEN
  6
HIDDEN2
 62
     7
 10
73.2343809426
 20
72.3899325754
 30
0.0
 11
96.735078363
 21
72.3899325754
 31
0.0
  0
LINE
  5
AD
  8
HIDDEN
  6
HIDDEN2
 62
     7
 10
96.735078363
 20
81.7283325754
 30
0.0
 11
73.2343809426
 21
81.7283325754
 31
0.0
  0
LINE
  5
AE
  8
HIDDEN
  6
HIDDEN2
 62
     7
 10
73.2343809426
 20
81.7283325754
 30
0.0
 11
71.5612244629
 21
78.9437325754
 31
0.0
  0
LINE
  5
AF
  8
HIDDEN
  6
HIDDEN2
 62
     7
 10
71.5612244629
 20
75.1745325754
 30
0.0
 11
73.2343809426
 21
72.3899325754
 31
0.0
  0
LINE
  5
B0
  8
0
  6
HIDDEN2
 62
     7
 10
102.4843809426
 20
83.1341325754
 30
0.0
 11
101.7049580792
 21
82.6841325754
 31
0.0
  0
LINE
  5
B1
  8
HIDDEN
  6
HIDDEN2
 62
     7
 10
101.7049580792
 20
71.4341325754
 30
0.0
 11
102.4843809426
 21
70.9841325754
 31
0.0
  0
ARC
  5
B2
  8
VISIBLE
  6
CONTINUOUS
 62
     7
 10
101.3593809426
 20
85.2586056991
 30
0.0
 40
1.125000000000001
 50
0.0
 51
81.8699
  0
ARC
  5
B3
  8
VISIBLE
  6
CONTINUOUS
 62
     7
 10
101.3593809426
 20
68.8596594517
 30
0.0
 40
1.125
 50
278.1301
 51
0.0
  0
ARC
  5
B4
  8
VISIBLE
  6
CONTINUOUS
 62
     7
 10
55.7068809426
 20
93.2253825754
 30
0.0
 40
0.4500000000000004
 50
205.1220349258
 51
270.0
  0
ARC
  5
B5
  8
VISIBLE
  6
CONTINUOUS
 62
     7
 10
55.7068809426
 20
60.8928825754
 30
0.0
 40
0.4500000000000004
 50
90.0
 51
180.0
  0
LINE
  5
B6
  8
VISIBLE
  6
CONTINUOUS
 62
     7
 10
30.1468809426
 20
94.6091325754
 30
0.0
 11
29.6968809426
 21
94.1591325754
 31
0.0
  0
LINE
  5
B7
  8
VISIBLE
  6
CONTINUOUS
 62
     7
 10
29.6968809426
 20
59.9591325754
 30
0.0
 11
30.1468809426
 21
59.5091325754
 31
0.0
  0
LINE
  5
B8
  8
0
  6
HIDDEN2
 62
     7
 10
36.6766486111
 20
68.1565247146
 30
0.0
 11
49.4317163083
 21
69.9491325754
 31
0.0
  0
LINE
  5
B9
  8
0
  6
HIDDEN2
 62
     7
 10
49.4317163083
 20
84.1691325754
 30
0.0
 11
36.6766486111
 21
85.9617404363
 31
0.0
  0
LINE
  5
BA
  8
HIDDEN
  6
HIDDEN2
 62
     7
 10
49.4317163083
 20
69.9491325754
 30
0.0
 11
49.5349297179
 21
69.9491325754
 31
0.0
  0
LINE
  5
BB
  8
0
  6
HIDDEN2
 62
     7
 10
49.6908142906
 20
84.2591325754
 30
0.0
 11
49.5349297179
 21
84.1691325754
 31
0.0
  0
LINE
  5
BC
  8
HIDDEN
  6
HIDDEN2
 62
     7
 10
49.5349297179
 20
69.9491325754
 30
0.0
 11
49.6908142906
 21
69.8591325754
 31
0.0
  0
LINE
  5
BD
  8
0
  6
HIDDEN2
 62
     7
 10
50.9508142906
 20
69.8591325754
 30
0.0
 11
51.067232657
 21
70.1789894082
 31
0.0
  0
LINE
  5
BE
  8
HIDDEN
  6
HIDDEN2
 62
     7
 10
51.067232657
 20
83.9392757426
 30
0.0
 11
50.9508142906
 21
84.2591325754
 31
0.0
  0
LINE
  5
BF
  8
0
  6
HIDDEN2
 62
     7
 10
51.067232657
 20
70.1789894082
 30
0.0
 11
51.5129619521
 21
70.2416325754
 31
0.0
  0
LINE
  5
C0
  8
0
  6
HIDDEN2
 62
     7
 10
51.5129619521
 20
70.2416325754
 30
0.0
 11
54.8968809426
 21
70.2416325754
 31
0.0
  0
LINE
  5
C1
  8
0
  6
HIDDEN2
 62
     7
 10
54.8968809426
 20
83.8766325754
 30
0.0
 11
51.5129619521
 21
83.8766325754
 31
0.0
  0
LINE
  5
C2
  8
0
  6
HIDDEN2
 62
     7
 10
49.5349297179
 20
84.1691325754
 30
0.0
 11
49.4317163083
 21
84.1691325754
 31
0.0
  0
LINE
  5
C3
  8
0
  6
HIDDEN2
 62
     7
 10
51.5129619521
 20
83.8766325754
 30
0.0
 11
51.067232657
 21
83.9392757426
 31
0.0
  0
LINE
  5
C4
  8
HIDDEN
  6
HIDDEN2
 62
     7
 10
34.6468809426
 20
63.0641325754
 30
0.0
 11
35.0968809426
 21
63.0641325754
 31
0.0
  0
LINE
  5
C5
  8
HIDDEN
  6
HIDDEN2
 62
     7
 10
35.0968809426
 20
91.0541325754
 30
0.0
 11
34.6468809426
 21
91.0541325754
 31
0.0
  0
ARC
  5
C6
  8
HIDDEN
  6
HIDDEN2
 62
     7
 10
35.0968809426
 20
63.2891325754
 30
0.0
 40
0.2250000000000002
 50
270.0
 51
0.0
  0
ARC
  5
C7
  8
HIDDEN
  6
HIDDEN2
 62
     7
 10
35.0968809426
 20
90.8291325754
 30
0.0
 40
0.2250000000000002
 50
0.0
 51
90.0
  0
LINE
  5
C8
  8
0
  6
HIDDEN2
 62
     7
 10
35.3218809426
 20
65.8099982803
 30
0.0
 11
36.6766486111
 21
68.1565247146
 31
0.0
  0
LINE
  5
C9
  8
0
  6
HIDDEN2
 62
     7
 10
36.6766486111
 20
85.9617404363
 30
0.0
 11
35.3218809426
 21
88.3082668705
 31
0.0
  0
LINE
  5
CA
  8
HIDDEN
  6
HIDDEN2
 62
     7
 10
49.6908142906
 20
69.8591325754
 30
0.0
 11
50.9508142906
 21
69.8591325754
 31
0.0
  0
LINE
  5
CB
  8
HIDDEN
  6
HIDDEN2
 62
     7
 10
50.9508142906
 20
84.2591325754
 30
0.0
 11
49.6908142906
 21
84.2591325754
 31
0.0
  0
LINE
  5
CC
  8
0
  6
HIDDEN2
 62
     7
 10
54.8968809426
 20
70.5341325754
 30
0.0
 11
57.6851145592
 21
75.1745325754
 31
0.0
  0
LINE
  5
CD
  8
0
  6
HIDDEN2
 62
     7
 10
57.6851145592
 20
78.9437325754
 30
0.0
 11
54.8968809426
 21
83.5841325754
 31
0.0
  0
LINE
  5
CE
  8
0
  6
HIDDEN2
 62
     7
 10
69.2968809426
 20
78.9437325754
 30
0.0
 11
57.6851145592
 21
78.9437325754
 31
0.0
  0
LINE
  5
CF
  8
0
  6
HIDDEN2
 62
     7
 10
57.6851145592
 20
75.1745325754
 30
0.0
 11
69.2968809426
 21
75.1745325754
 31
0.0
  0
LINE
  5
D0
  8
0
  6
HIDDEN2
 62
     7
 10
71.5612244629
 20
78.9437325754
 30
0.0
 11
69.2968809426
 21
78.9437325754
 31
0.0
  0
LINE
  5
D1
  8
0
  6
HIDDEN2
 62
     7
 10
69.2968809426
 20
75.1745325754
 30
0.0
 11
71.5612244629
 21
75.1745325754
 31
0.0
  0
LINE
  5
D2
  8
VISIBLE
  6
CONTINUOUS
 62
     7
 10
30.1468809426
 20
59.5091325754
 30
0.0
 11
42.6381116563
 21
59.5091325754
 31
0.0
  0
LINE
  5
D3
  8
VISIBLE
  6
CONTINUOUS
 62
     7
 10
42.3193809426
 20
94.6091325754
 30
0.0
 11
30.1468809426
 21
94.6091325754
 31
0.0
  0
LINE
  5
D4
  8
HIDDEN
  6
HIDDEN2
 62
     7
 10
97.1741873033
 20
71.6591325754
 30
0.0
 11
80.8843809426
 21
71.6591325754
 31
0.0
  0
LINE
  5
D5
  8
HIDDEN
  6
HIDDEN2
 62
     7
 10
97.1741873033
 20
82.4591325754
 30
0.0
 11
80.8843809426
 21
82.4591325754
 31
0.0
  0
LINE
  5
D6
  8
HIDDEN
  6
HIDDEN2
 62
     7
 10
80.8843809426
 20
82.4591325754
 30
0.0
 11
80.8843809426
 21
71.6591325754
 31
0.0
  0
LINE
  5
D7
  8
0
  6
HIDDEN2
 62
     7
 10
29.7228617047
 20
91.0091325754
 30
0.0
 11
34.6468809426
 21
91.0091325754
 31
0.0
  0
LINE
  5
D8
  8
HIDDEN
  6
HIDDEN2
 62
     7
 10
29.7228617047
 20
63.1091325754
 30
0.0
 11
34.6468809426
 21
63.1091325754
 31
0.0
  0
LINE
  5
D9
  8
VISIBLE
  6
CONTINUOUS
 62
     7
 10
29.0218809426
 20
87.8018660992
 30
0.0
 11
29.0218809426
 21
89.3768660992
 31
0.0
  0
LINE
  5
DA
  8
VISIBLE
  6
CONTINUOUS
 62
     7
 10
25.6468809426
 20
89.8841325754
 30
0.0
 11
25.6468809426
 21
88.8681686129
 31
0.0
  0
LINE
  5
DB
  8
VISIBLE
  6
CONTINUOUS
 62
     7
 10
25.6468809426
 20
87.2961405998
 30
0.0
 11
25.7432295564
 21
87.378408379
 31
0.0
  0
LINE
  5
DC
  8
VISIBLE
  6
CONTINUOUS
 62
     7
 10
25.7432295564
 20
88.953408379
 30
0.0
 11
25.6468809426
 21
88.8681686129
 31
0.0
  0
ARC
  5
DD
  8
VISIBLE
  6
CONTINUOUS
 62
     7
 10
28.7081511849
 20
89.7474407293
 30
0.0
 40
0.4855429098286042
 50
269.4727180946
 51
310.2513668514
  0
LINE
  5
DE
  8
VISIBLE
  6
CONTINUOUS
 62
     7
 10
28.7036828911
 20
89.26191838
 30
0.0
 11
26.0968809426
 21
89.26191838
 31
0.0
  0
LINE
  5
DF
  8
VISIBLE
  6
CONTINUOUS
 62
     7
 10
26.0968809426
 20
89.26191838
 30
0.0
 11
25.7432295564
 21
88.953408379
 31
0.0
  0
LINE
  5
E0
  8
VISIBLE
  6
CONTINUOUS
 62
     7
 10
26.0968809426
 20
87.68691838
 30
0.0
 11
28.7036828911
 21
87.68691838
 31
0.0
  0
ARC
  5
E1
  8
VISIBLE
  6
CONTINUOUS
 62
     7
 10
28.7081458845
 20
88.1724554019
 30
0.0
 40
0.4855575331196564
 50
269.4733594529
 51
310.2507254932
  0
LINE
  5
E2
  8
VISIBLE
  6
CONTINUOUS
 62
     7
 10
25.7432295564
 20
87.378408379
 30
0.0
 11
26.0968809426
 21
87.68691838
 31
0.0
  0
LINE
  5
E3
  8
VISIBLE
  6
CONTINUOUS
 62
     7
 10
25.6468809426
 20
87.2876910993
 30
0.0
 11
25.6468809426
 21
88.8681686129
 31
0.0
  0
LINE
  5
E4
  8
VISIBLE
  6
CONTINUOUS
 62
     7
 10
29.0218809426
 20
75.4841325754
 30
0.0
 11
29.0218809426
 21
78.6341325754
 31
0.0
  0
LINE
  5
E5
  8
VISIBLE
  6
CONTINUOUS
 62
     7
 10
25.6468809426
 20
78.6311605886
 30
0.0
 11
25.6468809426
 21
87.2961405998
 31
0.0
  0
LINE
  5
E6
  8
VISIBLE
  6
CONTINUOUS
 62
     7
 10
25.6468809426
 20
75.4871045623
 30
0.0
 11
25.7432295564
 21
75.4841325754
 31
0.0
  0
LINE
  5
E7
  8
VISIBLE
  6
CONTINUOUS
 62
     7
 10
25.7432295564
 20
78.6341325754
 30
0.0
 11
25.6468809426
 21
78.6311605886
 31
0.0
  0
LINE
  5
E8
  8
VISIBLE
  6
CONTINUOUS
 62
     7
 10
29.0218809426
 20
78.6341325754
 30
0.0
 11
28.7036828911
 21
78.6341325754
 31
0.0
  0
LINE
  5
E9
  8
VISIBLE
  6
CONTINUOUS
 62
     7
 10
28.7036828911
 20
78.6341325754
 30
0.0
 11
26.0968809426
 21
78.6341325754
 31
0.0
  0
LINE
  5
EA
  8
VISIBLE
  6
CONTINUOUS
 62
     7
 10
26.0968809426
 20
78.6341325754
 30
0.0
 11
25.7432295564
 21
78.6341325754
 31
0.0
  0
LINE
  5
EB
  8
VISIBLE
  6
CONTINUOUS
 62
     7
 10
26.0968809426
 20
75.4841325754
 30
0.0
 11
28.7036828911
 21
75.4841325754
 31
0.0
  0
LINE
  5
EC
  8
VISIBLE
  6
CONTINUOUS
 62
     7
 10
28.7036828911
 20
75.4841325754
 30
0.0
 11
29.0218809426
 21
75.4841325754
 31
0.0
  0
LINE
  5
ED
  8
VISIBLE
  6
CONTINUOUS
 62
     7
 10
25.7432295564
 20
75.4841325754
 30
0.0
 11
26.0968809426
 21
75.4841325754
 31
0.0
  0
LINE
  5
EE
  8
VISIBLE
  6
CONTINUOUS
 62
     7
 10
25.6468809426
 20
75.4871045623
 30
0.0
 11
25.6468809426
 21
78.6311605886
 31
0.0
  0
LINE
  5
EF
  8
VISIBLE
  6
CONTINUOUS
 62
     7
 10
29.0218809426
 20
64.7413990516
 30
0.0
 11
29.0218809426
 21
66.3163990516
 31
0.0
  0
LINE
  5
F0
  8
VISIBLE
  6
CONTINUOUS
 62
     7
 10
25.6468809426
 20
66.8221245511
 30
0.0
 11
25.6468809426
 21
75.4871045623
 31
0.0
  0
LINE
  5
F1
  8
VISIBLE
  6
CONTINUOUS
 62
     7
 10
25.6468809426
 20
65.2500965379
 30
0.0
 11
25.7432295564
 21
65.1648567719
 31
0.0
  0
LINE
  5
F2
  8
VISIBLE
  6
CONTINUOUS
 62
     7
 10
25.7432295564
 20
66.7398567719
 30
0.0
 11
25.6468809426
 21
66.8221245511
 31
0.0
  0
ARC
  5
F3
  8
VISIBLE
  6
CONTINUOUS
 62
     7
 10
28.7081511849
 20
65.9458244216
 30
0.0
 40
0.4855429098286708
 50
49.7486331486
 51
90.5272819053
  0
LINE
  5
F4
  8
VISIBLE
  6
CONTINUOUS
 62
     7
 10
28.7036828911
 20
66.4313467708
 30
0.0
 11
26.0968809426
 21
66.4313467708
 31
0.0
  0
LINE
  5
F5
  8
VISIBLE
  6
CONTINUOUS
 62
     7
 10
26.0968809426
 20
66.4313467708
 30
0.0
 11
25.7432295564
 21
66.7398567719
 31
0.0
  0
LINE
  5
F6
  8
VISIBLE
  6
CONTINUOUS
 62
     7
 10
26.0968809426
 20
64.8563467708
 30
0.0
 11
28.7036828911
 21
64.8563467708
 31
0.0
  0
ARC
  5
F7
  8
VISIBLE
  6
CONTINUOUS
 62
     7
 10
28.7081458845
 20
64.3708097489
 30
0.0
 40
0.4855575331196442
 50
49.7492745068
 51
90.5266405471
  0
LINE
  5
F8
  8
VISIBLE
  6
CONTINUOUS
 62
     7
 10
25.7432295564
 20
65.1648567719
 30
0.0
 11
26.0968809426
 21
64.8563467708
 31
0.0
  0
LINE
  5
F9
  8
VISIBLE
  6
CONTINUOUS
 62
     7
 10
25.6468809426
 20
65.2500965379
 30
0.0
 11
25.6468809426
 21
66.8310125467
 31
0.0
  0
LINE
  5
FA
  8
VISIBLE
  6
CONTINUOUS
 62
     7
 10
25.6468809426
 20
64.2341325754
 30
0.0
 11
25.6468809426
 21
65.2500965379
 31
0.0
  0
LINE
  5
FB
  8
VISIBLE
  6
CONTINUOUS
 62
     7
 10
29.5650789942
 20
91.0091325754
 30
0.0
 11
29.0218809426
 21
90.4659345239
 31
0.0
  0
LINE
  5
FC
  8
VISIBLE
  6
CONTINUOUS
 62
     7
 10
29.0218809426
 20
63.652330627
 30
0.0
 11
29.5650789942
 21
63.1091325754
 31
0.0
  0
LINE
  5
FD
  8
VISIBLE
  6
CONTINUOUS
 62
     7
 10
29.5650789942
 20
63.1091325754
 30
0.0
 11
29.6968809426
 21
63.1091325754
 31
0.0
  0
LINE
  5
FE
  8
VISIBLE
  6
CONTINUOUS
 62
     7
 10
29.6968809426
 20
91.0091325754
 30
0.0
 11
29.5650789942
 21
91.0091325754
 31
0.0
  0
LINE
  5
FF
  8
VISIBLE
  6
CONTINUOUS
 62
     7
 10
26.0968809426
 20
90.3341325754
 30
0.0
 11
25.6468809426
 21
89.8841325754
 31
0.0
  0
LINE
  5
100
  8
VISIBLE
  6
CONTINUOUS
 62
     7
 10
28.7036828911
 20
90.3341325754
 30
0.0
 11
26.0968809426
 21
90.3341325754
 31
0.0
  0
ARC
  5
101
  8
VISIBLE
  6
CONTINUOUS
 62
     7
 10
28.7036828911
 20
90.7841325754
 30
0.0
 40
0.4499999999999995
 50
270.0
 51
315.0
  0
LINE
  5
102
  8
VISIBLE
  6
CONTINUOUS
 62
     7
 10
25.6468809426
 20
64.2341325754
 30
0.0
 11
26.0968809426
 21
63.7841325754
 31
0.0
  0
LINE
  5
103
  8
VISIBLE
  6
CONTINUOUS
 62
     7
 10
26.0968809426
 20
63.7841325754
 30
0.0
 11
28.7036828911
 21
63.7841325754
 31
0.0
  0
ARC
  5
104
  8
VISIBLE
  6
CONTINUOUS
 62
     7
 10
28.7036828911
 20
63.3341325754
 30
0.0
 40
0.4500000000000004
 50
45.0
 51
90.0
  0
LINE
  5
107
  8
STANDARD
  6
DASHDOT2
 62
     7
 10
25.4093223914
 20
77.0591325754
 30
0.0
 11
102.8661143632
 21
77.0591325754
 31
0.0
  0
ENDBLK
  5
109
  8
0
  0
BLOCK
  8
0
  2
SE1
 70
     0
 10
0.0
 20
0.0
 30
0.0
  3
SE1
  1

  0
ARC
  5
10C
  8
VISIBLE
  6
CONTINUOUS
 62
     7
 10
144.8695128582
 20
77.0591325754
 30
0.0
 40
21.93750000000001
 50
285.2831719632
 51
307.9798724449
  0
CIRCLE
  5
10D
  8
0
  6
HIDDEN2
 62
     7
 10
144.8695128582
 20
77.0591325754
 30
0.0
 40
15.71625
  0
LINE
  5
10E
  8
VISIBLE
  6
CONTINUOUS
 62
     7
 10
150.6520128582
 20
59.1941325754
 30
0.0
 11
150.6520128582
 21
55.8974549482
 31
0.0
  0
LINE
  5
10F
  8
VISIBLE
  6
CONTINUOUS
 62
     7
 10
139.0870128582
 20
59.1941325754
 30
0.0
 11
139.7079373915
 21
59.8150571087
 31
0.0
  0
LINE
  5
110
  8
VISIBLE
  6
CONTINUOUS
 62
     7
 10
139.0870128582
 20
55.8974549482
 30
0.0
 11
139.0870128582
 21
59.1941325754
 31
0.0
  0
ARC
  5
111
  8
VISIBLE
  6
CONTINUOUS
 62
     7
 10
144.8695128582
 20
77.0591325754
 30
0.0
 40
21.9375
 50
105.2831719632
 51
254.7168280368
  0
LINE
  5
112
  8
0
  6
HIDDEN2
 62
     7
 10
139.9870128582
 20
93.0341325754
 30
0.0
 11
139.0870128582
 21
93.9341325754
 31
0.0
  0
LINE
  5
113
  8
VISIBLE
  6
CONTINUOUS
 62
     7
 10
150.6520128582
 20
98.2208102027
 30
0.0
 11
150.6520128582
 21
94.1050321923
 31
0.0
  0
ARC
  5
114
  8
VISIBLE
  6
CONTINUOUS
 62
     7
 10
144.8695128582
 20
77.0591325754
 30
0.0
 40
21.9375
 50
322.0201275551
 51
74.7168280368
  0
LINE
  5
115
  8
VISIBLE
  6
CONTINUOUS
 62
     7
 10
158.3695128582
 20
63.5591325754
 30
0.0
 11
158.3695128582
 21
59.7674031579
 31
0.0
  0
LINE
  5
116
  8
VISIBLE
  6
CONTINUOUS
 62
     7
 10
162.1612422758
 20
63.5591325754
 30
0.0
 11
158.3695128582
 21
63.5591325754
 31
0.0
  0
LINE
  5
117
  8
0
  6
HIDDEN2
 62
     7
 10
149.7520128582
 20
93.0341325754
 30
0.0
 11
150.6520128582
 21
93.9341325754
 31
0.0
  0
CIRCLE
  5
118
  8
VISIBLE
  6
CONTINUOUS
 62
     7
 10
144.8695128582
 20
77.0591325754
 30
0.0
 40
17.54999999999999
  0
LINE
  5
119
  8
0
  6
HIDDEN2
 62
     7
 10
149.3629831207
 20
60.0941325754
 30
0.0
 11
140.3760425957
 21
60.0941325754
 31
0.0
  0
LINE
  5
11A
  8
0
  6
HIDDEN2
 62
     7
 10
139.9870128582
 20
93.0341325754
 30
0.0
 11
149.7520128582
 21
93.0341325754
 31
0.0
  0
LINE
  5
11B
  8
VISIBLE
  6
CONTINUOUS
 62
     7
 10
139.0870128582
 20
94.1050321923
 30
0.0
 11
139.0870128582
 21
98.2208102027
 31
0.0
  0
LINE
  5
11C
  8
VISIBLE
  6
CONTINUOUS
 62
     7
 10
140.3760425957
 20
60.0941325754
 30
0.0
 11
139.9870128582
 21
60.0941325754
 31
0.0
  0
LINE
  5
11D
  8
VISIBLE
  6
CONTINUOUS
 62
     7
 10
139.9870128582
 20
60.0941325754
 30
0.0
 11
139.7079373915
 21
59.8150571087
 31
0.0
  0
LINE
  5
11E
  8
VISIBLE
  6
CONTINUOUS
 62
     7
 10
139.0870128582
 20
94.1050321923
 30
0.0
 11
139.0870128582
 21
93.9342106511
 31
0.0
  0
POLYLINE
  5
11F
  8
VISIBLE
  6
CONTINUOUS
 62
     7
 66
     1
 10
0.0
 20
0.0
 30
0.0
  0
VERTEX
  5
226
  8
VISIBLE
  6
CONTINUOUS
 62
     7
 10
139.0870128582
 20
93.9342106511
 30
0.0
  0
VERTEX
  5
227
  8
VISIBLE
  6
CONTINUOUS
 62
     7
 10
139.0923078637
 20
93.928929999
 30
0.0
  0
VERTEX
  5
228
  8
VISIBLE
  6
CONTINUOUS
 62
     7
 10
139.0975645481
 20
93.9236894085
 30
0.0
  0
VERTEX
  5
229
  8
VISIBLE
  6
CONTINUOUS
 62
     7
 10
139.1027829298
 20
93.9184890631
 30
0.0
  0
VERTEX
  5
22A
  8
VISIBLE
  6
CONTINUOUS
 62
     7
 10
139.1079630267
 20
93.9133291465
 30
0.0
  0
VERTEX
  5
22B
  8
VISIBLE
  6
CONTINUOUS
 62
     7
 10
139.1131048572
 20
93.9082098421
 30
0.0
  0
VERTEX
  5
22C
  8
VISIBLE
  6
CONTINUOUS
 62
     7
 10
139.1182084392
 20
93.9031313336
 30
0.0
  0
VERTEX
  5
22D
  8
VISIBLE
  6
CONTINUOUS
 62
     7
 10
139.1232737911
 20
93.8980938046
 30
0.0
  0
VERTEX
  5
22E
  8
VISIBLE
  6
CONTINUOUS
 62
     7
 10
139.1283009308
 20
93.8930974386
 30
0.0
  0
VERTEX
  5
22F
  8
VISIBLE
  6
CONTINUOUS
 62
     7
 10
139.1332898767
 20
93.8881424191
 30
0.0
  0
VERTEX
  5
230
  8
VISIBLE
  6
CONTINUOUS
 62
     7
 10
139.1382406468
 20
93.8832289299
 30
0.0
  0
VERTEX
  5
231
  8
VISIBLE
  6
CONTINUOUS
 62
     7
 10
139.1431532593
 20
93.8783571545
 30
0.0
  0
VERTEX
  5
232
  8
VISIBLE
  6
CONTINUOUS
 62
     7
 10
139.1480277324
 20
93.8735272764
 30
0.0
  0
VERTEX
  5
233
  8
VISIBLE
  6
CONTINUOUS
 62
     7
 10
139.1528640841
 20
93.8687394792
 30
0.0
  0
VERTEX
  5
234
  8
VISIBLE
  6
CONTINUOUS
 62
     7
 10
139.1576623327
 20
93.8639939465
 30
0.0
  0
VERTEX
  5
235
  8
VISIBLE
  6
CONTINUOUS
 62
     7
 10
139.1624224963
 20
93.8592908619
 30
0.0
  0
VERTEX
  5
236
  8
VISIBLE
  6
CONTINUOUS
 62
     7
 10
139.1671445931
 20
93.854630409
 30
0.0
  0
VERTEX
  5
237
  8
VISIBLE
  6
CONTINUOUS
 62
     7
 10
139.1718286412
 20
93.8500127713
 30
0.0
  0
VERTEX
  5
238
  8
VISIBLE
  6
CONTINUOUS
 62
     7
 10
139.1764746587
 20
93.8454381325
 30
0.0
  0
VERTEX
  5
239
  8
VISIBLE
  6
CONTINUOUS
 62
     7
 10
139.1810784777
 20
93.8409109408
 30
0.0
  0
VERTEX
  5
23A
  8
VISIBLE
  6
CONTINUOUS
 62
     7
 10
139.185634998
 20
93.8364365963
 30
0.0
  0
VERTEX
  5
23B
  8
VISIBLE
  6
CONTINUOUS
 62
     7
 10
139.1901428399
 20
93.8320167098
 30
0.0
  0
VERTEX
  5
23C
  8
VISIBLE
  6
CONTINUOUS
 62
     7
 10
139.1946006239
 20
93.8276528922
 30
0.0
  0
VERTEX
  5
23D
  8
VISIBLE
  6
CONTINUOUS
 62
     7
 10
139.1990069701
 20
93.8233467544
 30
0.0
  0
VERTEX
  5
23E
  8
VISIBLE
  6
CONTINUOUS
 62
     7
 10
139.2033604987
 20
93.8190999073
 30
0.0
  0
VERTEX
  5
23F
  8
VISIBLE
  6
CONTINUOUS
 62
     7
 10
139.2076598302
 20
93.8149139617
 30
0.0
  0
VERTEX
  5
240
  8
VISIBLE
  6
CONTINUOUS
 62
     7
 10
139.2119035848
 20
93.8107905287
 30
0.0
  0
VERTEX
  5
241
  8
VISIBLE
  6
CONTINUOUS
 62
     7
 10
139.2160903828
 20
93.8067312191
 30
0.0
  0
VERTEX
  5
242
  8
VISIBLE
  6
CONTINUOUS
 62
     7
 10
139.2202188444
 20
93.8027376437
 30
0.0
  0
VERTEX
  5
243
  8
VISIBLE
  6
CONTINUOUS
 62
     7
 10
139.22428759
 20
93.7988114135
 30
0.0
  0
VERTEX
  5
244
  8
VISIBLE
  6
CONTINUOUS
 62
     7
 10
139.2282952398
 20
93.7949541394
 30
0.0
  0
VERTEX
  5
245
  8
VISIBLE
  6
CONTINUOUS
 62
     7
 10
139.2322404141
 20
93.7911674322
 30
0.0
  0
VERTEX
  5
246
  8
VISIBLE
  6
CONTINUOUS
 62
     7
 10
139.2361217332
 20
93.7874529029
 30
0.0
  0
VERTEX
  5
247
  8
VISIBLE
  6
CONTINUOUS
 62
     7
 10
139.2399378173
 20
93.7838121623
 30
0.0
  0
VERTEX
  5
248
  8
VISIBLE
  6
CONTINUOUS
 62
     7
 10
139.2436872869
 20
93.7802468214
 30
0.0
  0
VERTEX
  5
249
  8
VISIBLE
  6
CONTINUOUS
 62
     7
 10
139.2473687621
 20
93.776758491
 30
0.0
  0
VERTEX
  5
24A
  8
VISIBLE
  6
CONTINUOUS
 62
     7
 10
139.2509808632
 20
93.773348782
 30
0.0
  0
VERTEX
  5
24B
  8
VISIBLE
  6
CONTINUOUS
 62
     7
 10
139.2545265189
 20
93.7700154682
 30
0.0
  0
VERTEX
  5
24C
  8
VISIBLE
  6
CONTINUOUS
 62
     7
 10
139.2580084129
 20
93.7667564795
 30
0.0
  0
VERTEX
  5
24D
  8
VISIBLE
  6
CONTINUOUS
 62
     7
 10
139.2614247981
 20
93.7635736611
 30
0.0
  0
VERTEX
  5
24E
  8
VISIBLE
  6
CONTINUOUS
 62
     7
 10
139.2647739273
 20
93.7604688582
 30
0.0
  0
VERTEX
  5
24F
  8
VISIBLE
  6
CONTINUOUS
 62
     7
 10
139.2680540533
 20
93.7574439163
 30
0.0
  0
VERTEX
  5
250
  8
VISIBLE
  6
CONTINUOUS
 62
     7
 10
139.271263429
 20
93.7545006805
 30
0.0
  0
VERTEX
  5
251
  8
VISIBLE
  6
CONTINUOUS
 62
     7
 10
139.2744003072
 20
93.751640996
 30
0.0
  0
VERTEX
  5
252
  8
VISIBLE
  6
CONTINUOUS
 62
     7
 10
139.2774629408
 20
93.7488667082
 30
0.0
  0
VERTEX
  5
253
  8
VISIBLE
  6
CONTINUOUS
 62
     7
 10
139.2804495826
 20
93.7461796623
 30
0.0
  0
VERTEX
  5
254
  8
VISIBLE
  6
CONTINUOUS
 62
     7
 10
139.2833584855
 20
93.7435817035
 30
0.0
  0
VERTEX
  5
255
  8
VISIBLE
  6
CONTINUOUS
 62
     7
 10
139.2861879023
 20
93.7410746772
 30
0.0
  0
VERTEX
  5
256
  8
VISIBLE
  6
CONTINUOUS
 62
     7
 10
139.2889360859
 20
93.7386604285
 30
0.0
  0
VERTEX
  5
257
  8
VISIBLE
  6
CONTINUOUS
 62
     7
 10
139.291601289
 20
93.7363408028
 30
0.0
  0
VERTEX
  5
258
  8
VISIBLE
  6
CONTINUOUS
 62
     7
 10
139.2941817646
 20
93.7341176453
 30
0.0
  0
VERTEX
  5
259
  8
VISIBLE
  6
CONTINUOUS
 62
     7
 10
139.2966757655
 20
93.7319928013
 30
0.0
  0
VERTEX
  5
25A
  8
VISIBLE
  6
CONTINUOUS
 62
     7
 10
139.2990815445
 20
93.729968116
 30
0.0
  0
VERTEX
  5
25B
  8
VISIBLE
  6
CONTINUOUS
 62
     7
 10
139.3013973545
 20
93.7280454347
 30
0.0
  0
VERTEX
  5
25C
  8
VISIBLE
  6
CONTINUOUS
 62
     7
 10
139.3036214484
 20
93.7262266026
 30
0.0
  0
VERTEX
  5
25D
  8
VISIBLE
  6
CONTINUOUS
 62
     7
 10
139.3057565347
 20
93.7245096598
 30
0.0
  0
VERTEX
  5
25E
  8
VISIBLE
  6
CONTINUOUS
 62
     7
 10
139.3078057971
 20
93.7228920599
 30
0.0
  0
VERTEX
  5
25F
  8
VISIBLE
  6
CONTINUOUS
 62
     7
 10
139.3097682007
 20
93.721374769
 30
0.0
  0
VERTEX
  5
260
  8
VISIBLE
  6
CONTINUOUS
 62
     7
 10
139.3116427104
 20
93.7199587533
 30
0.0
  0
VERTEX
  5
261
  8
VISIBLE
  6
CONTINUOUS
 62
     7
 10
139.3134282914
 20
93.7186449788
 30
0.0
  0
VERTEX
  5
262
  8
VISIBLE
  6
CONTINUOUS
 62
     7
 10
139.3151239087
 20
93.7174344115
 30
0.0
  0
VERTEX
  5
263
  8
VISIBLE
  6
CONTINUOUS
 62
     7
 10
139.3167285274
 20
93.7163280174
 30
0.0
  0
VERTEX
  5
264
  8
VISIBLE
  6
CONTINUOUS
 62
     7
 10
139.3182411126
 20
93.7153267628
 30
0.0
  0
VERTEX
  5
265
  8
VISIBLE
  6
CONTINUOUS
 62
     7
 10
139.3196606294
 20
93.7144316135
 30
0.0
  0
VERTEX
  5
266
  8
VISIBLE
  6
CONTINUOUS
 62
     7
 10
139.3209860427
 20
93.7136435357
 30
0.0
  0
VERTEX
  5
267
  8
VISIBLE
  6
CONTINUOUS
 62
     7
 10
139.3222163177
 20
93.7129634955
 30
0.0
  0
VERTEX
  5
268
  8
VISIBLE
  6
CONTINUOUS
 62
     7
 10
139.3233504194
 20
93.7123924588
 30
0.0
  0
VERTEX
  5
269
  8
VISIBLE
  6
CONTINUOUS
 62
     7
 10
139.324387313
 20
93.7119313918
 30
0.0
  0
VERTEX
  5
26A
  8
VISIBLE
  6
CONTINUOUS
 62
     7
 10
139.3253259634
 20
93.7115812605
 30
0.0
  0
VERTEX
  5
26B
  8
VISIBLE
  6
CONTINUOUS
 62
     7
 10
139.3261653358
 20
93.711343031
 30
0.0
  0
VERTEX
  5
26C
  8
VISIBLE
  6
CONTINUOUS
 62
     7
 10
139.3269043952
 20
93.7112176693
 30
0.0
  0
VERTEX
  5
26D
  8
VISIBLE
  6
CONTINUOUS
 62
     7
 10
139.3275421067
 20
93.7112061415
 30
0.0
  0
VERTEX
  5
26E
  8
VISIBLE
  6
CONTINUOUS
 62
     7
 10
139.3280774353
 20
93.7113094137
 30
0.0
  0
SEQEND
  5
26F
  8
VISIBLE
  6
CONTINUOUS
 62
     7
  0
LINE
  5
120
  8
VISIBLE
  6
CONTINUOUS
 62
     7
 10
150.0310883249
 20
59.8150571087
 30
0.0
 11
150.6520128582
 21
59.1941325754
 31
0.0
  0
ARC
  5
121
  8
VISIBLE
  6
CONTINUOUS
 62
     7
 10
149.4041582964
 20
95.0419433366
 30
0.0
 40
1.668596029602772
 50
307.1120353867
 51
318.4042223771
  0
LINE
  5
122
  8
VISIBLE
  6
CONTINUOUS
 62
     7
 10
150.6520128582
 20
93.9342106511
 30
0.0
 11
150.6520128582
 21
94.1050321923
 31
0.0
  0
LINE
  5
123
  8
VISIBLE
  6
CONTINUOUS
 62
     7
 10
150.0310883249
 20
59.8150571087
 30
0.0
 11
149.7520128582
 21
60.0941325754
 31
0.0
  0
LINE
  5
124
  8
VISIBLE
  6
CONTINUOUS
 62
     7
 10
149.7520128582
 20
60.0941325754
 30
0.0
 11
149.3629831207
 21
60.0941325754
 31
0.0
  0
CIRCLE
  5
125
  8
VISIBLE
  6
CONTINUOUS
 62
     7
 10
144.8695128582
 20
77.0591325754
 30
0.0
 40
2.25
  0
CIRCLE
  5
126
  8
VISIBLE
  6
CONTINUOUS
 62
     7
 10
144.8695128582
 20
77.0591325754
 30
0.0
 40
6.89625
  0
ARC
  5
127
  8
VISIBLE
  6
CONTINUOUS
 62
     7
 10
144.8695128582
 20
77.0591325754
 30
0.0
 40
13.275
 50
186.8138543442
 51
233.1861456558
  0
CIRCLE
  5
128
  8
VISIBLE
  6
CONTINUOUS
 62
     7
 10
144.8695128582
 20
77.0591325754
 30
0.0
 40
13.95
  0
LINE
  5
129
  8
VISIBLE
  6
CONTINUOUS
 62
     7
 10
132.1412233845
 20
78.6311605886
 30
0.0
 11
132.0445128582
 21
78.6341325754
 31
0.0
  0
LINE
  5
12A
  8
VISIBLE
  6
CONTINUOUS
 62
     7
 10
132.0445128582
 20
78.6341325754
 30
0.0
 11
131.6882761939
 21
78.6341325754
 31
0.0
  0
LINE
  5
12B
  8
VISIBLE
  6
CONTINUOUS
 62
     7
 10
132.0445128582
 20
75.4841325754
 30
0.0
 11
132.1412233845
 21
75.4871045623
 31
0.0
  0
LINE
  5
12C
  8
VISIBLE
  6
CONTINUOUS
 62
     7
 10
131.6882761939
 20
75.4841325754
 30
0.0
 11
132.0445128582
 21
75.4841325754
 31
0.0
  0
ARC
  5
12D
  8
VISIBLE
  6
CONTINUOUS
 62
     7
 10
144.8695128582
 20
77.0591325754
 30
0.0
 40
13.40680194846606
 50
173.2534453815
 51
186.7465546185
  0
LINE
  5
12E
  8
VISIBLE
  6
CONTINUOUS
 62
     7
 10
131.5555460006
 20
75.4841325754
 30
0.0
 11
131.6882761939
 21
75.4841325754
 31
0.0
  0
LINE
  5
12F
  8
VISIBLE
  6
CONTINUOUS
 62
     7
 10
131.6882761939
 20
78.6341325754
 30
0.0
 11
131.5555460006
 21
78.6341325754
 31
0.0
  0
ARC
  5
130
  8
VISIBLE
  6
CONTINUOUS
 62
     7
 10
132.0445128582
 20
77.0591325754
 30
0.0
 40
1.575
 50
273.520376467
 51
86.479623533
  0
ARC
  5
131
  8
VISIBLE
  6
CONTINUOUS
 62
     7
 10
144.8695128582
 20
77.0591325754
 30
0.0
 40
13.40680194846606
 50
113.2534453815
 51
126.7465546185
  0
ARC
  5
132
  8
VISIBLE
  6
CONTINUOUS
 62
     7
 10
144.8695128582
 20
77.0591325754
 30
0.0
 40
13.275
 50
126.8138543442
 51
173.1861456558
  0
LINE
  5
133
  8
VISIBLE
  6
CONTINUOUS
 62
     7
 10
139.8667843162
 20
88.8681686129
 30
0.0
 11
139.8210028692
 21
88.953408379
 31
0.0
  0
LINE
  5
134
  8
VISIBLE
  6
CONTINUOUS
 62
     7
 10
137.0930228473
 20
87.378408379
 30
0.0
 11
137.1439519265
 21
87.2961405998
 31
0.0
  0
LINE
  5
135
  8
VISIBLE
  6
CONTINUOUS
 62
     7
 10
136.8485394185
 20
87.8018660992
 30
0.0
 11
136.9149045151
 21
87.68691838
 31
0.0
  0
LINE
  5
136
  8
VISIBLE
  6
CONTINUOUS
 62
     7
 10
136.9149045151
 20
87.68691838
 30
0.0
 11
137.0930228473
 21
87.378408379
 31
0.0
  0
LINE
  5
137
  8
VISIBLE
  6
CONTINUOUS
 62
     7
 10
139.642884537
 20
89.26191838
 30
0.0
 11
139.5765194404
 21
89.3768660992
 31
0.0
  0
LINE
  5
138
  8
VISIBLE
  6
CONTINUOUS
 62
     7
 10
139.8210028692
 20
88.953408379
 30
0.0
 11
139.642884537
 21
89.26191838
 31
0.0
  0
ARC
  5
139
  8
VISIBLE
  6
CONTINUOUS
 62
     7
 10
138.4570128582
 20
88.165908379
 30
0.0
 40
1.575
 50
213.520376467
 51
26.479623533
  0
ARC
  5
13A
  8
VISIBLE
  6
CONTINUOUS
 62
     7
 10
144.8695128582
 20
77.0591325754
 30
0.0
 40
13.40680194846606
 50
53.2534453815
 51
66.7465546185
  0
ARC
  5
13B
  8
VISIBLE
  6
CONTINUOUS
 62
     7
 10
144.8695128582
 20
77.0591325754
 30
0.0
 40
13.27500000000001
 50
66.8138543442
 51
113.1861456558
  0
LINE
  5
13C
  8
VISIBLE
  6
CONTINUOUS
 62
     7
 10
152.5950737899
 20
87.2961405998
 30
0.0
 11
152.6460028692
 21
87.378408379
 31
0.0
  0
LINE
  5
13D
  8
VISIBLE
  6
CONTINUOUS
 62
     7
 10
149.9180228473
 20
88.953408379
 30
0.0
 11
149.8722414002
 21
88.8681686129
 31
0.0
  0
LINE
  5
13E
  8
VISIBLE
  6
CONTINUOUS
 62
     7
 10
150.1625062761
 20
89.3768660992
 30
0.0
 11
150.0961411794
 21
89.26191838
 31
0.0
  0
LINE
  5
13F
  8
VISIBLE
  6
CONTINUOUS
 62
     7
 10
150.0961411794
 20
89.26191838
 30
0.0
 11
149.9180228473
 21
88.953408379
 31
0.0
  0
LINE
  5
140
  8
VISIBLE
  6
CONTINUOUS
 62
     7
 10
152.8241212013
 20
87.68691838
 30
0.0
 11
152.890486298
 21
87.8018660992
 31
0.0
  0
LINE
  5
141
  8
VISIBLE
  6
CONTINUOUS
 62
     7
 10
152.6460028692
 20
87.378408379
 30
0.0
 11
152.8241212013
 21
87.68691838
 31
0.0
  0
ARC
  5
142
  8
VISIBLE
  6
CONTINUOUS
 62
     7
 10
151.2820128582
 20
88.165908379
 30
0.0
 40
1.575000000000001
 50
153.520376467
 51
326.479623533
  0
ARC
  5
143
  8
VISIBLE
  6
CONTINUOUS
 62
     7
 10
144.8695128582
 20
77.0591325754
 30
0.0
 40
13.40680194846606
 50
353.2534453815
 51
6.7465546185
  0
ARC
  5
144
  8
VISIBLE
  6
CONTINUOUS
 62
     7
 10
144.8695128582
 20
77.0591325754
 30
0.0
 40
13.275
 50
6.8138543442
 51
53.1861456558
  0
LINE
  5
145
  8
VISIBLE
  6
CONTINUOUS
 62
     7
 10
157.5978023319
 20
75.4871045623
 30
0.0
 11
157.6945128582
 21
75.4841325754
 31
0.0
  0
LINE
  5
146
  8
VISIBLE
  6
CONTINUOUS
 62
     7
 10
157.6945128582
 20
78.6341325754
 30
0.0
 11
157.5978023319
 21
78.6311605886
 31
0.0
  0
LINE
  5
147
  8
VISIBLE
  6
CONTINUOUS
 62
     7
 10
158.1834797158
 20
78.6341325754
 30
0.0
 11
158.0507495225
 21
78.6341325754
 31
0.0
  0
LINE
  5
148
  8
VISIBLE
  6
CONTINUOUS
 62
     7
 10
158.0507495225
 20
78.6341325754
 30
0.0
 11
157.6945128582
 21
78.6341325754
 31
0.0
  0
LINE
  5
149
  8
VISIBLE
  6
CONTINUOUS
 62
     7
 10
158.0507495225
 20
75.4841325754
 30
0.0
 11
158.1834797158
 21
75.4841325754
 31
0.0
  0
LINE
  5
14A
  8
VISIBLE
  6
CONTINUOUS
 62
     7
 10
157.6945128582
 20
75.4841325754
 30
0.0
 11
158.0507495225
 21
75.4841325754
 31
0.0
  0
ARC
  5
14B
  8
VISIBLE
  6
CONTINUOUS
 62
     7
 10
157.6945128582
 20
77.0591325754
 30
0.0
 40
1.575
 50
93.520376467
 51
266.479623533
  0
ARC
  5
14C
  8
VISIBLE
  6
CONTINUOUS
 62
     7
 10
144.8695128582
 20
77.0591325754
 30
0.0
 40
13.40680194846606
 50
293.2534453815
 51
306.7465546185
  0
ARC
  5
14D
  8
VISIBLE
  6
CONTINUOUS
 62
     7
 10
144.8695128582
 20
77.0591325754
 30
0.0
 40
13.275
 50
306.8138543442
 51
353.1861456558
  0
LINE
  5
14E
  8
VISIBLE
  6
CONTINUOUS
 62
     7
 10
149.8722414002
 20
65.2500965379
 30
0.0
 11
149.9180228473
 21
65.1648567719
 31
0.0
  0
LINE
  5
14F
  8
VISIBLE
  6
CONTINUOUS
 62
     7
 10
152.6460028692
 20
66.7398567719
 30
0.0
 11
152.5950737899
 21
66.8221245511
 31
0.0
  0
LINE
  5
150
  8
VISIBLE
  6
CONTINUOUS
 62
     7
 10
152.890486298
 20
66.3163990516
 30
0.0
 11
152.8241212013
 21
66.4313467708
 31
0.0
  0
LINE
  5
151
  8
VISIBLE
  6
CONTINUOUS
 62
     7
 10
152.8241212013
 20
66.4313467708
 30
0.0
 11
152.6460028692
 21
66.7398567719
 31
0.0
  0
LINE
  5
152
  8
VISIBLE
  6
CONTINUOUS
 62
     7
 10
150.0961411794
 20
64.8563467708
 30
0.0
 11
150.1625062761
 21
64.7413990516
 31
0.0
  0
LINE
  5
153
  8
VISIBLE
  6
CONTINUOUS
 62
     7
 10
149.9180228473
 20
65.1648567719
 30
0.0
 11
150.0961411794
 21
64.8563467708
 31
0.0
  0
ARC
  5
154
  8
VISIBLE
  6
CONTINUOUS
 62
     7
 10
151.2820128582
 20
65.9523567719
 30
0.0
 40
1.575
 50
33.520376467
 51
206.479623533
  0
ARC
  5
155
  8
VISIBLE
  6
CONTINUOUS
 62
     7
 10
144.8695128582
 20
77.0591325754
 30
0.0
 40
13.40680194846605
 50
233.2534453815
 51
246.7465546185
  0
ARC
  5
156
  8
VISIBLE
  6
CONTINUOUS
 62
     7
 10
144.8695128582
 20
77.0591325754
 30
0.0
 40
13.275
 50
246.8138543442
 51
293.1861456558
  0
LINE
  5
157
  8
VISIBLE
  6
CONTINUOUS
 62
     7
 10
137.1439519265
 20
66.8221245511
 30
0.0
 11
137.0930228473
 21
66.7398567719
 31
0.0
  0
LINE
  5
158
  8
VISIBLE
  6
CONTINUOUS
 62
     7
 10
139.8210028692
 20
65.1648567719
 30
0.0
 11
139.8667843162
 21
65.2500965379
 31
0.0
  0
LINE
  5
159
  8
VISIBLE
  6
CONTINUOUS
 62
     7
 10
139.5765194404
 20
64.7413990516
 30
0.0
 11
139.642884537
 21
64.8563467708
 31
0.0
  0
LINE
  5
15A
  8
VISIBLE
  6
CONTINUOUS
 62
     7
 10
139.642884537
 20
64.8563467708
 30
0.0
 11
139.8210028692
 21
65.1648567719
 31
0.0
  0
LINE
  5
15B
  8
VISIBLE
  6
CONTINUOUS
 62
     7
 10
136.9149045151
 20
66.4313467708
 30
0.0
 11
136.8485394185
 21
66.3163990516
 31
0.0
  0
LINE
  5
15C
  8
VISIBLE
  6
CONTINUOUS
 62
     7
 10
137.0930228473
 20
66.7398567719
 30
0.0
 11
136.9149045151
 21
66.4313467708
 31
0.0
  0
ARC
  5
15D
  8
VISIBLE
  6
CONTINUOUS
 62
     7
 10
138.4570128582
 20
65.9523567719
 30
0.0
 40
1.574999999999999
 50
333.520376467
 51
146.479623533
  0
LINE
  5
15E
  8
STANDARD
  6
DASHDOT2
 62
     7
 10
145.9945128331
 20
77.0591325754
 30
0.0
 11
143.7445128834
 21
77.0591325754
 31
0.0
  0
LINE
  5
15F
  8
STANDARD
  6
DASHDOT2
 62
     7
 10
144.8695128582
 20
78.1841325503
 30
0.0
 11
144.8695128582
 21
75.9341326006
 31
0.0
  0
LINE
  5
160
  8
STANDARD
  6
DASHDOT2
 62
     7
 10
146.5570128205
 20
77.0591325754
 30
0.0
 11
167.5945128582
 21
77.0591325754
 31
0.0
  0
LINE
  5
161
  8
STANDARD
  6
DASHDOT2
 62
     7
 10
144.8695128582
 20
78.7466325377
 30
0.0
 11
144.8695128582
 21
99.7841325754
 31
0.0
  0
LINE
  5
162
  8
STANDARD
  6
DASHDOT2
 62
     7
 10
143.1820128959
 20
77.0591325754
 30
0.0
 11
122.1445128582
 21
77.0591325754
 31
0.0
  0
LINE
  5
163
  8
STANDARD
  6
DASHDOT2
 62
     7
 10
144.8695128582
 20
75.3716326131
 30
0.0
 11
144.8695128582
 21
54.3341325754
 31
0.0
  0
ENDBLK
  5
165
  8
0
  0
BLOCK
  8
0
  2
GDIMGGROUP
 70
     0
 10
0.0
 20
0.0
 30
0.0
  3
GDIMGGROUP
  1

  0
POLYLINE
  5
168
  8
DEFAULT
  6
CONTINUOUS
 62
     7
 66
     1
 10
0.0
 20
0.0
 30
0.0
  0
VERTEX
  5
271
  8
DEFAULT
  6
CONTINUOUS
 62
     7
 10
17.2837260315
 20
92.1091326313
 30
0.0
  0
VERTEX
  5
272
  8
DEFAULT
  6
CONTINUOUS
 62
     7
 10
18.1170593462
 20
92.1091326313
 30
0.0
  0
VERTEX
  5
273
  8
DEFAULT
  6
CONTINUOUS
 62
     7
 10
17.7003926888
 20
94.6091325754
 30
0.0
  0
VERTEX
  5
274
  8
DEFAULT
  6
CONTINUOUS
 62
     7
 10
17.2837260315
 20
92.1091326313
 30
0.0
  0
SEQEND
  5
270
  8
DEFAULT
  6
CONTINUOUS
 62
     7
  0
POLYLINE
  5
169
  8
DEFAULT
  6
CONTINUOUS
 62
     7
 66
     1
 10
0.0
 20
0.0
 30
0.0
  0
VERTEX
  5
276
  8
DEFAULT
  6
CONTINUOUS
 62
     7
 10
17.2837260315
 20
62.0091306778
 30
0.0
  0
VERTEX
  5
277
  8
DEFAULT
  6
CONTINUOUS
 62
     7
 10
18.1170593462
 20
62.0091306778
 30
0.0
  0
VERTEX
  5
278
  8
DEFAULT
  6
CONTINUOUS
 62
     7
 10
17.7003926888
 20
59.5091307336
 30
0.0
  0
VERTEX
  5
279
  8
DEFAULT
  6
CONTINUOUS
 62
     7
 10
17.2837260315
 20
62.0091306778
 30
0.0
  0
SEQEND
  5
275
  8
DEFAULT
  6
CONTINUOUS
 62
     7
  0
LINE
  5
16A
  8
DEFAULT
  6
CONTINUOUS
 62
     7
 10
30.1468809426
 20
94.6091325754
 30
0.0
 11
16.4503927168
 21
94.6091325754
 31
0.0
  0
LINE
  5
16B
  8
DEFAULT
  6
CONTINUOUS
 62
     7
 10
30.1468809426
 20
59.5091325754
 30
0.0
 11
16.4503927168
 21
59.5091325754
 31
0.0
  0
LINE
  5
16C
  8
DEFAULT
  6
CONTINUOUS
 62
     7
 10
17.7003926888
 20
94.6091325754
 30
0.0
 11
17.7003926888
 21
59.5091307336
 31
0.0
  0
TEXT
  5
16D
  8
DEFAULT
  6
CONTINUOUS
 62
     7
 10
17.0753926888
 20
77.4030485119
 30
0.0
 40
2.5
  1
78
 50
90.0
  7
SEACAD_ARIAL_TTF
 11
14.5753926888
 21
77.4030485119
 31
0.0
 73
     3
  0
TEXT
  5
16F
  8
DEFAULT
  6
CONTINUOUS
 62
     7
 10
17.0753926888
 20
72.8021713189
 30
0.0
 40
2.5
  1
O
 50
90.0
  7
SEACAD_SEMECA1_TTF
 11
14.5753926888
 21
72.8021713189
 31
0.0
 73
     3
  0
ENDBLK
  5
171
  8
0
  0
BLOCK
  8
0
  2
GDIMGGROUP1
 70
     0
 10
0.0
 20
0.0
 30
0.0
  3
GDIMGGROUP1
  1

  0
POLYLINE
  5
174
  8
DEFAULT
  6
CONTINUOUS
 62
     7
 66
     1
 10
0.0
 20
0.0
 30
0.0
  0
VERTEX
  5
27B
  8
DEFAULT
  6
CONTINUOUS
 62
     7
 10
54.1968809985
 20
49.0737121639
 30
0.0
  0
VERTEX
  5
27C
  8
DEFAULT
  6
CONTINUOUS
 62
     7
 10
54.1968809985
 20
49.9070454786
 30
0.0
  0
VERTEX
  5
27D
  8
DEFAULT
  6
CONTINUOUS
 62
     7
 10
56.6968809426
 20
49.4903788212
 30
0.0
  0
VERTEX
  5
27E
  8
DEFAULT
  6
CONTINUOUS
 62
     7
 10
54.1968809985
 20
49.0737121639
 30
0.0
  0
SEQEND
  5
27A
  8
DEFAULT
  6
CONTINUOUS
 62
     7
  0
POLYLINE
  5
175
  8
DEFAULT
  6
CONTINUOUS
 62
     7
 66
     1
 10
0.0
 20
0.0
 30
0.0
  0
VERTEX
  5
280
  8
DEFAULT
  6
CONTINUOUS
 62
     7
 10
32.1968801864
 20
49.0737121639
 30
0.0
  0
VERTEX
  5
281
  8
DEFAULT
  6
CONTINUOUS
 62
     7
 10
32.1968801864
 20
49.9070454786
 30
0.0
  0
VERTEX
  5
282
  8
DEFAULT
  6
CONTINUOUS
 62
     7
 10
29.6968802423
 20
49.4903788212
 30
0.0
  0
VERTEX
  5
283
  8
DEFAULT
  6
CONTINUOUS
 62
     7
 10
32.1968801864
 20
49.0737121639
 30
0.0
  0
SEQEND
  5
27F
  8
DEFAULT
  6
CONTINUOUS
 62
     7
  0
LINE
  5
176
  8
DEFAULT
  6
CONTINUOUS
 62
     7
 10
56.6968809426
 20
61.3428825754
 30
0.0
 11
56.6968809426
 21
48.2403788492
 31
0.0
  0
LINE
  5
177
  8
DEFAULT
  6
CONTINUOUS
 62
     7
 10
29.6968809426
 20
77.0591325754
 30
0.0
 11
29.6968809426
 21
48.2403788492
 31
0.0
  0
LINE
  5
178
  8
DEFAULT
  6
CONTINUOUS
 62
     7
 10
56.6968809426
 20
49.4903788212
 30
0.0
 11
29.6968802423
 21
49.4903788212
 31
0.0
  0
TEXT
  5
179
  8
DEFAULT
  6
CONTINUOUS
 62
     7
 10
41.2403588533
 20
50.1153788212
 30
0.0
 40
2.5
  1
60
  7
SEACAD_ARIAL_TTF
 11
41.2403588533
 21
52.6153788212
 31
0.0
 73
     3
  0
ENDBLK
  5
17B
  8
0
  0
ENDSEC
  0
SECTION
  2
ENTITIES
  0
INSERT
  5
5F
  8
DEFAULT
  2
SEANNOT_GROUP
 10
0.0
 20
0.0
 30
0.0
  0
INSERT
  5
68
  8
DEFAULT
  2
SE
 10
0.0
 20
0.0
 30
0.0
  0
INSERT
  5
10B
  8
DEFAULT
  2
SE1
 10
0.0
 20
0.0
 30
0.0
  0
INSERT
  5
167
  8
DEFAULT
  2
GDIMGGROUP
 10
0.0
 20
0.0
 30
0.0
  0
INSERT
  5
173
  8
DEFAULT
  2
GDIMGGROUP1
 10
0.0
 20
0.0
 30
0.0
  0
ENDSEC
  0
EOF
