  0
SECTION
  2
HEADER
  9
$ACADVER
  1
AC1009
  9
$DWGCODEPAGE
  3
ansi_1252
  9
$INSBASE
 10
0.0
 20
0.0
 30
0.0
  9
$EXTMIN
 10
0.0
 20
0.0
 30
0.0
  9
$EXTMAX
 10
180.0
 20
160.0
 30
0.0
  9
$LIMMIN
 10
0.0
 20
0.0
  9
$LIMMAX
 10
180.0
 20
160.0
  9
$ORTHOMODE
 70
     0
  9
$REGENMODE
 70
     1
  9
$FILLMODE
 70
     1
  9
$QTEXTMODE
 70
     0
  9
$MIRRTEXT
 70
     1
  9
$DRAGMODE
 70
     2
  9
$LTSCALE
 40
1.0
  9
$OSMODE
 70
    37
  9
$ATTMODE
 70
     1
  9
$TEXTSIZE
 40
2.5
  9
$TRACEWID
 40
1.0
  9
$TEXTSTYLE
  7
STANDARD
  9
$CLAYER
  8
0
  9
$CELTYPE
  6
BYLAYER
  9
$CECOLOR
 62
   256
  9
$DIMSCALE
 40
1.0
  9
$DIMASZ
 40
2.5
  9
$DIMEXO
 40
0.625
  9
$DIMDLI
 40
3.75
  9
$DIMRND
 40
0.0
  9
$DIMDLE
 40
0.0
  9
$DIMEXE
 40
1.25
  9
$DIMTP
 40
0.0
  9
$DIMTM
 40
0.0
  9
$DIMTXT
 40
2.5
  9
$DIMCEN
 40
2.5
  9
$DIMTSZ
 40
0.0
  9
$DIMTOL
 70
     0
  9
$DIMLIM
 70
     0
  9
$DIMTIH
 70
     0
  9
$DIMTOH
 70
     0
  9
$DIMSE1
 70
     0
  9
$DIMSE2
 70
     0
  9
$DIMTAD
 70
     1
  9
$DIMZIN
 70
     8
  9
$DIMBLK
  1

  9
$DIMASO
 70
     1
  9
$DIMSHO
 70
     1
  9
$DIMPOST
  1

  9
$DIMAPOST
  1

  9
$DIMALT
 70
     0
  9
$DIMALTD
 70
     3
  9
$DIMALTF
 40
0.0393700787
  9
$DIMLFAC
 40
1.0
  9
$DIMTOFL
 70
     1
  9
$DIMTVP
 40
0.0
  9
$DIMTIX
 70
     0
  9
$DIMSOXD
 70
     0
  9
$DIMSAH
 70
     0
  9
$DIMBLK1
  1

  9
$DIMBLK2
  1

  9
$DIMSTYLE
  2
ISO-25
  9
$DIMCLRD
 70
     0
  9
$DIMCLRE
 70
     0
  9
$DIMCLRT
 70
     0
  9
$DIMTFAC
 40
1.0
  9
$DIMGAP
 40
0.625
  9
$LUNITS
 70
     2
  9
$LUPREC
 70
     4
  9
$SKETCHINC
 40
1.0
  9
$FILLETRAD
 40
10.0
  9
$AUNITS
 70
     0
  9
$AUPREC
 70
     0
  9
$MENU
  1
.
  9
$ELEVATION
 40
0.0
  9
$PELEVATION
 40
0.0
  9
$THICKNESS
 40
0.0
  9
$LIMCHECK
 70
     0
  9
$CHAMFERA
 40
10.0
  9
$CHAMFERB
 40
10.0
  9
$SKPOLY
 70
     0
  9
$TDCREATE
 40
2456136.384881076
  9
$TDUPDATE
 40
2456136.384881088
  9
$TDINDWG
 40
0.0000000116
  9
$TDUSRTIMER
 40
0.0000000116
  9
$USRTIMER
 70
     1
  9
$ANGBASE
 50
0.0
  9
$ANGDIR
 70
     0
  9
$PDMODE
 70
     0
  9
$PDSIZE
 40
0.0
  9
$PLINEWID
 40
0.0
  9
$COORDS
 70
     1
  9
$SPLFRAME
 70
     0
  9
$SPLINETYPE
 70
     6
  9
$SPLINESEGS
 70
     8
  9
$ATTDIA
 70
     0
  9
$ATTREQ
 70
     1
  9
$HANDLING
 70
     1
  9
$HANDSEED
  5
1EA
  9
$SURFTAB1
 70
     6
  9
$SURFTAB2
 70
     6
  9
$SURFTYPE
 70
     6
  9
$SURFU
 70
     6
  9
$SURFV
 70
     6
  9
$UCSNAME
  2

  9
$UCSORG
 10
0.0
 20
0.0
 30
0.0
  9
$UCSXDIR
 10
1.0
 20
0.0
 30
0.0
  9
$UCSYDIR
 10
0.0
 20
1.0
 30
0.0
  9
$PUCSNAME
  2

  9
$PUCSORG
 10
0.0
 20
0.0
 30
0.0
  9
$PUCSXDIR
 10
1.0
 20
0.0
 30
0.0
  9
$PUCSYDIR
 10
0.0
 20
1.0
 30
0.0
  9
$USERI1
 70
     0
  9
$USERI2
 70
     0
  9
$USERI3
 70
     0
  9
$USERI4
 70
     0
  9
$USERI5
 70
     0
  9
$USERR1
 40
0.0
  9
$USERR2
 40
0.0
  9
$USERR3
 40
0.0
  9
$USERR4
 40
0.0
  9
$USERR5
 40
0.0
  9
$WORLDVIEW
 70
     1
  9
$SHADEDGE
 70
     3
  9
$SHADEDIF
 70
    70
  9
$TILEMODE
 70
     1
  9
$MAXACTVP
 70
    64
  9
$PLIMCHECK
 70
     0
  9
$PEXTMIN
 10
0.0
 20
0.0
 30
0.0
  9
$PEXTMAX
 10
180.0
 20
160.0
 30
0.0
  9
$PLIMMIN
 10
0.0
 20
0.0
  9
$PLIMMAX
 10
180.0
 20
160.0
  9
$UNITMODE
 70
     0
  9
$VISRETAIN
 70
     1
  9
$PLINEGEN
 70
     0
  9
$PSLTSCALE
 70
     1
  0
ENDSEC
  0
SECTION
  2
TABLES
  0
TABLE
  2
VPORT
 70
     1
  0
VPORT
  2
*ACTIVE
 70
     0
 10
0.0
 20
0.0
 11
1.0
 21
1.0
 12
344.1869158879
 22
148.5
 13
0.0
 23
0.0
 14
10.0
 24
10.0
 15
10.0
 25
10.0
 16
0.0
 26
0.0
 36
1.0
 17
0.0
 27
0.0
 37
0.0
 40
297.0
 41
1.9729729729
 42
50.0
 43
0.0
 44
0.0
 50
0.0
 51
0.0
 71
     0
 72
   100
 73
     1
 74
     3
 75
     0
 76
     0
 77
     0
 78
     0
  0
ENDTAB
  0
TABLE
  2
LTYPE
 70
     3
  0
LTYPE
  2
CONTINUOUS
 70
     0
  3
Solid line
 72
    65
 73
     0
 40
0.0
  0
LTYPE
  2
HIDDEN2
 70
     0
  3
Hidden (.5x) _ _ _ _ _ _ _ _ _ _ _ _ _ _ _ _ _ 
 72
    65
 73
     2
 40
4.7625
 49
3.175
 49
-1.5875
  0
LTYPE
  2
CENTER2
 70
     0
  3
Center (.5x) ___ _ ___ _ ___ _ ___ _ ___ _ ___
 72
    65
 73
     4
 40
28.575
 49
19.05
 49
-3.175
 49
3.175
 49
-3.175
  0
ENDTAB
  0
TABLE
  2
LAYER
 70
     5
  0
LAYER
  2
0
 70
     0
 62
     7
  6
CONTINUOUS
  0
LAYER
  2
DEFAULT
 70
     0
 62
     7
  6
CONTINUOUS
  0
LAYER
  2
VISIBLE
 70
     0
 62
     7
  6
CONTINUOUS
  0
LAYER
  2
HIDDEN
 70
     0
 62
     7
  6
CONTINUOUS
  0
LAYER
  2
STANDARD
 70
     0
 62
     7
  6
CONTINUOUS
  0
ENDTAB
  0
TABLE
  2
STYLE
 70
     3
  0
STYLE
  2
STANDARD
 70
     0
 40
0.0
 41
1.0
 50
0.0
 71
     0
 42
2.5
  3
txt
  4

  0
STYLE
  2
SEACAD_ARIAL_TTF
 70
     0
 40
0.0
 41
1.0
 50
0.0
 71
     0
 42
0.2
  3
arial.ttf
  4

  0
STYLE
  2
SEACAD_SEMECA1_TTF
 70
     0
 40
0.0
 41
1.0
 50
0.0
 71
     0
 42
0.2
  3
semeca1.ttf
  4

  0
ENDTAB
  0
TABLE
  2
VIEW
 70
     0
  0
ENDTAB
  0
TABLE
  2
UCS
 70
     0
  0
ENDTAB
  0
TABLE
  2
APPID
 70
     1
  0
APPID
  2
ACAD
 70
     0
  0
ENDTAB
  0
TABLE
  2
DIMSTYLE
 70
     1
  0
DIMSTYLE
  2
ISO-25
 70
     0
  3

  4

  5

  6

  7

 40
1.0
 41
2.5
 42
0.625
 43
3.75
 44
1.25
 45
0.0
 46
0.0
 47
0.0
 48
0.0
140
2.5
141
2.5
142
0.0
143
0.0393700787
144
1.0
145
0.0
146
1.0
147
0.625
 71
     0
 72
     0
 73
     0
 74
     0
 75
     0
 76
     0
 77
     1
 78
     8
170
     0
171
     3
172
     1
173
     0
174
     0
175
     0
176
     0
177
     0
178
     0
  0
ENDTAB
  0
ENDSEC
  0
SECTION
  2
BLOCKS
  0
BLOCK
  8
0
  2
$MODEL_SPACE
 70
     0
 10
0.0
 20
0.0
 30
0.0
  3
$MODEL_SPACE
  1

  0
ENDBLK
  5
21
  8
0
  0
BLOCK
 67
     1
  8
0
  2
$PAPER_SPACE
 70
     0
 10
0.0
 20
0.0
 30
0.0
  3
$PAPER_SPACE
  1

  0
ENDBLK
  5
1D
 67
     1
  8
0
  0
BLOCK
  8
0
  2
SEANNOT_GROUP
 70
     0
 10
0.0
 20
0.0
 30
0.0
  3
SEANNOT_GROUP
  1

  0
POLYLINE
  5
60
  8
DEFAULT
  6
CONTINUOUS
 62
     7
 66
     1
 10
0.0
 20
0.0
 30
0.0
  0
VERTEX
  5
133
  8
DEFAULT
  6
CONTINUOUS
 62
     7
 10
70.1429393079
 20
109.0376650761
 30
0.0
  0
VERTEX
  5
134
  8
DEFAULT
  6
CONTINUOUS
 62
     7
 10
63.2764908363
 20
97.4786572651
 30
0.0
  0
SEQEND
  5
132
  8
DEFAULT
  6
CONTINUOUS
 62
     7
  0
POLYLINE
  5
61
  8
DEFAULT
  6
CONTINUOUS
 62
     7
 66
     1
 10
0.0
 20
0.0
 30
0.0
  0
VERTEX
  5
136
  8
DEFAULT
  6
CONTINUOUS
 62
     7
 10
64.1950615759
 20
99.8408254683
 30
0.0
  0
VERTEX
  5
137
  8
DEFAULT
  6
CONTINUOUS
 62
     7
 10
64.9115177099
 20
99.415225866
 30
0.0
  0
VERTEX
  5
138
  8
DEFAULT
  6
CONTINUOUS
 62
     7
 10
63.2764908363
 20
97.4786572651
 30
0.0
  0
VERTEX
  5
139
  8
DEFAULT
  6
CONTINUOUS
 62
     7
 10
64.1950615759
 20
99.8408254683
 30
0.0
  0
SEQEND
  5
135
  8
DEFAULT
  6
CONTINUOUS
 62
     7
  0
LINE
  5
62
  8
DEFAULT
  6
CONTINUOUS
 62
     7
 10
70.1429393079
 20
109.0376650761
 30
0.0
 11
97.8059827861
 21
109.0376650761
 31
0.0
  0
TEXT
  5
64
  8
DEFAULT
  6
CONTINUOUS
 62
     7
 10
70.1429393079
 20
109.6626650761
 30
0.0
 40
2.5
  1
SK50 DIN69871A
  7
SEACAD_ARIAL_TTF
 11
70.1429393079
 21
112.1626650761
 31
0.0
 73
     3
  0
ENDBLK
  5
66
  8
0
  0
BLOCK
  8
0
  2
SE
 70
     0
 10
0.0
 20
0.0
 30
0.0
  3
SE
  1

  0
LINE
  5
6A
  8
VISIBLE
  6
CONTINUOUS
 62
     7
 10
51.3648545681
 20
57.9762725868
 30
0.0
 11
51.3648545681
 21
62.276215042
 31
0.0
  0
LINE
  5
6B
  8
VISIBLE
  6
CONTINUOUS
 62
     7
 10
48.3529751113
 20
59.2098039318
 30
0.0
 11
48.3529751113
 21
63.807216146
 31
0.0
  0
LINE
  5
6C
  8
VISIBLE
  6
CONTINUOUS
 62
     7
 10
46.4767340249
 20
59.2098039318
 30
0.0
 11
46.4767340249
 21
63.807216146
 31
0.0
  0
LINE
  5
6D
  8
VISIBLE
  6
CONTINUOUS
 62
     7
 10
43.4148545681
 20
57.9762725868
 30
0.0
 11
43.4148545681
 21
62.276215042
 31
0.0
  0
LINE
  5
6E
  8
VISIBLE
  6
CONTINUOUS
 62
     7
 10
52.9648545681
 20
98.9517477282
 30
0.0
 11
52.9648545681
 21
64.0267477282
 31
0.0
  0
LINE
  5
70
  8
0
  6
HIDDEN2
 62
     7
 10
98.0898545681
 20
87.7392477282
 30
0.0
 11
98.0898545681
 21
75.2392477282
 31
0.0
  0
LINE
  5
72
  8
HIDDEN
  6
HIDDEN2
 62
     7
 10
97.4517405907
 20
86.6772477282
 30
0.0
 11
97.4517405907
 21
76.3012477282
 31
0.0
  0
LINE
  5
73
  8
HIDDEN
  6
HIDDEN2
 62
     7
 10
71.3398545681
 20
86.6772477282
 30
0.0
 11
71.3398545681
 21
76.3012477282
 31
0.0
  0
LINE
  5
74
  8
0
  6
HIDDEN2
 62
     7
 10
102.9738291643
 20
75.2392477282
 30
0.0
 11
102.9738291643
 21
87.7392477282
 31
0.0
  0
LINE
  5
75
  8
VISIBLE
  6
CONTINUOUS
 62
     7
 10
103.8398545681
 20
72.3787220352
 30
0.0
 11
103.8398545681
 21
90.5997734212
 31
0.0
  0
LINE
  5
76
  8
VISIBLE
  6
CONTINUOUS
 62
     7
 10
43.4148545681
 20
57.9762725868
 30
0.0
 11
45.791056936
 21
57.9762725868
 31
0.0
  0
POLYLINE
  5
77
  8
VISIBLE
  6
CONTINUOUS
 62
     7
 66
     1
 10
0.0
 20
0.0
 30
0.0
  0
VERTEX
  5
13A
  8
VISIBLE
  6
CONTINUOUS
 62
     7
 10
45.791056936
 20
57.9762725868
 30
0.0
  0
VERTEX
  5
13B
  8
VISIBLE
  6
CONTINUOUS
 62
     7
 10
45.8196669943
 20
58.0276472941
 30
0.0
  0
VERTEX
  5
13C
  8
VISIBLE
  6
CONTINUOUS
 62
     7
 10
45.8482737352
 20
58.0790238766
 30
0.0
  0
VERTEX
  5
13D
  8
VISIBLE
  6
CONTINUOUS
 62
     7
 10
45.8768771349
 20
58.1304023445
 30
0.0
  0
VERTEX
  5
13E
  8
VISIBLE
  6
CONTINUOUS
 62
     7
 10
45.9054771691
 20
58.181782708
 30
0.0
  0
VERTEX
  5
13F
  8
VISIBLE
  6
CONTINUOUS
 62
     7
 10
45.9340738137
 20
58.2331649776
 30
0.0
  0
VERTEX
  5
140
  8
VISIBLE
  6
CONTINUOUS
 62
     7
 10
45.9626670448
 20
58.2845491635
 30
0.0
  0
VERTEX
  5
141
  8
VISIBLE
  6
CONTINUOUS
 62
     7
 10
45.9912568382
 20
58.3359352759
 30
0.0
  0
VERTEX
  5
142
  8
VISIBLE
  6
CONTINUOUS
 62
     7
 10
46.0198431698
 20
58.3873233252
 30
0.0
  0
VERTEX
  5
143
  8
VISIBLE
  6
CONTINUOUS
 62
     7
 10
46.0484260156
 20
58.4387133217
 30
0.0
  0
VERTEX
  5
144
  8
VISIBLE
  6
CONTINUOUS
 62
     7
 10
46.0770053514
 20
58.4901052757
 30
0.0
  0
VERTEX
  5
145
  8
VISIBLE
  6
CONTINUOUS
 62
     7
 10
46.1055811532
 20
58.5414991974
 30
0.0
  0
VERTEX
  5
146
  8
VISIBLE
  6
CONTINUOUS
 62
     7
 10
46.134153397
 20
58.5928950972
 30
0.0
  0
VERTEX
  5
147
  8
VISIBLE
  6
CONTINUOUS
 62
     7
 10
46.1627220586
 20
58.6442929854
 30
0.0
  0
VERTEX
  5
148
  8
VISIBLE
  6
CONTINUOUS
 62
     7
 10
46.1912871139
 20
58.6956928722
 30
0.0
  0
VERTEX
  5
149
  8
VISIBLE
  6
CONTINUOUS
 62
     7
 10
46.2198485388
 20
58.747094768
 30
0.0
  0
VERTEX
  5
14A
  8
VISIBLE
  6
CONTINUOUS
 62
     7
 10
46.2484063094
 20
58.798498683
 30
0.0
  0
VERTEX
  5
14B
  8
VISIBLE
  6
CONTINUOUS
 62
     7
 10
46.2769604014
 20
58.8499046276
 30
0.0
  0
VERTEX
  5
14C
  8
VISIBLE
  6
CONTINUOUS
 62
     7
 10
46.3055107909
 20
58.901312612
 30
0.0
  0
VERTEX
  5
14D
  8
VISIBLE
  6
CONTINUOUS
 62
     7
 10
46.3340574537
 20
58.9527226466
 30
0.0
  0
VERTEX
  5
14E
  8
VISIBLE
  6
CONTINUOUS
 62
     7
 10
46.3626003658
 20
59.0041347416
 30
0.0
  0
VERTEX
  5
14F
  8
VISIBLE
  6
CONTINUOUS
 62
     7
 10
46.391139503
 20
59.0555489073
 30
0.0
  0
VERTEX
  5
150
  8
VISIBLE
  6
CONTINUOUS
 62
     7
 10
46.4196748413
 20
59.1069651541
 30
0.0
  0
VERTEX
  5
151
  8
VISIBLE
  6
CONTINUOUS
 62
     7
 10
46.4482063567
 20
59.1583834921
 30
0.0
  0
VERTEX
  5
152
  8
VISIBLE
  6
CONTINUOUS
 62
     7
 10
46.4767340249
 20
59.2098039318
 30
0.0
  0
SEQEND
  5
153
  8
VISIBLE
  6
CONTINUOUS
 62
     7
  0
LINE
  5
78
  8
VISIBLE
  6
CONTINUOUS
 62
     7
 10
46.4767340249
 20
59.600220083
 30
0.0
 11
48.3529751113
 21
59.600220083
 31
0.0
  0
POLYLINE
  5
79
  8
VISIBLE
  6
CONTINUOUS
 62
     7
 66
     1
 10
0.0
 20
0.0
 30
0.0
  0
VERTEX
  5
154
  8
VISIBLE
  6
CONTINUOUS
 62
     7
 10
48.3529751113
 20
59.2098039318
 30
0.0
  0
VERTEX
  5
155
  8
VISIBLE
  6
CONTINUOUS
 62
     7
 10
48.3815027795
 20
59.1583834921
 30
0.0
  0
VERTEX
  5
156
  8
VISIBLE
  6
CONTINUOUS
 62
     7
 10
48.4100342949
 20
59.1069651541
 30
0.0
  0
VERTEX
  5
157
  8
VISIBLE
  6
CONTINUOUS
 62
     7
 10
48.4385696332
 20
59.0555489073
 30
0.0
  0
VERTEX
  5
158
  8
VISIBLE
  6
CONTINUOUS
 62
     7
 10
48.4671087704
 20
59.0041347416
 30
0.0
  0
VERTEX
  5
159
  8
VISIBLE
  6
CONTINUOUS
 62
     7
 10
48.4956516825
 20
58.9527226466
 30
0.0
  0
VERTEX
  5
15A
  8
VISIBLE
  6
CONTINUOUS
 62
     7
 10
48.5241983453
 20
58.901312612
 30
0.0
  0
VERTEX
  5
15B
  8
VISIBLE
  6
CONTINUOUS
 62
     7
 10
48.5527487347
 20
58.8499046276
 30
0.0
  0
VERTEX
  5
15C
  8
VISIBLE
  6
CONTINUOUS
 62
     7
 10
48.5813028268
 20
58.798498683
 30
0.0
  0
VERTEX
  5
15D
  8
VISIBLE
  6
CONTINUOUS
 62
     7
 10
48.6098605973
 20
58.747094768
 30
0.0
  0
VERTEX
  5
15E
  8
VISIBLE
  6
CONTINUOUS
 62
     7
 10
48.6384220223
 20
58.6956928722
 30
0.0
  0
VERTEX
  5
15F
  8
VISIBLE
  6
CONTINUOUS
 62
     7
 10
48.6669870776
 20
58.6442929854
 30
0.0
  0
VERTEX
  5
160
  8
VISIBLE
  6
CONTINUOUS
 62
     7
 10
48.6955557392
 20
58.5928950972
 30
0.0
  0
VERTEX
  5
161
  8
VISIBLE
  6
CONTINUOUS
 62
     7
 10
48.7241279829
 20
58.5414991974
 30
0.0
  0
VERTEX
  5
162
  8
VISIBLE
  6
CONTINUOUS
 62
     7
 10
48.7527037848
 20
58.4901052757
 30
0.0
  0
VERTEX
  5
163
  8
VISIBLE
  6
CONTINUOUS
 62
     7
 10
48.7812831206
 20
58.4387133217
 30
0.0
  0
VERTEX
  5
164
  8
VISIBLE
  6
CONTINUOUS
 62
     7
 10
48.8098659664
 20
58.3873233252
 30
0.0
  0
VERTEX
  5
165
  8
VISIBLE
  6
CONTINUOUS
 62
     7
 10
48.838452298
 20
58.3359352759
 30
0.0
  0
VERTEX
  5
166
  8
VISIBLE
  6
CONTINUOUS
 62
     7
 10
48.8670420914
 20
58.2845491635
 30
0.0
  0
VERTEX
  5
167
  8
VISIBLE
  6
CONTINUOUS
 62
     7
 10
48.8956353225
 20
58.2331649776
 30
0.0
  0
VERTEX
  5
168
  8
VISIBLE
  6
CONTINUOUS
 62
     7
 10
48.9242319671
 20
58.181782708
 30
0.0
  0
VERTEX
  5
169
  8
VISIBLE
  6
CONTINUOUS
 62
     7
 10
48.9528320013
 20
58.1304023445
 30
0.0
  0
VERTEX
  5
16A
  8
VISIBLE
  6
CONTINUOUS
 62
     7
 10
48.9814354009
 20
58.0790238766
 30
0.0
  0
VERTEX
  5
16B
  8
VISIBLE
  6
CONTINUOUS
 62
     7
 10
49.0100421419
 20
58.0276472941
 30
0.0
  0
VERTEX
  5
16C
  8
VISIBLE
  6
CONTINUOUS
 62
     7
 10
49.0386522002
 20
57.9762725868
 30
0.0
  0
SEQEND
  5
16D
  8
VISIBLE
  6
CONTINUOUS
 62
     7
  0
LINE
  5
7A
  8
VISIBLE
  6
CONTINUOUS
 62
     7
 10
49.0386522002
 20
57.9762725868
 30
0.0
 11
51.3648545681
 21
57.9762725868
 31
0.0
  0
LINE
  5
7B
  8
VISIBLE
  6
CONTINUOUS
 62
     7
 10
51.4091635982
 20
99.2392477282
 30
0.0
 11
51.4122574963
 21
99.2392477282
 31
0.0
  0
LINE
  5
7C
  8
VISIBLE
  6
CONTINUOUS
 62
     7
 10
45.791056936
 20
105.0022228696
 30
0.0
 11
43.4148545681
 21
105.0022228696
 31
0.0
  0
LINE
  5
7D
  8
VISIBLE
  6
CONTINUOUS
 62
     7
 10
51.3648545681
 20
105.0022228696
 30
0.0
 11
49.0386522002
 21
105.0022228696
 31
0.0
  0
POLYLINE
  5
7E
  8
VISIBLE
  6
CONTINUOUS
 62
     7
 66
     1
 10
0.0
 20
0.0
 30
0.0
  0
VERTEX
  5
16E
  8
VISIBLE
  6
CONTINUOUS
 62
     7
 10
49.0386522002
 20
105.0022228696
 30
0.0
  0
VERTEX
  5
16F
  8
VISIBLE
  6
CONTINUOUS
 62
     7
 10
49.010041929
 20
104.9508477798
 30
0.0
  0
VERTEX
  5
170
  8
VISIBLE
  6
CONTINUOUS
 62
     7
 10
48.9814350016
 20
104.8994708626
 30
0.0
  0
VERTEX
  5
171
  8
VISIBLE
  6
CONTINUOUS
 62
     7
 10
48.952831441
 20
104.8480921056
 30
0.0
  0
VERTEX
  5
172
  8
VISIBLE
  6
CONTINUOUS
 62
     7
 10
48.9242312703
 20
104.7967114966
 30
0.0
  0
VERTEX
  5
173
  8
VISIBLE
  6
CONTINUOUS
 62
     7
 10
48.8956345123
 20
104.7453290234
 30
0.0
  0
VERTEX
  5
174
  8
VISIBLE
  6
CONTINUOUS
 62
     7
 10
48.8670411902
 20
104.6939446737
 30
0.0
  0
VERTEX
  5
175
  8
VISIBLE
  6
CONTINUOUS
 62
     7
 10
48.8384513267
 20
104.6425584353
 30
0.0
  0
VERTEX
  5
176
  8
VISIBLE
  6
CONTINUOUS
 62
     7
 10
48.8098649451
 20
104.5911702958
 30
0.0
  0
VERTEX
  5
177
  8
VISIBLE
  6
CONTINUOUS
 62
     7
 10
48.7812820681
 20
104.5397802431
 30
0.0
  0
VERTEX
  5
178
  8
VISIBLE
  6
CONTINUOUS
 62
     7
 10
48.7527027189
 20
104.4883882648
 30
0.0
  0
VERTEX
  5
179
  8
VISIBLE
  6
CONTINUOUS
 62
     7
 10
48.7241269204
 20
104.4369943487
 30
0.0
  0
VERTEX
  5
17A
  8
VISIBLE
  6
CONTINUOUS
 62
     7
 10
48.6955546955
 20
104.3855984826
 30
0.0
  0
VERTEX
  5
17B
  8
VISIBLE
  6
CONTINUOUS
 62
     7
 10
48.6669860674
 20
104.3342006542
 30
0.0
  0
VERTEX
  5
17C
  8
VISIBLE
  6
CONTINUOUS
 62
     7
 10
48.6384210589
 20
104.2828008513
 30
0.0
  0
VERTEX
  5
17D
  8
VISIBLE
  6
CONTINUOUS
 62
     7
 10
48.609859693
 20
104.2313990615
 30
0.0
  0
VERTEX
  5
17E
  8
VISIBLE
  6
CONTINUOUS
 62
     7
 10
48.5813019927
 20
104.1799952727
 30
0.0
  0
VERTEX
  5
17F
  8
VISIBLE
  6
CONTINUOUS
 62
     7
 10
48.5527479811
 20
104.1285894725
 30
0.0
  0
VERTEX
  5
180
  8
VISIBLE
  6
CONTINUOUS
 62
     7
 10
48.524197681
 20
104.0771816488
 30
0.0
  0
VERTEX
  5
181
  8
VISIBLE
  6
CONTINUOUS
 62
     7
 10
48.4956511156
 20
104.0257717892
 30
0.0
  0
VERTEX
  5
182
  8
VISIBLE
  6
CONTINUOUS
 62
     7
 10
48.4671083076
 20
103.9743598815
 30
0.0
  0
VERTEX
  5
183
  8
VISIBLE
  6
CONTINUOUS
 62
     7
 10
48.4385692803
 20
103.9229459134
 30
0.0
  0
VERTEX
  5
184
  8
VISIBLE
  6
CONTINUOUS
 62
     7
 10
48.4100340564
 20
103.8715298727
 30
0.0
  0
VERTEX
  5
185
  8
VISIBLE
  6
CONTINUOUS
 62
     7
 10
48.3815026591
 20
103.8201117472
 30
0.0
  0
VERTEX
  5
186
  8
VISIBLE
  6
CONTINUOUS
 62
     7
 10
48.3529751113
 20
103.7686915246
 30
0.0
  0
SEQEND
  5
187
  8
VISIBLE
  6
CONTINUOUS
 62
     7
  0
LINE
  5
7F
  8
VISIBLE
  6
CONTINUOUS
 62
     7
 10
48.3529751113
 20
103.3782753733
 30
0.0
 11
46.4767340249
 21
103.3782753733
 31
0.0
  0
POLYLINE
  5
80
  8
VISIBLE
  6
CONTINUOUS
 62
     7
 66
     1
 10
0.0
 20
0.0
 30
0.0
  0
VERTEX
  5
188
  8
VISIBLE
  6
CONTINUOUS
 62
     7
 10
46.4767340249
 20
103.7686915246
 30
0.0
  0
VERTEX
  5
189
  8
VISIBLE
  6
CONTINUOUS
 62
     7
 10
46.4482064771
 20
103.8201117472
 30
0.0
  0
VERTEX
  5
18A
  8
VISIBLE
  6
CONTINUOUS
 62
     7
 10
46.4196750798
 20
103.8715298727
 30
0.0
  0
VERTEX
  5
18B
  8
VISIBLE
  6
CONTINUOUS
 62
     7
 10
46.3911398559
 20
103.9229459134
 30
0.0
  0
VERTEX
  5
18C
  8
VISIBLE
  6
CONTINUOUS
 62
     7
 10
46.3626008285
 20
103.9743598815
 30
0.0
  0
VERTEX
  5
18D
  8
VISIBLE
  6
CONTINUOUS
 62
     7
 10
46.3340580206
 20
104.0257717892
 30
0.0
  0
VERTEX
  5
18E
  8
VISIBLE
  6
CONTINUOUS
 62
     7
 10
46.3055114551
 20
104.0771816488
 30
0.0
  0
VERTEX
  5
18F
  8
VISIBLE
  6
CONTINUOUS
 62
     7
 10
46.2769611551
 20
104.1285894725
 30
0.0
  0
VERTEX
  5
190
  8
VISIBLE
  6
CONTINUOUS
 62
     7
 10
46.2484071434
 20
104.1799952727
 30
0.0
  0
VERTEX
  5
191
  8
VISIBLE
  6
CONTINUOUS
 62
     7
 10
46.2198494432
 20
104.2313990615
 30
0.0
  0
VERTEX
  5
192
  8
VISIBLE
  6
CONTINUOUS
 62
     7
 10
46.1912880773
 20
104.2828008513
 30
0.0
  0
VERTEX
  5
193
  8
VISIBLE
  6
CONTINUOUS
 62
     7
 10
46.1627230688
 20
104.3342006542
 30
0.0
  0
VERTEX
  5
194
  8
VISIBLE
  6
CONTINUOUS
 62
     7
 10
46.1341544406
 20
104.3855984826
 30
0.0
  0
VERTEX
  5
195
  8
VISIBLE
  6
CONTINUOUS
 62
     7
 10
46.1055822158
 20
104.4369943487
 30
0.0
  0
VERTEX
  5
196
  8
VISIBLE
  6
CONTINUOUS
 62
     7
 10
46.0770064173
 20
104.4883882648
 30
0.0
  0
VERTEX
  5
197
  8
VISIBLE
  6
CONTINUOUS
 62
     7
 10
46.0484270681
 20
104.5397802431
 30
0.0
  0
VERTEX
  5
198
  8
VISIBLE
  6
CONTINUOUS
 62
     7
 10
46.0198441911
 20
104.5911702958
 30
0.0
  0
VERTEX
  5
199
  8
VISIBLE
  6
CONTINUOUS
 62
     7
 10
45.9912578094
 20
104.6425584353
 30
0.0
  0
VERTEX
  5
19A
  8
VISIBLE
  6
CONTINUOUS
 62
     7
 10
45.962667946
 20
104.6939446737
 30
0.0
  0
VERTEX
  5
19B
  8
VISIBLE
  6
CONTINUOUS
 62
     7
 10
45.9340746239
 20
104.7453290234
 30
0.0
  0
VERTEX
  5
19C
  8
VISIBLE
  6
CONTINUOUS
 62
     7
 10
45.9054778659
 20
104.7967114966
 30
0.0
  0
VERTEX
  5
19D
  8
VISIBLE
  6
CONTINUOUS
 62
     7
 10
45.8768776952
 20
104.8480921056
 30
0.0
  0
VERTEX
  5
19E
  8
VISIBLE
  6
CONTINUOUS
 62
     7
 10
45.8482741346
 20
104.8994708626
 30
0.0
  0
VERTEX
  5
19F
  8
VISIBLE
  6
CONTINUOUS
 62
     7
 10
45.8196672072
 20
104.9508477798
 30
0.0
  0
VERTEX
  5
1A0
  8
VISIBLE
  6
CONTINUOUS
 62
     7
 10
45.791056936
 20
105.0022228696
 30
0.0
  0
SEQEND
  5
1A1
  8
VISIBLE
  6
CONTINUOUS
 62
     7
  0
LINE
  5
81
  8
VISIBLE
  6
CONTINUOUS
 62
     7
 10
51.3648545681
 20
66.4892477282
 30
0.0
 11
51.3648545681
 21
105.0022228696
 31
0.0
  0
LINE
  5
82
  8
VISIBLE
  6
CONTINUOUS
 62
     7
 10
51.3648545681
 20
62.276215042
 30
0.0
 11
51.3648545681
 21
66.4892477282
 31
0.0
  0
LINE
  5
83
  8
VISIBLE
  6
CONTINUOUS
 62
     7
 10
48.3529751113
 20
66.4892477282
 30
0.0
 11
48.3529751113
 21
103.7686915246
 31
0.0
  0
LINE
  5
84
  8
VISIBLE
  6
CONTINUOUS
 62
     7
 10
46.4767340249
 20
66.4892477282
 30
0.0
 11
46.4767340249
 21
103.7686915246
 31
0.0
  0
LINE
  5
85
  8
VISIBLE
  6
CONTINUOUS
 62
     7
 10
43.4148545681
 20
66.4892477282
 30
0.0
 11
43.4148545681
 21
105.0022228696
 31
0.0
  0
LINE
  5
86
  8
VISIBLE
  6
CONTINUOUS
 62
     7
 10
43.4148545681
 20
66.4892477282
 30
0.0
 11
43.4148545681
 21
62.276215042
 31
0.0
  0
LINE
  5
87
  8
VISIBLE
  6
CONTINUOUS
 62
     7
 10
43.4148545681
 20
62.276215042
 30
0.0
 11
45.791056936
 21
62.276215042
 31
0.0
  0
POLYLINE
  5
88
  8
VISIBLE
  6
CONTINUOUS
 62
     7
 66
     1
 10
0.0
 20
0.0
 30
0.0
  0
VERTEX
  5
1A2
  8
VISIBLE
  6
CONTINUOUS
 62
     7
 10
45.791056936
 20
62.276215042
 30
0.0
  0
VERTEX
  5
1A3
  8
VISIBLE
  6
CONTINUOUS
 62
     7
 10
45.8199922725
 20
62.33983748
 30
0.0
  0
VERTEX
  5
1A4
  8
VISIBLE
  6
CONTINUOUS
 62
     7
 10
45.8488984336
 20
62.4034760014
 30
0.0
  0
VERTEX
  5
1A5
  8
VISIBLE
  6
CONTINUOUS
 62
     7
 10
45.8777750642
 20
62.4671304203
 30
0.0
  0
VERTEX
  5
1A6
  8
VISIBLE
  6
CONTINUOUS
 62
     7
 10
45.9066218093
 20
62.5308005506
 30
0.0
  0
VERTEX
  5
1A7
  8
VISIBLE
  6
CONTINUOUS
 62
     7
 10
45.935438314
 20
62.5944862064
 30
0.0
  0
VERTEX
  5
1A8
  8
VISIBLE
  6
CONTINUOUS
 62
     7
 10
45.964224223
 20
62.6581872017
 30
0.0
  0
VERTEX
  5
1A9
  8
VISIBLE
  6
CONTINUOUS
 62
     7
 10
45.9929791816
 20
62.7219033506
 30
0.0
  0
VERTEX
  5
1AA
  8
VISIBLE
  6
CONTINUOUS
 62
     7
 10
46.0217028345
 20
62.7856344669
 30
0.0
  0
VERTEX
  5
1AB
  8
VISIBLE
  6
CONTINUOUS
 62
     7
 10
46.0503948269
 20
62.8493803648
 30
0.0
  0
VERTEX
  5
1AC
  8
VISIBLE
  6
CONTINUOUS
 62
     7
 10
46.0790548036
 20
62.9131408582
 30
0.0
  0
VERTEX
  5
1AD
  8
VISIBLE
  6
CONTINUOUS
 62
     7
 10
46.1076824097
 20
62.9769157612
 30
0.0
  0
VERTEX
  5
1AE
  8
VISIBLE
  6
CONTINUOUS
 62
     7
 10
46.1362772901
 20
63.0407048878
 30
0.0
  0
VERTEX
  5
1AF
  8
VISIBLE
  6
CONTINUOUS
 62
     7
 10
46.1648390898
 20
63.1045080519
 30
0.0
  0
VERTEX
  5
1B0
  8
VISIBLE
  6
CONTINUOUS
 62
     7
 10
46.1933674538
 20
63.1683250677
 30
0.0
  0
VERTEX
  5
1B1
  8
VISIBLE
  6
CONTINUOUS
 62
     7
 10
46.2218620271
 20
63.2321557491
 30
0.0
  0
VERTEX
  5
1B2
  8
VISIBLE
  6
CONTINUOUS
 62
     7
 10
46.2503224547
 20
63.29599991
 30
0.0
  0
VERTEX
  5
1B3
  8
VISIBLE
  6
CONTINUOUS
 62
     7
 10
46.2787483814
 20
63.3598573647
 30
0.0
  0
VERTEX
  5
1B4
  8
VISIBLE
  6
CONTINUOUS
 62
     7
 10
46.3071394523
 20
63.4237279269
 30
0.0
  0
VERTEX
  5
1B5
  8
VISIBLE
  6
CONTINUOUS
 62
     7
 10
46.3354953125
 20
63.4876114109
 30
0.0
  0
VERTEX
  5
1B6
  8
VISIBLE
  6
CONTINUOUS
 62
     7
 10
46.3638156067
 20
63.5515076305
 30
0.0
  0
VERTEX
  5
1B7
  8
VISIBLE
  6
CONTINUOUS
 62
     7
 10
46.3920999801
 20
63.6154163998
 30
0.0
  0
VERTEX
  5
1B8
  8
VISIBLE
  6
CONTINUOUS
 62
     7
 10
46.4203480777
 20
63.6793375328
 30
0.0
  0
VERTEX
  5
1B9
  8
VISIBLE
  6
CONTINUOUS
 62
     7
 10
46.4485595443
 20
63.7432708435
 30
0.0
  0
VERTEX
  5
1BA
  8
VISIBLE
  6
CONTINUOUS
 62
     7
 10
46.4767340249
 20
63.807216146
 30
0.0
  0
SEQEND
  5
1BB
  8
VISIBLE
  6
CONTINUOUS
 62
     7
  0
LINE
  5
89
  8
VISIBLE
  6
CONTINUOUS
 62
     7
 10
46.4767340249
 20
63.807216146
 30
0.0
 11
46.4767340249
 21
64.3017477282
 31
0.0
  0
LINE
  5
8A
  8
VISIBLE
  6
CONTINUOUS
 62
     7
 10
46.4767340249
 20
64.3017477282
 30
0.0
 11
48.3529751113
 21
64.3017477282
 31
0.0
  0
LINE
  5
8B
  8
VISIBLE
  6
CONTINUOUS
 62
     7
 10
48.3529751113
 20
64.3017477282
 30
0.0
 11
48.3529751113
 21
63.807216146
 31
0.0
  0
POLYLINE
  5
8C
  8
VISIBLE
  6
CONTINUOUS
 62
     7
 66
     1
 10
0.0
 20
0.0
 30
0.0
  0
VERTEX
  5
1BC
  8
VISIBLE
  6
CONTINUOUS
 62
     7
 10
48.3529751113
 20
63.807216146
 30
0.0
  0
VERTEX
  5
1BD
  8
VISIBLE
  6
CONTINUOUS
 62
     7
 10
48.3811596896
 20
63.7432479156
 30
0.0
  0
VERTEX
  5
1BE
  8
VISIBLE
  6
CONTINUOUS
 62
     7
 10
48.4093797301
 20
63.6792951511
 30
0.0
  0
VERTEX
  5
1BF
  8
VISIBLE
  6
CONTINUOUS
 62
     7
 10
48.4376349657
 20
63.6153578366
 30
0.0
  0
VERTEX
  5
1C0
  8
VISIBLE
  6
CONTINUOUS
 62
     7
 10
48.4659251296
 20
63.5514359561
 30
0.0
  0
VERTEX
  5
1C1
  8
VISIBLE
  6
CONTINUOUS
 62
     7
 10
48.4942499548
 20
63.4875294939
 30
0.0
  0
VERTEX
  5
1C2
  8
VISIBLE
  6
CONTINUOUS
 62
     7
 10
48.5226091742
 20
63.423638434
 30
0.0
  0
VERTEX
  5
1C3
  8
VISIBLE
  6
CONTINUOUS
 62
     7
 10
48.5510025209
 20
63.3597627605
 30
0.0
  0
VERTEX
  5
1C4
  8
VISIBLE
  6
CONTINUOUS
 62
     7
 10
48.579429728
 20
63.2959024575
 30
0.0
  0
VERTEX
  5
1C5
  8
VISIBLE
  6
CONTINUOUS
 62
     7
 10
48.6078905284
 20
63.2320575092
 30
0.0
  0
VERTEX
  5
1C6
  8
VISIBLE
  6
CONTINUOUS
 62
     7
 10
48.6363846553
 20
63.1682278997
 30
0.0
  0
VERTEX
  5
1C7
  8
VISIBLE
  6
CONTINUOUS
 62
     7
 10
48.6649118416
 20
63.1044136131
 30
0.0
  0
VERTEX
  5
1C8
  8
VISIBLE
  6
CONTINUOUS
 62
     7
 10
48.6934718203
 20
63.0406146335
 30
0.0
  0
VERTEX
  5
1C9
  8
VISIBLE
  6
CONTINUOUS
 62
     7
 10
48.7220643245
 20
62.9768309449
 30
0.0
  0
VERTEX
  5
1CA
  8
VISIBLE
  6
CONTINUOUS
 62
     7
 10
48.7506890873
 20
62.9130625317
 30
0.0
  0
VERTEX
  5
1CB
  8
VISIBLE
  6
CONTINUOUS
 62
     7
 10
48.7793458416
 20
62.8493093778
 30
0.0
  0
VERTEX
  5
1CC
  8
VISIBLE
  6
CONTINUOUS
 62
     7
 10
48.8080343205
 20
62.7855714673
 30
0.0
  0
VERTEX
  5
1CD
  8
VISIBLE
  6
CONTINUOUS
 62
     7
 10
48.836754257
 20
62.7218487844
 30
0.0
  0
VERTEX
  5
1CE
  8
VISIBLE
  6
CONTINUOUS
 62
     7
 10
48.8655053841
 20
62.6581413132
 30
0.0
  0
VERTEX
  5
1CF
  8
VISIBLE
  6
CONTINUOUS
 62
     7
 10
48.8942874349
 20
62.5944490378
 30
0.0
  0
VERTEX
  5
1D0
  8
VISIBLE
  6
CONTINUOUS
 62
     7
 10
48.9231001424
 20
62.5307719424
 30
0.0
  0
VERTEX
  5
1D1
  8
VISIBLE
  6
CONTINUOUS
 62
     7
 10
48.9519432397
 20
62.4671100109
 30
0.0
  0
VERTEX
  5
1D2
  8
VISIBLE
  6
CONTINUOUS
 62
     7
 10
48.9808164597
 20
62.4034632277
 30
0.0
  0
VERTEX
  5
1D3
  8
VISIBLE
  6
CONTINUOUS
 62
     7
 10
49.0097195355
 20
62.3398315766
 30
0.0
  0
VERTEX
  5
1D4
  8
VISIBLE
  6
CONTINUOUS
 62
     7
 10
49.0386522002
 20
62.276215042
 30
0.0
  0
SEQEND
  5
1D5
  8
VISIBLE
  6
CONTINUOUS
 62
     7
  0
LINE
  5
8D
  8
VISIBLE
  6
CONTINUOUS
 62
     7
 10
49.0386522002
 20
62.276215042
 30
0.0
 11
51.3648545681
 21
62.276215042
 31
0.0
  0
LINE
  5
8E
  8
VISIBLE
  6
CONTINUOUS
 62
     7
 10
45.791056936
 20
66.4892477282
 30
0.0
 11
43.4148545681
 21
66.4892477282
 31
0.0
  0
LINE
  5
8F
  8
VISIBLE
  6
CONTINUOUS
 62
     7
 10
51.3648545681
 20
66.4892477282
 30
0.0
 11
49.0386522002
 21
66.4892477282
 31
0.0
  0
LINE
  5
90
  8
VISIBLE
  6
CONTINUOUS
 62
     7
 10
49.0386522002
 20
66.4892477282
 30
0.0
 11
48.3529751113
 21
66.4892477282
 31
0.0
  0
LINE
  5
91
  8
VISIBLE
  6
CONTINUOUS
 62
     7
 10
48.3529751113
 20
66.4892477282
 30
0.0
 11
46.4767340249
 21
66.4892477282
 31
0.0
  0
LINE
  5
92
  8
VISIBLE
  6
CONTINUOUS
 62
     7
 10
46.4767340249
 20
66.4892477282
 30
0.0
 11
45.791056936
 21
66.4892477282
 31
0.0
  0
LINE
  5
93
  8
VISIBLE
  6
CONTINUOUS
 62
     7
 10
22.9648545681
 20
96.7392477282
 30
0.0
 11
22.9648545681
 21
66.2392477282
 31
0.0
  0
LINE
  5
94
  8
0
  6
HIDDEN2
 62
     7
 10
42.4014936353
 20
87.7392477282
 30
0.0
 11
42.4014936353
 21
75.2392477282
 31
0.0
  0
LINE
  5
95
  8
0
  6
HIDDEN2
 62
     7
 10
47.9648545681
 20
75.6142477282
 30
0.0
 11
47.9648545681
 21
82.7649995853
 31
0.0
  0
LINE
  5
96
  8
HIDDEN
  6
HIDDEN2
 62
     7
 10
27.7148545681
 20
94.0392477282
 30
0.0
 11
27.7148545681
 21
68.9392477282
 31
0.0
  0
LINE
  5
97
  8
0
  6
HIDDEN2
 62
     7
 10
28.4648545681
 20
93.7892477282
 30
0.0
 11
28.4648545681
 21
69.1892477282
 31
0.0
  0
LINE
  5
98
  8
0
  6
HIDDEN2
 62
     7
 10
43.1514936353
 20
87.7392477282
 30
0.0
 11
43.1514936353
 21
75.2392477282
 31
0.0
  0
LINE
  5
99
  8
0
  6
HIDDEN2
 62
     7
 10
69.2210698102
 20
83.1509977282
 30
0.0
 11
69.2210698102
 21
79.8274977282
 31
0.0
  0
LINE
  5
9A
  8
0
  6
HIDDEN2
 62
     7
 10
50.2711078391
 20
79.8274977282
 30
0.0
 11
50.2711078391
 21
83.1509977282
 31
0.0
  0
LINE
  5
9B
  8
0
  6
HIDDEN2
 62
     7
 10
47.9648545681
 20
84.1108503662
 30
0.0
 11
47.9648545681
 21
82.7649995853
 31
0.0
  0
LINE
  5
9C
  8
0
  6
HIDDEN2
 62
     7
 10
47.9648545681
 20
87.3642477282
 30
0.0
 11
47.9648545681
 21
84.1982319626
 31
0.0
  0
LINE
  5
9D
  8
VISIBLE
  6
CONTINUOUS
 62
     7
 10
52.9648545681
 20
64.0267477282
 30
0.0
 11
102.7666312125
 21
71.1412851608
 31
0.0
  0
LINE
  5
9E
  8
VISIBLE
  6
CONTINUOUS
 62
     7
 10
102.7666312125
 20
91.8372102956
 30
0.0
 11
52.9648545681
 21
98.9517477282
 31
0.0
  0
LINE
  5
9F
  8
VISIBLE
  6
CONTINUOUS
 62
     7
 10
51.8648545681
 20
64.0267477282
 30
0.0
 11
52.9648545681
 21
64.0267477282
 31
0.0
  0
LINE
  5
A0
  8
VISIBLE
  6
CONTINUOUS
 62
     7
 10
52.9648545681
 20
98.9517477282
 30
0.0
 11
51.8648545681
 21
98.9517477282
 31
0.0
  0
LINE
  5
A1
  8
HIDDEN
  6
HIDDEN2
 62
     7
 10
98.0898545681
 20
75.2392477282
 30
0.0
 11
102.9738291643
 21
75.2392477282
 31
0.0
  0
LINE
  5
A2
  8
HIDDEN
  6
HIDDEN2
 62
     7
 10
102.9738291643
 20
87.7392477282
 30
0.0
 11
98.0898545681
 21
87.7392477282
 31
0.0
  0
LINE
  5
A3
  8
HIDDEN
  6
HIDDEN2
 62
     7
 10
98.0898545681
 20
87.7392477282
 30
0.0
 11
97.4517405907
 21
86.6772477282
 31
0.0
  0
LINE
  5
A4
  8
HIDDEN
  6
HIDDEN2
 62
     7
 10
97.4517405907
 20
76.3012477282
 30
0.0
 11
98.0898545681
 21
75.2392477282
 31
0.0
  0
LINE
  5
A5
  8
HIDDEN
  6
HIDDEN2
 62
     7
 10
71.3398545681
 20
76.3012477282
 30
0.0
 11
97.4517405907
 21
76.3012477282
 31
0.0
  0
LINE
  5
A6
  8
HIDDEN
  6
HIDDEN2
 62
     7
 10
97.4517405907
 20
86.6772477282
 30
0.0
 11
71.3398545681
 21
86.6772477282
 31
0.0
  0
LINE
  5
A7
  8
HIDDEN
  6
HIDDEN2
 62
     7
 10
71.3398545681
 20
86.6772477282
 30
0.0
 11
69.2210698102
 21
83.1509977282
 31
0.0
  0
LINE
  5
A8
  8
HIDDEN
  6
HIDDEN2
 62
     7
 10
69.2210698102
 20
79.8274977282
 30
0.0
 11
71.3398545681
 21
76.3012477282
 31
0.0
  0
LINE
  5
A9
  8
0
  6
HIDDEN2
 62
     7
 10
103.8398545681
 20
88.2392477282
 30
0.0
 11
102.9738291643
 21
87.7392477282
 31
0.0
  0
LINE
  5
AA
  8
0
  6
HIDDEN2
 62
     7
 10
102.9738291643
 20
75.2392477282
 30
0.0
 11
103.8398545681
 21
74.7392477282
 31
0.0
  0
ARC
  5
AB
  8
VISIBLE
  6
CONTINUOUS
 62
     7
 10
102.5898545681
 20
90.5997734212
 30
0.0
 40
1.250000000000001
 50
0.0
 51
81.8699
  0
ARC
  5
AC
  8
VISIBLE
  6
CONTINUOUS
 62
     7
 10
102.5898545681
 20
72.3787220352
 30
0.0
 40
1.25
 50
278.1301
 51
0.0
  0
ARC
  5
AD
  8
VISIBLE
  6
CONTINUOUS
 62
     7
 10
51.8648545681
 20
99.4517477282
 30
0.0
 40
0.5000000000000004
 50
205.1220349258
 51
270.0
  0
ARC
  5
AE
  8
VISIBLE
  6
CONTINUOUS
 62
     7
 10
51.8648545681
 20
63.5267477282
 30
0.0
 40
0.5000000000000004
 50
90.0
 51
180.0
  0
LINE
  5
AF
  8
VISIBLE
  6
CONTINUOUS
 62
     7
 10
23.4648545681
 20
97.2392477282
 30
0.0
 11
22.9648545681
 21
96.7392477282
 31
0.0
  0
LINE
  5
B0
  8
VISIBLE
  6
CONTINUOUS
 62
     7
 10
22.9648545681
 20
66.2392477282
 30
0.0
 11
23.4648545681
 21
65.7392477282
 31
0.0
  0
LINE
  5
B1
  8
0
  6
HIDDEN2
 62
     7
 10
29.6806300904
 20
73.5915072996
 30
0.0
 11
42.1164494188
 21
75.3392477282
 31
0.0
  0
LINE
  5
B2
  8
0
  6
HIDDEN2
 62
     7
 10
42.1164494188
 20
87.6392477282
 30
0.0
 11
29.6806300904
 21
89.3869881568
 31
0.0
  0
LINE
  5
B3
  8
0
  6
HIDDEN2
 62
     7
 10
42.1164494188
 20
75.3392477282
 30
0.0
 11
42.2282885545
 21
75.3392477282
 31
0.0
  0
LINE
  5
B4
  8
0
  6
HIDDEN2
 62
     7
 10
42.4014936353
 20
87.7392477282
 30
0.0
 11
42.2282885545
 21
87.6392477282
 31
0.0
  0
LINE
  5
B5
  8
0
  6
HIDDEN2
 62
     7
 10
42.2282885545
 20
75.3392477282
 30
0.0
 11
42.4014936353
 21
75.2392477282
 31
0.0
  0
LINE
  5
B6
  8
0
  6
HIDDEN2
 62
     7
 10
43.1514936353
 20
75.2392477282
 30
0.0
 11
43.245652419
 21
75.4979468604
 31
0.0
  0
LINE
  5
B7
  8
0
  6
HIDDEN2
 62
     7
 10
43.245652419
 20
87.480548596
 30
0.0
 11
43.1514936353
 21
87.7392477282
 31
0.0
  0
LINE
  5
B8
  8
0
  6
HIDDEN2
 62
     7
 10
43.245652419
 20
75.4979468604
 30
0.0
 11
44.0731760925
 21
75.6142477282
 31
0.0
  0
LINE
  5
B9
  8
0
  6
HIDDEN2
 62
     7
 10
44.0731760925
 20
75.6142477282
 30
0.0
 11
47.9648545681
 21
75.6142477282
 31
0.0
  0
LINE
  5
BA
  8
0
  6
HIDDEN2
 62
     7
 10
47.9648545681
 20
87.3642477282
 30
0.0
 11
44.0731760925
 21
87.3642477282
 31
0.0
  0
LINE
  5
BB
  8
0
  6
HIDDEN2
 62
     7
 10
42.2282885545
 20
87.6392477282
 30
0.0
 11
42.1164494188
 21
87.6392477282
 31
0.0
  0
LINE
  5
BC
  8
0
  6
HIDDEN2
 62
     7
 10
44.0731760925
 20
87.3642477282
 30
0.0
 11
43.245652419
 21
87.480548596
 31
0.0
  0
LINE
  5
BD
  8
HIDDEN
  6
HIDDEN2
 62
     7
 10
27.7148545681
 20
68.9392477282
 30
0.0
 11
28.2148545681
 21
68.9392477282
 31
0.0
  0
LINE
  5
BE
  8
HIDDEN
  6
HIDDEN2
 62
     7
 10
28.2148545681
 20
94.0392477282
 30
0.0
 11
27.7148545681
 21
94.0392477282
 31
0.0
  0
ARC
  5
BF
  8
HIDDEN
  6
HIDDEN2
 62
     7
 10
28.2148545681
 20
69.1892477282
 30
0.0
 40
0.2500000000000002
 50
270.0
 51
360.0
  0
ARC
  5
C0
  8
HIDDEN
  6
HIDDEN2
 62
     7
 10
28.2148545681
 20
93.7892477282
 30
0.0
 40
0.2500000000000002
 50
0.0
 51
90.0
  0
LINE
  5
C1
  8
0
  6
HIDDEN2
 62
     7
 10
28.4648545681
 20
71.4857223244
 30
0.0
 11
29.6806300904
 21
73.5915072996
 31
0.0
  0
LINE
  5
C2
  8
0
  6
HIDDEN2
 62
     7
 10
29.6806300904
 20
89.3869881568
 30
0.0
 11
28.4648545681
 21
91.492773132
 31
0.0
  0
LINE
  5
C3
  8
HIDDEN
  6
HIDDEN2
 62
     7
 10
42.4014936353
 20
75.2392477282
 30
0.0
 11
43.1514936353
 21
75.2392477282
 31
0.0
  0
LINE
  5
C4
  8
0
  6
HIDDEN2
 62
     7
 10
43.1514936353
 20
87.7392477282
 30
0.0
 11
42.4014936353
 21
87.7392477282
 31
0.0
  0
LINE
  5
C5
  8
0
  6
HIDDEN2
 62
     7
 10
47.9648545681
 20
75.9892477282
 30
0.0
 11
50.2711078391
 21
79.8274977282
 31
0.0
  0
LINE
  5
C6
  8
0
  6
HIDDEN2
 62
     7
 10
50.2711078391
 20
83.1509977282
 30
0.0
 11
47.9648545681
 21
86.9892477282
 31
0.0
  0
LINE
  5
C7
  8
0
  6
HIDDEN2
 62
     7
 10
58.9648545681
 20
83.1509977282
 30
0.0
 11
50.2711078391
 21
83.1509977282
 31
0.0
  0
LINE
  5
C8
  8
0
  6
HIDDEN2
 62
     7
 10
50.2711078391
 20
79.8274977282
 30
0.0
 11
58.9648545681
 21
79.8274977282
 31
0.0
  0
LINE
  5
C9
  8
0
  6
HIDDEN2
 62
     7
 10
69.2210698102
 20
83.1509977282
 30
0.0
 11
58.9648545681
 21
83.1509977282
 31
0.0
  0
LINE
  5
CA
  8
0
  6
HIDDEN2
 62
     7
 10
58.9648545681
 20
79.8274977282
 30
0.0
 11
69.2210698102
 21
79.8274977282
 31
0.0
  0
ARC
  5
CB
  8
VISIBLE
  6
CONTINUOUS
 62
     7
 10
42.9148545681
 20
65.2392477282
 30
0.0
 40
0.5000000000000004
 50
0.0
 51
90.0
  0
ARC
  5
CC
  8
VISIBLE
  6
CONTINUOUS
 62
     7
 10
42.9148545681
 20
97.7392477282
 30
0.0
 40
0.5000000000000004
 50
270.0
 51
0.0
  0
LINE
  5
CD
  8
VISIBLE
  6
CONTINUOUS
 62
     7
 10
23.4648545681
 20
65.7392477282
 30
0.0
 11
42.9148545681
 21
65.7392477282
 31
0.0
  0
LINE
  5
CE
  8
VISIBLE
  6
CONTINUOUS
 62
     7
 10
42.9148545681
 20
97.2392477282
 30
0.0
 11
23.4648545681
 21
97.2392477282
 31
0.0
  0
LINE
  5
CF
  8
HIDDEN
  6
HIDDEN2
 62
     7
 10
97.9396394133
 20
75.4892477282
 30
0.0
 11
79.8398545681
 21
75.4892477282
 31
0.0
  0
LINE
  5
D0
  8
HIDDEN
  6
HIDDEN2
 62
     7
 10
97.9396394133
 20
87.4892477282
 30
0.0
 11
79.8398545681
 21
87.4892477282
 31
0.0
  0
LINE
  5
D1
  8
HIDDEN
  6
HIDDEN2
 62
     7
 10
79.8398545681
 20
87.4892477282
 30
0.0
 11
79.8398545681
 21
75.4892477282
 31
0.0
  0
LINE
  5
D2
  8
0
  6
HIDDEN2
 62
     7
 10
22.9937220816
 20
93.9892477282
 30
0.0
 11
27.7148545681
 21
93.9892477282
 31
0.0
  0
LINE
  5
D3
  8
HIDDEN
  6
HIDDEN2
 62
     7
 10
22.9937220816
 20
68.9892477282
 30
0.0
 11
27.7148545681
 21
68.9892477282
 31
0.0
  0
LINE
  5
D4
  8
VISIBLE
  6
CONTINUOUS
 62
     7
 10
18.9648545681
 20
91.6830299455
 30
0.0
 11
18.9648545681
 21
71.2954655108
 31
0.0
  0
LINE
  5
D5
  8
VISIBLE
  6
CONTINUOUS
 62
     7
 10
22.7148545681
 20
93.4892477282
 30
0.0
 11
22.7148545681
 21
69.4892477282
 31
0.0
  0
LINE
  5
D6
  8
VISIBLE
  6
CONTINUOUS
 62
     7
 10
19.3148545681
 20
71.2392477282
 30
0.0
 11
19.3148545681
 21
71.8486497611
 31
0.0
  0
LINE
  5
D7
  8
VISIBLE
  6
CONTINUOUS
 62
     7
 10
19.3148545681
 20
80.8798456952
 30
0.0
 11
19.3148545681
 21
82.0986497611
 31
0.0
  0
LINE
  5
D8
  8
VISIBLE
  6
CONTINUOUS
 62
     7
 10
19.3148545681
 20
91.1298456952
 30
0.0
 11
19.3148545681
 21
91.7392477282
 31
0.0
  0
ARC
  5
D9
  8
VISIBLE
  6
CONTINUOUS
 62
     7
 10
49.7952232007
 20
86.6142477282
 30
0.0
 40
30.8130410212676
 50
171.5730534204
 51
188.4269465796
  0
ARC
  5
DA
  8
VISIBLE
  6
CONTINUOUS
 62
     7
 10
49.7952232007
 20
76.3642477282
 30
0.0
 40
30.81304102126757
 50
171.5730534204
 51
188.4269465796
  0
LINE
  5
DB
  8
VISIBLE
  6
CONTINUOUS
 62
     7
 10
19.3148545681
 20
71.2392477282
 30
0.0
 11
18.9799192009
 21
71.2392477282
 31
0.0
  0
LINE
  5
DC
  8
VISIBLE
  6
CONTINUOUS
 62
     7
 10
19.3148545681
 20
91.7392477282
 30
0.0
 11
18.9799192009
 21
91.7392477282
 31
0.0
  0
LINE
  5
DD
  8
VISIBLE
  6
CONTINUOUS
 62
     7
 10
19.3148545681
 20
91.7392477282
 30
0.0
 11
22.7148545681
 21
91.7392477282
 31
0.0
  0
LINE
  5
DE
  8
VISIBLE
  6
CONTINUOUS
 62
     7
 10
22.7148545681
 20
71.2392477282
 30
0.0
 11
19.3148545681
 21
71.2392477282
 31
0.0
  0
LINE
  5
DF
  8
VISIBLE
  6
CONTINUOUS
 62
     7
 10
22.7148545681
 20
80.8798456952
 30
0.0
 11
19.3148545681
 21
80.8798456952
 31
0.0
  0
LINE
  5
E0
  8
VISIBLE
  6
CONTINUOUS
 62
     7
 10
19.3148545681
 20
71.8486497611
 30
0.0
 11
22.7148545681
 21
71.8486497611
 31
0.0
  0
LINE
  5
E1
  8
VISIBLE
  6
CONTINUOUS
 62
     7
 10
22.7148545681
 20
91.1298456952
 30
0.0
 11
19.3148545681
 21
91.1298456952
 31
0.0
  0
LINE
  5
E2
  8
VISIBLE
  6
CONTINUOUS
 62
     7
 10
19.3148545681
 20
82.0986497611
 30
0.0
 11
22.7148545681
 21
82.0986497611
 31
0.0
  0
LINE
  5
E3
  8
VISIBLE
  6
CONTINUOUS
 62
     7
 10
18.9799180776
 20
91.7392477282
 30
0.0
 11
18.9648545681
 21
91.6830299455
 31
0.0
  0
LINE
  5
E4
  8
VISIBLE
  6
CONTINUOUS
 62
     7
 10
18.9648545681
 20
71.2954655108
 30
0.0
 11
18.9799180776
 21
71.2392477282
 31
0.0
  0
LINE
  5
E5
  8
VISIBLE
  6
CONTINUOUS
 62
     7
 10
22.9648545681
 20
93.7392477282
 30
0.0
 11
22.7148545681
 21
93.4892477282
 31
0.0
  0
LINE
  5
E6
  8
VISIBLE
  6
CONTINUOUS
 62
     7
 10
22.7148545681
 20
69.4892477282
 30
0.0
 11
22.9648545681
 21
69.2392477282
 31
0.0
  0
LINE
  5
E9
  8
STANDARD
  6
CENTER2
 62
     7
 10
18.0814041307
 20
81.4892477282
 30
0.0
 11
108.5028826838
 21
81.4892477282
 31
0.0
  0
ENDBLK
  5
EB
  8
0
  0
BLOCK
  8
0
  2
SE1
 70
     0
 10
0.0
 20
0.0
 30
0.0
  3
SE1
  1

  0
ARC
  5
EE
  8
VISIBLE
  6
CONTINUOUS
 62
     7
 10
145.341190351
 20
81.4892477282
 30
0.0
 40
24.375
 50
285.2831719632
 51
307.9798724449
  0
CIRCLE
  5
EF
  8
0
  6
HIDDEN2
 62
     7
 10
145.341190351
 20
81.4892477282
 30
0.0
 40
17.4625
  0
LINE
  5
F0
  8
VISIBLE
  6
CONTINUOUS
 62
     7
 10
151.766190351
 20
61.6392477282
 30
0.0
 11
151.766190351
 21
57.9762725868
 31
0.0
  0
LINE
  5
F1
  8
VISIBLE
  6
CONTINUOUS
 62
     7
 10
150.766190351
 20
62.6392477282
 30
0.0
 11
151.766190351
 21
61.6392477282
 31
0.0
  0
LINE
  5
F2
  8
VISIBLE
  6
CONTINUOUS
 62
     7
 10
139.916190351
 20
62.6392477282
 30
0.0
 11
150.766190351
 21
62.6392477282
 31
0.0
  0
LINE
  5
F3
  8
VISIBLE
  6
CONTINUOUS
 62
     7
 10
138.916190351
 20
61.6392477282
 30
0.0
 11
139.916190351
 21
62.6392477282
 31
0.0
  0
LINE
  5
F4
  8
VISIBLE
  6
CONTINUOUS
 62
     7
 10
138.916190351
 20
57.9762725868
 30
0.0
 11
138.916190351
 21
61.6392477282
 31
0.0
  0
ARC
  5
F5
  8
VISIBLE
  6
CONTINUOUS
 62
     7
 10
145.341190351
 20
81.4892477282
 30
0.0
 40
24.375
 50
105.2831719632
 51
254.7168280368
  0
LINE
  5
F6
  8
VISIBLE
  6
CONTINUOUS
 62
     7
 10
138.916190351
 20
100.2392477282
 30
0.0
 11
138.916190351
 21
105.0022228696
 31
0.0
  0
LINE
  5
F7
  8
VISIBLE
  6
CONTINUOUS
 62
     7
 10
139.916190351
 20
99.2392477282
 30
0.0
 11
138.916190351
 21
100.2392477282
 31
0.0
  0
LINE
  5
F8
  8
VISIBLE
  6
CONTINUOUS
 62
     7
 10
151.766190351
 20
100.2392477282
 30
0.0
 11
150.766190351
 21
99.2392477282
 31
0.0
  0
LINE
  5
F9
  8
VISIBLE
  6
CONTINUOUS
 62
     7
 10
151.766190351
 20
105.0022228696
 30
0.0
 11
151.766190351
 21
100.2392477282
 31
0.0
  0
LINE
  5
FA
  8
VISIBLE
  6
CONTINUOUS
 62
     7
 10
150.766190351
 20
99.2392477282
 30
0.0
 11
139.916190351
 21
99.2392477282
 31
0.0
  0
ARC
  5
FB
  8
VISIBLE
  6
CONTINUOUS
 62
     7
 10
145.341190351
 20
81.4892477282
 30
0.0
 40
24.375
 50
322.0201275551
 51
74.7168280368
  0
LINE
  5
FC
  8
VISIBLE
  6
CONTINUOUS
 62
     7
 10
160.341190351
 20
66.4892477282
 30
0.0
 11
160.341190351
 21
62.276215042
 31
0.0
  0
LINE
  5
FD
  8
VISIBLE
  6
CONTINUOUS
 62
     7
 10
164.5542230372
 20
66.4892477282
 30
0.0
 11
160.341190351
 21
66.4892477282
 31
0.0
  0
CIRCLE
  5
FE
  8
VISIBLE
  6
CONTINUOUS
 62
     7
 10
145.341190351
 20
81.4892477282
 30
0.0
 40
15.74999999999999
  0
CIRCLE
  5
FF
  8
VISIBLE
  6
CONTINUOUS
 62
     7
 10
145.341190351
 20
81.4892477282
 30
0.0
 40
2.0
  0
CIRCLE
  5
100
  8
VISIBLE
  6
CONTINUOUS
 62
     7
 10
145.341190351
 20
81.4892477282
 30
0.0
 40
6.050000000000001
  0
ARC
  5
101
  8
VISIBLE
  6
CONTINUOUS
 62
     7
 10
145.341190351
 20
81.4892477282
 30
0.0
 40
11.5
 50
236.9623889975
 51
243.0376110025
  0
CIRCLE
  5
102
  8
VISIBLE
  6
CONTINUOUS
 62
     7
 10
145.341190351
 20
81.4892477282
 30
0.0
 40
12.0
  0
ARC
  5
103
  8
VISIBLE
  6
CONTINUOUS
 62
     7
 10
145.341190351
 20
81.4892477282
 30
0.0
 40
11.5
 50
296.9623889975
 51
303.0376110025
  0
ARC
  5
104
  8
VISIBLE
  6
CONTINUOUS
 62
     7
 10
145.341190351
 20
81.4892477282
 30
0.0
 40
11.5
 50
356.9623889975
 51
3.0376110025
  0
ARC
  5
105
  8
VISIBLE
  6
CONTINUOUS
 62
     7
 10
145.341190351
 20
81.4892477282
 30
0.0
 40
11.5
 50
56.9623889975
 51
63.0376110025
  0
ARC
  5
106
  8
VISIBLE
  6
CONTINUOUS
 62
     7
 10
145.341190351
 20
81.4892477282
 30
0.0
 40
11.5
 50
116.9623889975
 51
123.0376110025
  0
ARC
  5
107
  8
VISIBLE
  6
CONTINUOUS
 62
     7
 10
145.341190351
 20
81.4892477282
 30
0.0
 40
11.5
 50
176.9623889975
 51
183.0376110025
  0
LINE
  5
108
  8
VISIBLE
  6
CONTINUOUS
 62
     7
 10
151.6108690379
 20
91.1298456952
 30
0.0
 11
156.8250324416
 21
82.0986497611
 31
0.0
  0
LINE
  5
109
  8
VISIBLE
  6
CONTINUOUS
 62
     7
 10
156.8250324416
 20
80.8798456952
 30
0.0
 11
151.6108690379
 21
71.8486497611
 31
0.0
  0
LINE
  5
10A
  8
VISIBLE
  6
CONTINUOUS
 62
     7
 10
150.5553537546
 20
71.2392477282
 30
0.0
 11
140.1270269473
 21
71.2392477282
 31
0.0
  0
LINE
  5
10B
  8
VISIBLE
  6
CONTINUOUS
 62
     7
 10
139.071511664
 20
71.8486497611
 30
0.0
 11
133.8573482604
 21
80.8798456952
 31
0.0
  0
LINE
  5
10C
  8
VISIBLE
  6
CONTINUOUS
 62
     7
 10
133.8573482604
 20
82.0986497611
 30
0.0
 11
139.071511664
 21
91.1298456952
 31
0.0
  0
LINE
  5
10D
  8
VISIBLE
  6
CONTINUOUS
 62
     7
 10
140.1270269473
 20
91.7392477282
 30
0.0
 11
150.5553537546
 21
91.7392477282
 31
0.0
  0
LINE
  5
10E
  8
STANDARD
  6
CENTER2
 62
     7
 10
146.591190323
 20
81.4892477282
 30
0.0
 11
144.0911903789
 21
81.4892477282
 31
0.0
  0
LINE
  5
10F
  8
STANDARD
  6
CENTER2
 62
     7
 10
145.341190351
 20
82.7392477002
 30
0.0
 11
145.341190351
 21
80.2392477561
 31
0.0
  0
LINE
  5
110
  8
STANDARD
  6
CENTER2
 62
     7
 10
147.2161903091
 20
81.4892477282
 30
0.0
 11
170.591190351
 21
81.4892477282
 31
0.0
  0
LINE
  5
111
  8
STANDARD
  6
CENTER2
 62
     7
 10
145.341190351
 20
83.3642476863
 30
0.0
 11
145.341190351
 21
106.7392477282
 31
0.0
  0
LINE
  5
112
  8
STANDARD
  6
CENTER2
 62
     7
 10
143.4661903929
 20
81.4892477282
 30
0.0
 11
120.091190351
 21
81.4892477282
 31
0.0
  0
LINE
  5
113
  8
STANDARD
  6
CENTER2
 62
     7
 10
145.341190351
 20
79.6142477701
 30
0.0
 11
145.341190351
 21
56.2392477282
 31
0.0
  0
ENDBLK
  5
115
  8
0
  0
BLOCK
  8
0
  2
GDIMGGROUP
 70
     0
 10
0.0
 20
0.0
 30
0.0
  3
GDIMGGROUP
  1

  0
POLYLINE
  5
118
  8
DEFAULT
  6
CONTINUOUS
 62
     7
 66
     1
 10
0.0
 20
0.0
 30
0.0
  0
VERTEX
  5
1D7
  8
DEFAULT
  6
CONTINUOUS
 62
     7
 10
11.1453023992
 20
94.7392477841
 30
0.0
  0
VERTEX
  5
1D8
  8
DEFAULT
  6
CONTINUOUS
 62
     7
 10
11.9786357139
 20
94.7392477841
 30
0.0
  0
VERTEX
  5
1D9
  8
DEFAULT
  6
CONTINUOUS
 62
     7
 10
11.5619690566
 20
97.2392477282
 30
0.0
  0
VERTEX
  5
1DA
  8
DEFAULT
  6
CONTINUOUS
 62
     7
 10
11.1453023992
 20
94.7392477841
 30
0.0
  0
SEQEND
  5
1D6
  8
DEFAULT
  6
CONTINUOUS
 62
     7
  0
POLYLINE
  5
119
  8
DEFAULT
  6
CONTINUOUS
 62
     7
 66
     1
 10
0.0
 20
0.0
 30
0.0
  0
VERTEX
  5
1DC
  8
DEFAULT
  6
CONTINUOUS
 62
     7
 10
11.1453023992
 20
68.2392471657
 30
0.0
  0
VERTEX
  5
1DD
  8
DEFAULT
  6
CONTINUOUS
 62
     7
 10
11.9786357139
 20
68.2392471657
 30
0.0
  0
VERTEX
  5
1DE
  8
DEFAULT
  6
CONTINUOUS
 62
     7
 10
11.5619690566
 20
65.7392472215
 30
0.0
  0
VERTEX
  5
1DF
  8
DEFAULT
  6
CONTINUOUS
 62
     7
 10
11.1453023992
 20
68.2392471657
 30
0.0
  0
SEQEND
  5
1DB
  8
DEFAULT
  6
CONTINUOUS
 62
     7
  0
LINE
  5
11A
  8
DEFAULT
  6
CONTINUOUS
 62
     7
 10
23.4648545681
 20
97.2392477282
 30
0.0
 11
10.3119690845
 21
97.2392477282
 31
0.0
  0
LINE
  5
11B
  8
DEFAULT
  6
CONTINUOUS
 62
     7
 10
23.4648545681
 20
65.7392477282
 30
0.0
 11
10.3119690845
 21
65.7392477282
 31
0.0
  0
LINE
  5
11C
  8
DEFAULT
  6
CONTINUOUS
 62
     7
 10
11.5619690566
 20
97.2392477282
 30
0.0
 11
11.5619690566
 21
65.7392472215
 31
0.0
  0
TEXT
  5
11D
  8
DEFAULT
  6
CONTINUOUS
 62
     7
 10
10.9369690566
 20
81.8331643322
 30
0.0
 40
2.5
  1
63
 50
90.0
  7
SEACAD_ARIAL_TTF
 11
8.4369690566
 21
81.8331643322
 31
0.0
 73
     3
  0
TEXT
  5
11F
  8
DEFAULT
  6
CONTINUOUS
 62
     7
 10
10.9369690566
 20
77.2322871392
 30
0.0
 40
2.5
  1
O
 50
90.0
  7
SEACAD_SEMECA1_TTF
 11
8.4369690566
 21
77.2322871392
 31
0.0
 73
     3
  0
ENDBLK
  5
121
  8
0
  0
BLOCK
  8
0
  2
GDIMGGROUP1
 70
     0
 10
0.0
 20
0.0
 30
0.0
  3
GDIMGGROUP1
  1

  0
POLYLINE
  5
124
  8
DEFAULT
  6
CONTINUOUS
 62
     7
 66
     1
 10
0.0
 20
0.0
 30
0.0
  0
VERTEX
  5
1E1
  8
DEFAULT
  6
CONTINUOUS
 62
     7
 10
25.4648545122
 20
44.5632080169
 30
0.0
  0
VERTEX
  5
1E2
  8
DEFAULT
  6
CONTINUOUS
 62
     7
 10
25.4648545122
 20
45.3965413316
 30
0.0
  0
VERTEX
  5
1E3
  8
DEFAULT
  6
CONTINUOUS
 62
     7
 10
22.9648545681
 20
44.9798746743
 30
0.0
  0
VERTEX
  5
1E4
  8
DEFAULT
  6
CONTINUOUS
 62
     7
 10
25.4648545122
 20
44.5632080169
 30
0.0
  0
SEQEND
  5
1E0
  8
DEFAULT
  6
CONTINUOUS
 62
     7
  0
POLYLINE
  5
125
  8
DEFAULT
  6
CONTINUOUS
 62
     7
 66
     1
 10
0.0
 20
0.0
 30
0.0
  0
VERTEX
  5
1E6
  8
DEFAULT
  6
CONTINUOUS
 62
     7
 10
50.4648539534
 20
44.5632080169
 30
0.0
  0
VERTEX
  5
1E7
  8
DEFAULT
  6
CONTINUOUS
 62
     7
 10
50.4648539534
 20
45.3965413316
 30
0.0
  0
VERTEX
  5
1E8
  8
DEFAULT
  6
CONTINUOUS
 62
     7
 10
52.9648538975
 20
44.9798746743
 30
0.0
  0
VERTEX
  5
1E9
  8
DEFAULT
  6
CONTINUOUS
 62
     7
 10
50.4648539534
 20
44.5632080169
 30
0.0
  0
SEQEND
  5
1E5
  8
DEFAULT
  6
CONTINUOUS
 62
     7
  0
LINE
  5
126
  8
DEFAULT
  6
CONTINUOUS
 62
     7
 10
22.9648545681
 20
66.2392477282
 30
0.0
 11
22.9648545681
 21
43.7298747022
 31
0.0
  0
LINE
  5
127
  8
DEFAULT
  6
CONTINUOUS
 62
     7
 10
52.9648545681
 20
64.0267477282
 30
0.0
 11
52.9648545681
 21
43.7298747022
 31
0.0
  0
LINE
  5
128
  8
DEFAULT
  6
CONTINUOUS
 62
     7
 10
22.9648545681
 20
44.9798746743
 30
0.0
 11
52.9648538975
 21
44.9798746743
 31
0.0
  0
TEXT
  5
129
  8
DEFAULT
  6
CONTINUOUS
 62
     7
 10
36.0083324937
 20
45.6048746743
 30
0.0
 40
2.5
  1
60
  7
SEACAD_ARIAL_TTF
 11
36.0083324937
 21
48.1048746743
 31
0.0
 73
     3
  0
ENDBLK
  5
12B
  8
0
  0
ENDSEC
  0
SECTION
  2
ENTITIES
  0
INSERT
  5
5F
  8
DEFAULT
  2
SEANNOT_GROUP
 10
0.0
 20
0.0
 30
0.0
  0
INSERT
  5
68
  8
DEFAULT
  2
SE
 10
0.0
 20
0.0
 30
0.0
  0
INSERT
  5
ED
  8
DEFAULT
  2
SE1
 10
0.0
 20
0.0
 30
0.0
  0
INSERT
  5
117
  8
DEFAULT
  2
GDIMGGROUP
 10
0.0
 20
0.0
 30
0.0
  0
INSERT
  5
123
  8
DEFAULT
  2
GDIMGGROUP1
 10
0.0
 20
0.0
 30
0.0
  0
ENDSEC
  0
EOF
