  0
SECTION
  2
HEADER
  9
$ACADVER
  1
AC1009
  9
$DWGCODEPAGE
  3
ansi_1252
  9
$INSBASE
 10
0.0
 20
0.0
 30
0.0
  9
$EXTMIN
 10
0.0
 20
0.0
 30
0.0
  9
$EXTMAX
 10
180.0
 20
160.0
 30
0.0
  9
$LIMMIN
 10
0.0
 20
0.0
  9
$LIMMAX
 10
180.0
 20
160.0
  9
$ORTHOMODE
 70
     0
  9
$REGENMODE
 70
     1
  9
$FILLMODE
 70
     1
  9
$QTEXTMODE
 70
     0
  9
$MIRRTEXT
 70
     1
  9
$DRAGMODE
 70
     2
  9
$LTSCALE
 40
1.0
  9
$OSMODE
 70
    37
  9
$ATTMODE
 70
     1
  9
$TEXTSIZE
 40
2.5
  9
$TRACEWID
 40
1.0
  9
$TEXTSTYLE
  7
STANDARD
  9
$CLAYER
  8
0
  9
$CELTYPE
  6
BYLAYER
  9
$CECOLOR
 62
   256
  9
$DIMSCALE
 40
1.0
  9
$DIMASZ
 40
2.5
  9
$DIMEXO
 40
0.625
  9
$DIMDLI
 40
3.75
  9
$DIMRND
 40
0.0
  9
$DIMDLE
 40
0.0
  9
$DIMEXE
 40
1.25
  9
$DIMTP
 40
0.0
  9
$DIMTM
 40
0.0
  9
$DIMTXT
 40
2.5
  9
$DIMCEN
 40
2.5
  9
$DIMTSZ
 40
0.0
  9
$DIMTOL
 70
     0
  9
$DIMLIM
 70
     0
  9
$DIMTIH
 70
     0
  9
$DIMTOH
 70
     0
  9
$DIMSE1
 70
     0
  9
$DIMSE2
 70
     0
  9
$DIMTAD
 70
     1
  9
$DIMZIN
 70
     8
  9
$DIMBLK
  1

  9
$DIMASO
 70
     1
  9
$DIMSHO
 70
     1
  9
$DIMPOST
  1

  9
$DIMAPOST
  1

  9
$DIMALT
 70
     0
  9
$DIMALTD
 70
     3
  9
$DIMALTF
 40
0.0393700787
  9
$DIMLFAC
 40
1.0
  9
$DIMTOFL
 70
     1
  9
$DIMTVP
 40
0.0
  9
$DIMTIX
 70
     0
  9
$DIMSOXD
 70
     0
  9
$DIMSAH
 70
     0
  9
$DIMBLK1
  1

  9
$DIMBLK2
  1

  9
$DIMSTYLE
  2
ISO-25
  9
$DIMCLRD
 70
     0
  9
$DIMCLRE
 70
     0
  9
$DIMCLRT
 70
     0
  9
$DIMTFAC
 40
1.0
  9
$DIMGAP
 40
0.625
  9
$LUNITS
 70
     2
  9
$LUPREC
 70
     4
  9
$SKETCHINC
 40
1.0
  9
$FILLETRAD
 40
10.0
  9
$AUNITS
 70
     0
  9
$AUPREC
 70
     0
  9
$MENU
  1
.
  9
$ELEVATION
 40
0.0
  9
$PELEVATION
 40
0.0
  9
$THICKNESS
 40
0.0
  9
$LIMCHECK
 70
     0
  9
$CHAMFERA
 40
10.0
  9
$CHAMFERB
 40
10.0
  9
$SKPOLY
 70
     0
  9
$TDCREATE
 40
2456136.373337882
  9
$TDUPDATE
 40
2456136.373337894
  9
$TDINDWG
 40
0.0000000116
  9
$TDUSRTIMER
 40
0.0000000116
  9
$USRTIMER
 70
     1
  9
$ANGBASE
 50
0.0
  9
$ANGDIR
 70
     0
  9
$PDMODE
 70
     0
  9
$PDSIZE
 40
0.0
  9
$PLINEWID
 40
0.0
  9
$COORDS
 70
     1
  9
$SPLFRAME
 70
     0
  9
$SPLINETYPE
 70
     6
  9
$SPLINESEGS
 70
     8
  9
$ATTDIA
 70
     0
  9
$ATTREQ
 70
     1
  9
$HANDLING
 70
     1
  9
$HANDSEED
  5
230
  9
$SURFTAB1
 70
     6
  9
$SURFTAB2
 70
     6
  9
$SURFTYPE
 70
     6
  9
$SURFU
 70
     6
  9
$SURFV
 70
     6
  9
$UCSNAME
  2

  9
$UCSORG
 10
0.0
 20
0.0
 30
0.0
  9
$UCSXDIR
 10
1.0
 20
0.0
 30
0.0
  9
$UCSYDIR
 10
0.0
 20
1.0
 30
0.0
  9
$PUCSNAME
  2

  9
$PUCSORG
 10
0.0
 20
0.0
 30
0.0
  9
$PUCSXDIR
 10
1.0
 20
0.0
 30
0.0
  9
$PUCSYDIR
 10
0.0
 20
1.0
 30
0.0
  9
$USERI1
 70
     0
  9
$USERI2
 70
     0
  9
$USERI3
 70
     0
  9
$USERI4
 70
     0
  9
$USERI5
 70
     0
  9
$USERR1
 40
0.0
  9
$USERR2
 40
0.0
  9
$USERR3
 40
0.0
  9
$USERR4
 40
0.0
  9
$USERR5
 40
0.0
  9
$WORLDVIEW
 70
     1
  9
$SHADEDGE
 70
     3
  9
$SHADEDIF
 70
    70
  9
$TILEMODE
 70
     1
  9
$MAXACTVP
 70
    64
  9
$PLIMCHECK
 70
     0
  9
$PEXTMIN
 10
0.0
 20
0.0
 30
0.0
  9
$PEXTMAX
 10
180.0
 20
160.0
 30
0.0
  9
$PLIMMIN
 10
0.0
 20
0.0
  9
$PLIMMAX
 10
180.0
 20
160.0
  9
$UNITMODE
 70
     0
  9
$VISRETAIN
 70
     1
  9
$PLINEGEN
 70
     0
  9
$PSLTSCALE
 70
     1
  0
ENDSEC
  0
SECTION
  2
TABLES
  0
TABLE
  2
VPORT
 70
     1
  0
VPORT
  2
*ACTIVE
 70
     0
 10
0.0
 20
0.0
 11
1.0
 21
1.0
 12
344.1869158879
 22
148.5
 13
0.0
 23
0.0
 14
10.0
 24
10.0
 15
10.0
 25
10.0
 16
0.0
 26
0.0
 36
1.0
 17
0.0
 27
0.0
 37
0.0
 40
297.0
 41
1.9729729729
 42
50.0
 43
0.0
 44
0.0
 50
0.0
 51
0.0
 71
     0
 72
   100
 73
     1
 74
     3
 75
     0
 76
     0
 77
     0
 78
     0
  0
ENDTAB
  0
TABLE
  2
LTYPE
 70
     3
  0
LTYPE
  2
CONTINUOUS
 70
     0
  3
Solid line
 72
    65
 73
     0
 40
0.0
  0
LTYPE
  2
HIDDEN2
 70
     0
  3
Hidden (.5x) _ _ _ _ _ _ _ _ _ _ _ _ _ _ _ _ _ 
 72
    65
 73
     2
 40
4.7625
 49
3.175
 49
-1.5875
  0
LTYPE
  2
CENTER2
 70
     0
  3
Center (.5x) ___ _ ___ _ ___ _ ___ _ ___ _ ___
 72
    65
 73
     4
 40
28.575
 49
19.05
 49
-3.175
 49
3.175
 49
-3.175
  0
ENDTAB
  0
TABLE
  2
LAYER
 70
     5
  0
LAYER
  2
0
 70
     0
 62
     7
  6
CONTINUOUS
  0
LAYER
  2
DEFAULT
 70
     0
 62
     7
  6
CONTINUOUS
  0
LAYER
  2
VISIBLE
 70
     0
 62
     7
  6
CONTINUOUS
  0
LAYER
  2
HIDDEN
 70
     0
 62
     7
  6
CONTINUOUS
  0
LAYER
  2
STANDARD
 70
     0
 62
     7
  6
CONTINUOUS
  0
ENDTAB
  0
TABLE
  2
STYLE
 70
     3
  0
STYLE
  2
STANDARD
 70
     0
 40
0.0
 41
1.0
 50
0.0
 71
     0
 42
2.5
  3
txt
  4

  0
STYLE
  2
SEACAD_ARIAL_TTF
 70
     0
 40
0.0
 41
1.0
 50
0.0
 71
     0
 42
0.2
  3
arial.ttf
  4

  0
STYLE
  2
SEACAD_SEMECA1_TTF
 70
     0
 40
0.0
 41
1.0
 50
0.0
 71
     0
 42
0.2
  3
semeca1.ttf
  4

  0
ENDTAB
  0
TABLE
  2
VIEW
 70
     0
  0
ENDTAB
  0
TABLE
  2
UCS
 70
     0
  0
ENDTAB
  0
TABLE
  2
APPID
 70
     1
  0
APPID
  2
ACAD
 70
     0
  0
ENDTAB
  0
TABLE
  2
DIMSTYLE
 70
     1
  0
DIMSTYLE
  2
ISO-25
 70
     0
  3

  4

  5

  6

  7

 40
1.0
 41
2.5
 42
0.625
 43
3.75
 44
1.25
 45
0.0
 46
0.0
 47
0.0
 48
0.0
140
2.5
141
2.5
142
0.0
143
0.0393700787
144
1.0
145
0.0
146
1.0
147
0.625
 71
     0
 72
     0
 73
     0
 74
     0
 75
     0
 76
     0
 77
     1
 78
     8
170
     0
171
     3
172
     1
173
     0
174
     0
175
     0
176
     0
177
     0
178
     0
  0
ENDTAB
  0
ENDSEC
  0
SECTION
  2
BLOCKS
  0
BLOCK
  8
0
  2
$MODEL_SPACE
 70
     0
 10
0.0
 20
0.0
 30
0.0
  3
$MODEL_SPACE
  1

  0
ENDBLK
  5
21
  8
0
  0
BLOCK
 67
     1
  8
0
  2
$PAPER_SPACE
 70
     0
 10
0.0
 20
0.0
 30
0.0
  3
$PAPER_SPACE
  1

  0
ENDBLK
  5
1D
 67
     1
  8
0
  0
BLOCK
  8
0
  2
SEANNOT_GROUP
 70
     0
 10
0.0
 20
0.0
 30
0.0
  3
SEANNOT_GROUP
  1

  0
POLYLINE
  5
60
  8
DEFAULT
  6
CONTINUOUS
 62
     7
 66
     1
 10
0.0
 20
0.0
 30
0.0
  0
VERTEX
  5
135
  8
DEFAULT
  6
CONTINUOUS
 62
     7
 10
63.8010515785
 20
115.1945350131
 30
0.0
  0
VERTEX
  5
136
  8
DEFAULT
  6
CONTINUOUS
 62
     7
 10
56.9346031069
 20
103.6355272021
 30
0.0
  0
SEQEND
  5
134
  8
DEFAULT
  6
CONTINUOUS
 62
     7
  0
POLYLINE
  5
61
  8
DEFAULT
  6
CONTINUOUS
 62
     7
 66
     1
 10
0.0
 20
0.0
 30
0.0
  0
VERTEX
  5
138
  8
DEFAULT
  6
CONTINUOUS
 62
     7
 10
57.8531738465
 20
105.9976954053
 30
0.0
  0
VERTEX
  5
139
  8
DEFAULT
  6
CONTINUOUS
 62
     7
 10
58.5696299806
 20
105.5720958031
 30
0.0
  0
VERTEX
  5
13A
  8
DEFAULT
  6
CONTINUOUS
 62
     7
 10
56.9346031069
 20
103.6355272021
 30
0.0
  0
VERTEX
  5
13B
  8
DEFAULT
  6
CONTINUOUS
 62
     7
 10
57.8531738465
 20
105.9976954053
 30
0.0
  0
SEQEND
  5
137
  8
DEFAULT
  6
CONTINUOUS
 62
     7
  0
LINE
  5
62
  8
DEFAULT
  6
CONTINUOUS
 62
     7
 10
63.8010515785
 20
115.1945350131
 30
0.0
 11
91.4640950568
 21
115.1945350131
 31
0.0
  0
TEXT
  5
64
  8
DEFAULT
  6
CONTINUOUS
 62
     7
 10
63.8010515785
 20
115.8195350131
 30
0.0
 40
2.5
  1
SK50 DIN69871A
  7
SEACAD_ARIAL_TTF
 11
63.8010515785
 21
118.3195350131
 31
0.0
 73
     3
  0
ENDBLK
  5
66
  8
0
  0
BLOCK
  8
0
  2
SE
 70
     0
 10
0.0
 20
0.0
 30
0.0
  3
SE
  1

  0
LINE
  5
6A
  8
VISIBLE
  6
CONTINUOUS
 62
     7
 10
45.0229668387
 20
64.1331425239
 30
0.0
 11
45.0229668387
 21
68.4330849791
 31
0.0
  0
LINE
  5
6B
  8
VISIBLE
  6
CONTINUOUS
 62
     7
 10
42.0110873819
 20
65.3666738689
 30
0.0
 11
42.0110873819
 21
69.964086083
 31
0.0
  0
LINE
  5
6C
  8
VISIBLE
  6
CONTINUOUS
 62
     7
 10
40.1348462955
 20
65.3666738689
 30
0.0
 11
40.1348462955
 21
69.964086083
 31
0.0
  0
LINE
  5
6D
  8
VISIBLE
  6
CONTINUOUS
 62
     7
 10
37.0729668387
 20
64.1331425239
 30
0.0
 11
37.0729668387
 21
68.4330849791
 31
0.0
  0
LINE
  5
6E
  8
VISIBLE
  6
CONTINUOUS
 62
     7
 10
46.6229668387
 20
105.1086176653
 30
0.0
 11
46.6229668387
 21
70.1836176653
 31
0.0
  0
LINE
  5
70
  8
0
  6
HIDDEN2
 62
     7
 10
91.7479668387
 20
93.8961176653
 30
0.0
 11
91.7479668387
 21
81.3961176653
 31
0.0
  0
LINE
  5
72
  8
HIDDEN
  6
HIDDEN2
 62
     7
 10
91.1098528613
 20
92.8341176653
 30
0.0
 11
91.1098528613
 21
82.4581176653
 31
0.0
  0
LINE
  5
73
  8
HIDDEN
  6
HIDDEN2
 62
     7
 10
64.9979668387
 20
92.8341176653
 30
0.0
 11
64.9979668387
 21
82.4581176653
 31
0.0
  0
LINE
  5
74
  8
0
  6
HIDDEN2
 62
     7
 10
96.6319414349
 20
81.3961176653
 30
0.0
 11
96.6319414349
 21
93.8961176653
 31
0.0
  0
LINE
  5
75
  8
VISIBLE
  6
CONTINUOUS
 62
     7
 10
97.4979668387
 20
78.5355919722
 30
0.0
 11
97.4979668387
 21
96.7566433583
 31
0.0
  0
LINE
  5
76
  8
VISIBLE
  6
CONTINUOUS
 62
     7
 10
37.0729668387
 20
64.1331425239
 30
0.0
 11
39.4491692066
 21
64.1331425239
 31
0.0
  0
POLYLINE
  5
77
  8
VISIBLE
  6
CONTINUOUS
 62
     7
 66
     1
 10
0.0
 20
0.0
 30
0.0
  0
VERTEX
  5
13C
  8
VISIBLE
  6
CONTINUOUS
 62
     7
 10
39.4491692066
 20
64.1331425239
 30
0.0
  0
VERTEX
  5
13D
  8
VISIBLE
  6
CONTINUOUS
 62
     7
 10
39.4777792649
 20
64.1845172312
 30
0.0
  0
VERTEX
  5
13E
  8
VISIBLE
  6
CONTINUOUS
 62
     7
 10
39.5063860059
 20
64.2358938137
 30
0.0
  0
VERTEX
  5
13F
  8
VISIBLE
  6
CONTINUOUS
 62
     7
 10
39.5349894055
 20
64.2872722816
 30
0.0
  0
VERTEX
  5
140
  8
VISIBLE
  6
CONTINUOUS
 62
     7
 10
39.5635894397
 20
64.3386526451
 30
0.0
  0
VERTEX
  5
141
  8
VISIBLE
  6
CONTINUOUS
 62
     7
 10
39.5921860844
 20
64.3900349147
 30
0.0
  0
VERTEX
  5
142
  8
VISIBLE
  6
CONTINUOUS
 62
     7
 10
39.6207793154
 20
64.4414191005
 30
0.0
  0
VERTEX
  5
143
  8
VISIBLE
  6
CONTINUOUS
 62
     7
 10
39.6493691088
 20
64.492805213
 30
0.0
  0
VERTEX
  5
144
  8
VISIBLE
  6
CONTINUOUS
 62
     7
 10
39.6779554404
 20
64.5441932623
 30
0.0
  0
VERTEX
  5
145
  8
VISIBLE
  6
CONTINUOUS
 62
     7
 10
39.7065382862
 20
64.5955832588
 30
0.0
  0
VERTEX
  5
146
  8
VISIBLE
  6
CONTINUOUS
 62
     7
 10
39.735117622
 20
64.6469752128
 30
0.0
  0
VERTEX
  5
147
  8
VISIBLE
  6
CONTINUOUS
 62
     7
 10
39.7636934239
 20
64.6983691345
 30
0.0
  0
VERTEX
  5
148
  8
VISIBLE
  6
CONTINUOUS
 62
     7
 10
39.7922656676
 20
64.7497650343
 30
0.0
  0
VERTEX
  5
149
  8
VISIBLE
  6
CONTINUOUS
 62
     7
 10
39.8208343292
 20
64.8011629225
 30
0.0
  0
VERTEX
  5
14A
  8
VISIBLE
  6
CONTINUOUS
 62
     7
 10
39.8493993845
 20
64.8525628093
 30
0.0
  0
VERTEX
  5
14B
  8
VISIBLE
  6
CONTINUOUS
 62
     7
 10
39.8779608095
 20
64.9039647051
 30
0.0
  0
VERTEX
  5
14C
  8
VISIBLE
  6
CONTINUOUS
 62
     7
 10
39.90651858
 20
64.9553686201
 30
0.0
  0
VERTEX
  5
14D
  8
VISIBLE
  6
CONTINUOUS
 62
     7
 10
39.9350726721
 20
65.0067745647
 30
0.0
  0
VERTEX
  5
14E
  8
VISIBLE
  6
CONTINUOUS
 62
     7
 10
39.9636230615
 20
65.0581825491
 30
0.0
  0
VERTEX
  5
14F
  8
VISIBLE
  6
CONTINUOUS
 62
     7
 10
39.9921697243
 20
65.1095925837
 30
0.0
  0
VERTEX
  5
150
  8
VISIBLE
  6
CONTINUOUS
 62
     7
 10
40.0207126364
 20
65.1610046787
 30
0.0
  0
VERTEX
  5
151
  8
VISIBLE
  6
CONTINUOUS
 62
     7
 10
40.0492517736
 20
65.2124188444
 30
0.0
  0
VERTEX
  5
152
  8
VISIBLE
  6
CONTINUOUS
 62
     7
 10
40.077787112
 20
65.2638350912
 30
0.0
  0
VERTEX
  5
153
  8
VISIBLE
  6
CONTINUOUS
 62
     7
 10
40.1063186273
 20
65.3152534292
 30
0.0
  0
VERTEX
  5
154
  8
VISIBLE
  6
CONTINUOUS
 62
     7
 10
40.1348462955
 20
65.3666738689
 30
0.0
  0
SEQEND
  5
155
  8
VISIBLE
  6
CONTINUOUS
 62
     7
  0
LINE
  5
78
  8
VISIBLE
  6
CONTINUOUS
 62
     7
 10
40.1348462955
 20
65.7570900201
 30
0.0
 11
42.0110873819
 21
65.7570900201
 31
0.0
  0
POLYLINE
  5
79
  8
VISIBLE
  6
CONTINUOUS
 62
     7
 66
     1
 10
0.0
 20
0.0
 30
0.0
  0
VERTEX
  5
156
  8
VISIBLE
  6
CONTINUOUS
 62
     7
 10
42.0110873819
 20
65.3666738689
 30
0.0
  0
VERTEX
  5
157
  8
VISIBLE
  6
CONTINUOUS
 62
     7
 10
42.0396150502
 20
65.3152534292
 30
0.0
  0
VERTEX
  5
158
  8
VISIBLE
  6
CONTINUOUS
 62
     7
 10
42.0681465655
 20
65.2638350912
 30
0.0
  0
VERTEX
  5
159
  8
VISIBLE
  6
CONTINUOUS
 62
     7
 10
42.0966819038
 20
65.2124188444
 30
0.0
  0
VERTEX
  5
15A
  8
VISIBLE
  6
CONTINUOUS
 62
     7
 10
42.125221041
 20
65.1610046787
 30
0.0
  0
VERTEX
  5
15B
  8
VISIBLE
  6
CONTINUOUS
 62
     7
 10
42.1537639531
 20
65.1095925837
 30
0.0
  0
VERTEX
  5
15C
  8
VISIBLE
  6
CONTINUOUS
 62
     7
 10
42.1823106159
 20
65.0581825491
 30
0.0
  0
VERTEX
  5
15D
  8
VISIBLE
  6
CONTINUOUS
 62
     7
 10
42.2108610054
 20
65.0067745647
 30
0.0
  0
VERTEX
  5
15E
  8
VISIBLE
  6
CONTINUOUS
 62
     7
 10
42.2394150974
 20
64.9553686201
 30
0.0
  0
VERTEX
  5
15F
  8
VISIBLE
  6
CONTINUOUS
 62
     7
 10
42.267972868
 20
64.9039647051
 30
0.0
  0
VERTEX
  5
160
  8
VISIBLE
  6
CONTINUOUS
 62
     7
 10
42.2965342929
 20
64.8525628093
 30
0.0
  0
VERTEX
  5
161
  8
VISIBLE
  6
CONTINUOUS
 62
     7
 10
42.3250993483
 20
64.8011629225
 30
0.0
  0
VERTEX
  5
162
  8
VISIBLE
  6
CONTINUOUS
 62
     7
 10
42.3536680098
 20
64.7497650343
 30
0.0
  0
VERTEX
  5
163
  8
VISIBLE
  6
CONTINUOUS
 62
     7
 10
42.3822402536
 20
64.6983691345
 30
0.0
  0
VERTEX
  5
164
  8
VISIBLE
  6
CONTINUOUS
 62
     7
 10
42.4108160554
 20
64.6469752128
 30
0.0
  0
VERTEX
  5
165
  8
VISIBLE
  6
CONTINUOUS
 62
     7
 10
42.4393953912
 20
64.5955832588
 30
0.0
  0
VERTEX
  5
166
  8
VISIBLE
  6
CONTINUOUS
 62
     7
 10
42.467978237
 20
64.5441932623
 30
0.0
  0
VERTEX
  5
167
  8
VISIBLE
  6
CONTINUOUS
 62
     7
 10
42.4965645686
 20
64.492805213
 30
0.0
  0
VERTEX
  5
168
  8
VISIBLE
  6
CONTINUOUS
 62
     7
 10
42.525154362
 20
64.4414191005
 30
0.0
  0
VERTEX
  5
169
  8
VISIBLE
  6
CONTINUOUS
 62
     7
 10
42.5537475931
 20
64.3900349147
 30
0.0
  0
VERTEX
  5
16A
  8
VISIBLE
  6
CONTINUOUS
 62
     7
 10
42.5823442377
 20
64.3386526451
 30
0.0
  0
VERTEX
  5
16B
  8
VISIBLE
  6
CONTINUOUS
 62
     7
 10
42.6109442719
 20
64.2872722816
 30
0.0
  0
VERTEX
  5
16C
  8
VISIBLE
  6
CONTINUOUS
 62
     7
 10
42.6395476716
 20
64.2358938137
 30
0.0
  0
VERTEX
  5
16D
  8
VISIBLE
  6
CONTINUOUS
 62
     7
 10
42.6681544126
 20
64.1845172312
 30
0.0
  0
VERTEX
  5
16E
  8
VISIBLE
  6
CONTINUOUS
 62
     7
 10
42.6967644708
 20
64.1331425239
 30
0.0
  0
SEQEND
  5
16F
  8
VISIBLE
  6
CONTINUOUS
 62
     7
  0
LINE
  5
7A
  8
VISIBLE
  6
CONTINUOUS
 62
     7
 10
42.6967644708
 20
64.1331425239
 30
0.0
 11
45.0229668387
 21
64.1331425239
 31
0.0
  0
LINE
  5
7B
  8
VISIBLE
  6
CONTINUOUS
 62
     7
 10
45.0672758689
 20
105.3961176653
 30
0.0
 11
45.0703697669
 21
105.3961176653
 31
0.0
  0
LINE
  5
7C
  8
VISIBLE
  6
CONTINUOUS
 62
     7
 10
39.4491692066
 20
111.1590928067
 30
0.0
 11
37.0729668387
 21
111.1590928067
 31
0.0
  0
LINE
  5
7D
  8
VISIBLE
  6
CONTINUOUS
 62
     7
 10
45.0229668387
 20
111.1590928067
 30
0.0
 11
42.6967644708
 21
111.1590928067
 31
0.0
  0
POLYLINE
  5
7E
  8
VISIBLE
  6
CONTINUOUS
 62
     7
 66
     1
 10
0.0
 20
0.0
 30
0.0
  0
VERTEX
  5
170
  8
VISIBLE
  6
CONTINUOUS
 62
     7
 10
42.6967644708
 20
111.1590928067
 30
0.0
  0
VERTEX
  5
171
  8
VISIBLE
  6
CONTINUOUS
 62
     7
 10
42.6681541996
 20
111.1077177169
 30
0.0
  0
VERTEX
  5
172
  8
VISIBLE
  6
CONTINUOUS
 62
     7
 10
42.6395472722
 20
111.0563407997
 30
0.0
  0
VERTEX
  5
173
  8
VISIBLE
  6
CONTINUOUS
 62
     7
 10
42.6109437117
 20
111.0049620427
 30
0.0
  0
VERTEX
  5
174
  8
VISIBLE
  6
CONTINUOUS
 62
     7
 10
42.5823435409
 20
110.9535814337
 30
0.0
  0
VERTEX
  5
175
  8
VISIBLE
  6
CONTINUOUS
 62
     7
 10
42.553746783
 20
110.9021989605
 30
0.0
  0
VERTEX
  5
176
  8
VISIBLE
  6
CONTINUOUS
 62
     7
 10
42.5251534608
 20
110.8508146108
 30
0.0
  0
VERTEX
  5
177
  8
VISIBLE
  6
CONTINUOUS
 62
     7
 10
42.4965635974
 20
110.7994283724
 30
0.0
  0
VERTEX
  5
178
  8
VISIBLE
  6
CONTINUOUS
 62
     7
 10
42.4679772157
 20
110.7480402329
 30
0.0
  0
VERTEX
  5
179
  8
VISIBLE
  6
CONTINUOUS
 62
     7
 10
42.4393943388
 20
110.6966501802
 30
0.0
  0
VERTEX
  5
17A
  8
VISIBLE
  6
CONTINUOUS
 62
     7
 10
42.4108149895
 20
110.6452582019
 30
0.0
  0
VERTEX
  5
17B
  8
VISIBLE
  6
CONTINUOUS
 62
     7
 10
42.382239191
 20
110.5938642858
 30
0.0
  0
VERTEX
  5
17C
  8
VISIBLE
  6
CONTINUOUS
 62
     7
 10
42.3536669662
 20
110.5424684197
 30
0.0
  0
VERTEX
  5
17D
  8
VISIBLE
  6
CONTINUOUS
 62
     7
 10
42.325098338
 20
110.4910705913
 30
0.0
  0
VERTEX
  5
17E
  8
VISIBLE
  6
CONTINUOUS
 62
     7
 10
42.2965333295
 20
110.4396707884
 30
0.0
  0
VERTEX
  5
17F
  8
VISIBLE
  6
CONTINUOUS
 62
     7
 10
42.2679719636
 20
110.3882689986
 30
0.0
  0
VERTEX
  5
180
  8
VISIBLE
  6
CONTINUOUS
 62
     7
 10
42.2394142634
 20
110.3368652098
 30
0.0
  0
VERTEX
  5
181
  8
VISIBLE
  6
CONTINUOUS
 62
     7
 10
42.2108602517
 20
110.2854594096
 30
0.0
  0
VERTEX
  5
182
  8
VISIBLE
  6
CONTINUOUS
 62
     7
 10
42.1823099517
 20
110.2340515858
 30
0.0
  0
VERTEX
  5
183
  8
VISIBLE
  6
CONTINUOUS
 62
     7
 10
42.1537633862
 20
110.1826417262
 30
0.0
  0
VERTEX
  5
184
  8
VISIBLE
  6
CONTINUOUS
 62
     7
 10
42.1252205783
 20
110.1312298185
 30
0.0
  0
VERTEX
  5
185
  8
VISIBLE
  6
CONTINUOUS
 62
     7
 10
42.0966815509
 20
110.0798158505
 30
0.0
  0
VERTEX
  5
186
  8
VISIBLE
  6
CONTINUOUS
 62
     7
 10
42.0681463271
 20
110.0283998098
 30
0.0
  0
VERTEX
  5
187
  8
VISIBLE
  6
CONTINUOUS
 62
     7
 10
42.0396149297
 20
109.9769816843
 30
0.0
  0
VERTEX
  5
188
  8
VISIBLE
  6
CONTINUOUS
 62
     7
 10
42.0110873819
 20
109.9255614616
 30
0.0
  0
SEQEND
  5
189
  8
VISIBLE
  6
CONTINUOUS
 62
     7
  0
LINE
  5
7F
  8
VISIBLE
  6
CONTINUOUS
 62
     7
 10
42.0110873819
 20
109.5351453104
 30
0.0
 11
40.1348462955
 21
109.5351453104
 31
0.0
  0
POLYLINE
  5
80
  8
VISIBLE
  6
CONTINUOUS
 62
     7
 66
     1
 10
0.0
 20
0.0
 30
0.0
  0
VERTEX
  5
18A
  8
VISIBLE
  6
CONTINUOUS
 62
     7
 10
40.1348462955
 20
109.9255614616
 30
0.0
  0
VERTEX
  5
18B
  8
VISIBLE
  6
CONTINUOUS
 62
     7
 10
40.1063187477
 20
109.9769816843
 30
0.0
  0
VERTEX
  5
18C
  8
VISIBLE
  6
CONTINUOUS
 62
     7
 10
40.0777873504
 20
110.0283998098
 30
0.0
  0
VERTEX
  5
18D
  8
VISIBLE
  6
CONTINUOUS
 62
     7
 10
40.0492521265
 20
110.0798158505
 30
0.0
  0
VERTEX
  5
18E
  8
VISIBLE
  6
CONTINUOUS
 62
     7
 10
40.0207130992
 20
110.1312298185
 30
0.0
  0
VERTEX
  5
18F
  8
VISIBLE
  6
CONTINUOUS
 62
     7
 10
39.9921702913
 20
110.1826417262
 30
0.0
  0
VERTEX
  5
190
  8
VISIBLE
  6
CONTINUOUS
 62
     7
 10
39.9636237258
 20
110.2340515858
 30
0.0
  0
VERTEX
  5
191
  8
VISIBLE
  6
CONTINUOUS
 62
     7
 10
39.9350734257
 20
110.2854594096
 30
0.0
  0
VERTEX
  5
192
  8
VISIBLE
  6
CONTINUOUS
 62
     7
 10
39.9065194141
 20
110.3368652098
 30
0.0
  0
VERTEX
  5
193
  8
VISIBLE
  6
CONTINUOUS
 62
     7
 10
39.8779617138
 20
110.3882689986
 30
0.0
  0
VERTEX
  5
194
  8
VISIBLE
  6
CONTINUOUS
 62
     7
 10
39.8494003479
 20
110.4396707884
 30
0.0
  0
VERTEX
  5
195
  8
VISIBLE
  6
CONTINUOUS
 62
     7
 10
39.8208353394
 20
110.4910705913
 30
0.0
  0
VERTEX
  5
196
  8
VISIBLE
  6
CONTINUOUS
 62
     7
 10
39.7922667113
 20
110.5424684197
 30
0.0
  0
VERTEX
  5
197
  8
VISIBLE
  6
CONTINUOUS
 62
     7
 10
39.7636944864
 20
110.5938642858
 30
0.0
  0
VERTEX
  5
198
  8
VISIBLE
  6
CONTINUOUS
 62
     7
 10
39.7351186879
 20
110.6452582019
 30
0.0
  0
VERTEX
  5
199
  8
VISIBLE
  6
CONTINUOUS
 62
     7
 10
39.7065393387
 20
110.6966501802
 30
0.0
  0
VERTEX
  5
19A
  8
VISIBLE
  6
CONTINUOUS
 62
     7
 10
39.6779564617
 20
110.7480402329
 30
0.0
  0
VERTEX
  5
19B
  8
VISIBLE
  6
CONTINUOUS
 62
     7
 10
39.6493700801
 20
110.7994283724
 30
0.0
  0
VERTEX
  5
19C
  8
VISIBLE
  6
CONTINUOUS
 62
     7
 10
39.6207802167
 20
110.8508146108
 30
0.0
  0
VERTEX
  5
19D
  8
VISIBLE
  6
CONTINUOUS
 62
     7
 10
39.5921868945
 20
110.9021989605
 30
0.0
  0
VERTEX
  5
19E
  8
VISIBLE
  6
CONTINUOUS
 62
     7
 10
39.5635901365
 20
110.9535814337
 30
0.0
  0
VERTEX
  5
19F
  8
VISIBLE
  6
CONTINUOUS
 62
     7
 10
39.5349899658
 20
111.0049620427
 30
0.0
  0
VERTEX
  5
1A0
  8
VISIBLE
  6
CONTINUOUS
 62
     7
 10
39.5063864052
 20
111.0563407997
 30
0.0
  0
VERTEX
  5
1A1
  8
VISIBLE
  6
CONTINUOUS
 62
     7
 10
39.4777794778
 20
111.1077177169
 30
0.0
  0
VERTEX
  5
1A2
  8
VISIBLE
  6
CONTINUOUS
 62
     7
 10
39.4491692066
 20
111.1590928067
 30
0.0
  0
SEQEND
  5
1A3
  8
VISIBLE
  6
CONTINUOUS
 62
     7
  0
LINE
  5
81
  8
VISIBLE
  6
CONTINUOUS
 62
     7
 10
45.0229668387
 20
72.6461176653
 30
0.0
 11
45.0229668387
 21
111.1590928067
 31
0.0
  0
LINE
  5
82
  8
VISIBLE
  6
CONTINUOUS
 62
     7
 10
45.0229668387
 20
68.4330849791
 30
0.0
 11
45.0229668387
 21
72.6461176653
 31
0.0
  0
LINE
  5
83
  8
VISIBLE
  6
CONTINUOUS
 62
     7
 10
42.0110873819
 20
72.6461176653
 30
0.0
 11
42.0110873819
 21
109.9255614616
 31
0.0
  0
LINE
  5
84
  8
VISIBLE
  6
CONTINUOUS
 62
     7
 10
40.1348462955
 20
72.6461176653
 30
0.0
 11
40.1348462955
 21
109.9255614616
 31
0.0
  0
LINE
  5
85
  8
VISIBLE
  6
CONTINUOUS
 62
     7
 10
37.0729668387
 20
72.6461176653
 30
0.0
 11
37.0729668387
 21
111.1590928067
 31
0.0
  0
LINE
  5
86
  8
VISIBLE
  6
CONTINUOUS
 62
     7
 10
37.0729668387
 20
72.6461176653
 30
0.0
 11
37.0729668387
 21
68.4330849791
 31
0.0
  0
LINE
  5
87
  8
VISIBLE
  6
CONTINUOUS
 62
     7
 10
37.0729668387
 20
68.4330849791
 30
0.0
 11
39.4491692066
 21
68.4330849791
 31
0.0
  0
POLYLINE
  5
88
  8
VISIBLE
  6
CONTINUOUS
 62
     7
 66
     1
 10
0.0
 20
0.0
 30
0.0
  0
VERTEX
  5
1A4
  8
VISIBLE
  6
CONTINUOUS
 62
     7
 10
39.4491692066
 20
68.4330849791
 30
0.0
  0
VERTEX
  5
1A5
  8
VISIBLE
  6
CONTINUOUS
 62
     7
 10
39.4781045431
 20
68.4967074171
 30
0.0
  0
VERTEX
  5
1A6
  8
VISIBLE
  6
CONTINUOUS
 62
     7
 10
39.5070107042
 20
68.5603459385
 30
0.0
  0
VERTEX
  5
1A7
  8
VISIBLE
  6
CONTINUOUS
 62
     7
 10
39.5358873348
 20
68.6240003573
 30
0.0
  0
VERTEX
  5
1A8
  8
VISIBLE
  6
CONTINUOUS
 62
     7
 10
39.56473408
 20
68.6876704877
 30
0.0
  0
VERTEX
  5
1A9
  8
VISIBLE
  6
CONTINUOUS
 62
     7
 10
39.5935505846
 20
68.7513561435
 30
0.0
  0
VERTEX
  5
1AA
  8
VISIBLE
  6
CONTINUOUS
 62
     7
 10
39.6223364937
 20
68.8150571388
 30
0.0
  0
VERTEX
  5
1AB
  8
VISIBLE
  6
CONTINUOUS
 62
     7
 10
39.6510914522
 20
68.8787732876
 30
0.0
  0
VERTEX
  5
1AC
  8
VISIBLE
  6
CONTINUOUS
 62
     7
 10
39.6798151051
 20
68.942504404
 30
0.0
  0
VERTEX
  5
1AD
  8
VISIBLE
  6
CONTINUOUS
 62
     7
 10
39.7085070975
 20
69.0062503019
 30
0.0
  0
VERTEX
  5
1AE
  8
VISIBLE
  6
CONTINUOUS
 62
     7
 10
39.7371670742
 20
69.0700107953
 30
0.0
  0
VERTEX
  5
1AF
  8
VISIBLE
  6
CONTINUOUS
 62
     7
 10
39.7657946803
 20
69.1337856983
 30
0.0
  0
VERTEX
  5
1B0
  8
VISIBLE
  6
CONTINUOUS
 62
     7
 10
39.7943895607
 20
69.1975748249
 30
0.0
  0
VERTEX
  5
1B1
  8
VISIBLE
  6
CONTINUOUS
 62
     7
 10
39.8229513605
 20
69.261377989
 30
0.0
  0
VERTEX
  5
1B2
  8
VISIBLE
  6
CONTINUOUS
 62
     7
 10
39.8514797245
 20
69.3251950048
 30
0.0
  0
VERTEX
  5
1B3
  8
VISIBLE
  6
CONTINUOUS
 62
     7
 10
39.8799742978
 20
69.3890256861
 30
0.0
  0
VERTEX
  5
1B4
  8
VISIBLE
  6
CONTINUOUS
 62
     7
 10
39.9084347253
 20
69.4528698471
 30
0.0
  0
VERTEX
  5
1B5
  8
VISIBLE
  6
CONTINUOUS
 62
     7
 10
39.936860652
 20
69.5167273018
 30
0.0
  0
VERTEX
  5
1B6
  8
VISIBLE
  6
CONTINUOUS
 62
     7
 10
39.965251723
 20
69.580597864
 30
0.0
  0
VERTEX
  5
1B7
  8
VISIBLE
  6
CONTINUOUS
 62
     7
 10
39.9936075831
 20
69.644481348
 30
0.0
  0
VERTEX
  5
1B8
  8
VISIBLE
  6
CONTINUOUS
 62
     7
 10
40.0219278774
 20
69.7083775676
 30
0.0
  0
VERTEX
  5
1B9
  8
VISIBLE
  6
CONTINUOUS
 62
     7
 10
40.0502122508
 20
69.7722863369
 30
0.0
  0
VERTEX
  5
1BA
  8
VISIBLE
  6
CONTINUOUS
 62
     7
 10
40.0784603483
 20
69.8362074699
 30
0.0
  0
VERTEX
  5
1BB
  8
VISIBLE
  6
CONTINUOUS
 62
     7
 10
40.1066718149
 20
69.9001407806
 30
0.0
  0
VERTEX
  5
1BC
  8
VISIBLE
  6
CONTINUOUS
 62
     7
 10
40.1348462955
 20
69.964086083
 30
0.0
  0
SEQEND
  5
1BD
  8
VISIBLE
  6
CONTINUOUS
 62
     7
  0
LINE
  5
89
  8
VISIBLE
  6
CONTINUOUS
 62
     7
 10
40.1348462955
 20
69.964086083
 30
0.0
 11
40.1348462955
 21
70.4586176653
 31
0.0
  0
LINE
  5
8A
  8
VISIBLE
  6
CONTINUOUS
 62
     7
 10
40.1348462955
 20
70.4586176653
 30
0.0
 11
42.0110873819
 21
70.4586176653
 31
0.0
  0
LINE
  5
8B
  8
VISIBLE
  6
CONTINUOUS
 62
     7
 10
42.0110873819
 20
70.4586176653
 30
0.0
 11
42.0110873819
 21
69.964086083
 31
0.0
  0
POLYLINE
  5
8C
  8
VISIBLE
  6
CONTINUOUS
 62
     7
 66
     1
 10
0.0
 20
0.0
 30
0.0
  0
VERTEX
  5
1BE
  8
VISIBLE
  6
CONTINUOUS
 62
     7
 10
42.0110873819
 20
69.964086083
 30
0.0
  0
VERTEX
  5
1BF
  8
VISIBLE
  6
CONTINUOUS
 62
     7
 10
42.0392719602
 20
69.9001178527
 30
0.0
  0
VERTEX
  5
1C0
  8
VISIBLE
  6
CONTINUOUS
 62
     7
 10
42.0674920007
 20
69.8361650882
 30
0.0
  0
VERTEX
  5
1C1
  8
VISIBLE
  6
CONTINUOUS
 62
     7
 10
42.0957472364
 20
69.7722277736
 30
0.0
  0
VERTEX
  5
1C2
  8
VISIBLE
  6
CONTINUOUS
 62
     7
 10
42.1240374003
 20
69.7083058932
 30
0.0
  0
VERTEX
  5
1C3
  8
VISIBLE
  6
CONTINUOUS
 62
     7
 10
42.1523622254
 20
69.644399431
 30
0.0
  0
VERTEX
  5
1C4
  8
VISIBLE
  6
CONTINUOUS
 62
     7
 10
42.1807214448
 20
69.580508371
 30
0.0
  0
VERTEX
  5
1C5
  8
VISIBLE
  6
CONTINUOUS
 62
     7
 10
42.2091147916
 20
69.5166326975
 30
0.0
  0
VERTEX
  5
1C6
  8
VISIBLE
  6
CONTINUOUS
 62
     7
 10
42.2375419986
 20
69.4527723946
 30
0.0
  0
VERTEX
  5
1C7
  8
VISIBLE
  6
CONTINUOUS
 62
     7
 10
42.2660027991
 20
69.3889274463
 30
0.0
  0
VERTEX
  5
1C8
  8
VISIBLE
  6
CONTINUOUS
 62
     7
 10
42.2944969259
 20
69.3250978368
 30
0.0
  0
VERTEX
  5
1C9
  8
VISIBLE
  6
CONTINUOUS
 62
     7
 10
42.3230241122
 20
69.2612835502
 30
0.0
  0
VERTEX
  5
1CA
  8
VISIBLE
  6
CONTINUOUS
 62
     7
 10
42.3515840909
 20
69.1974845705
 30
0.0
  0
VERTEX
  5
1CB
  8
VISIBLE
  6
CONTINUOUS
 62
     7
 10
42.3801765951
 20
69.133700882
 30
0.0
  0
VERTEX
  5
1CC
  8
VISIBLE
  6
CONTINUOUS
 62
     7
 10
42.4088013579
 20
69.0699324688
 30
0.0
  0
VERTEX
  5
1CD
  8
VISIBLE
  6
CONTINUOUS
 62
     7
 10
42.4374581122
 20
69.0061793148
 30
0.0
  0
VERTEX
  5
1CE
  8
VISIBLE
  6
CONTINUOUS
 62
     7
 10
42.4661465911
 20
68.9424414044
 30
0.0
  0
VERTEX
  5
1CF
  8
VISIBLE
  6
CONTINUOUS
 62
     7
 10
42.4948665276
 20
68.8787187215
 30
0.0
  0
VERTEX
  5
1D0
  8
VISIBLE
  6
CONTINUOUS
 62
     7
 10
42.5236176547
 20
68.8150112503
 30
0.0
  0
VERTEX
  5
1D1
  8
VISIBLE
  6
CONTINUOUS
 62
     7
 10
42.5523997055
 20
68.7513189749
 30
0.0
  0
VERTEX
  5
1D2
  8
VISIBLE
  6
CONTINUOUS
 62
     7
 10
42.5812124131
 20
68.6876418794
 30
0.0
  0
VERTEX
  5
1D3
  8
VISIBLE
  6
CONTINUOUS
 62
     7
 10
42.6100555103
 20
68.623979948
 30
0.0
  0
VERTEX
  5
1D4
  8
VISIBLE
  6
CONTINUOUS
 62
     7
 10
42.6389287304
 20
68.5603331647
 30
0.0
  0
VERTEX
  5
1D5
  8
VISIBLE
  6
CONTINUOUS
 62
     7
 10
42.6678318062
 20
68.4967015137
 30
0.0
  0
VERTEX
  5
1D6
  8
VISIBLE
  6
CONTINUOUS
 62
     7
 10
42.6967644708
 20
68.4330849791
 30
0.0
  0
SEQEND
  5
1D7
  8
VISIBLE
  6
CONTINUOUS
 62
     7
  0
LINE
  5
8D
  8
VISIBLE
  6
CONTINUOUS
 62
     7
 10
42.6967644708
 20
68.4330849791
 30
0.0
 11
45.0229668387
 21
68.4330849791
 31
0.0
  0
LINE
  5
8E
  8
VISIBLE
  6
CONTINUOUS
 62
     7
 10
39.4491692066
 20
72.6461176653
 30
0.0
 11
37.0729668387
 21
72.6461176653
 31
0.0
  0
LINE
  5
8F
  8
VISIBLE
  6
CONTINUOUS
 62
     7
 10
45.0229668387
 20
72.6461176653
 30
0.0
 11
42.6967644708
 21
72.6461176653
 31
0.0
  0
LINE
  5
90
  8
VISIBLE
  6
CONTINUOUS
 62
     7
 10
42.6967644708
 20
72.6461176653
 30
0.0
 11
42.0110873819
 21
72.6461176653
 31
0.0
  0
LINE
  5
91
  8
VISIBLE
  6
CONTINUOUS
 62
     7
 10
42.0110873819
 20
72.6461176653
 30
0.0
 11
40.1348462955
 21
72.6461176653
 31
0.0
  0
LINE
  5
92
  8
VISIBLE
  6
CONTINUOUS
 62
     7
 10
40.1348462955
 20
72.6461176653
 30
0.0
 11
39.4491692066
 21
72.6461176653
 31
0.0
  0
LINE
  5
93
  8
VISIBLE
  6
CONTINUOUS
 62
     7
 10
26.6229668387
 20
99.6461176653
 30
0.0
 11
26.6229668387
 21
75.6461176653
 31
0.0
  0
LINE
  5
94
  8
0
  6
HIDDEN2
 62
     7
 10
42.4346435302
 20
92.5461176653
 30
0.0
 11
42.4346435302
 21
82.7461176653
 31
0.0
  0
POLYLINE
  5
95
  8
0
  6
HIDDEN2
 62
     7
 66
     1
 10
0.0
 20
0.0
 30
0.0
  0
VERTEX
  5
1D8
  8
0
  6
HIDDEN2
 62
     7
 10
42.2181371792
 20
82.888863201
 30
0.0
  0
VERTEX
  5
1D9
  8
0
  6
HIDDEN2
 62
     7
 10
42.2202652092
 20
82.8867677612
 30
0.0
  0
VERTEX
  5
1DA
  8
0
  6
HIDDEN2
 62
     7
 10
42.2223401207
 20
82.8847242229
 30
0.0
  0
VERTEX
  5
1DB
  8
0
  6
HIDDEN2
 62
     7
 10
42.2243618743
 20
82.8827326459
 30
0.0
  0
VERTEX
  5
1DC
  8
0
  6
HIDDEN2
 62
     7
 10
42.2263304309
 20
82.8807930896
 30
0.0
  0
VERTEX
  5
1DD
  8
0
  6
HIDDEN2
 62
     7
 10
42.2282457513
 20
82.8789056137
 30
0.0
  0
VERTEX
  5
1DE
  8
0
  6
HIDDEN2
 62
     7
 10
42.2301077963
 20
82.8770702778
 30
0.0
  0
VERTEX
  5
1DF
  8
0
  6
HIDDEN2
 62
     7
 10
42.2319165266
 20
82.8752871414
 30
0.0
  0
VERTEX
  5
1E0
  8
0
  6
HIDDEN2
 62
     7
 10
42.2336719031
 20
82.8735562643
 30
0.0
  0
VERTEX
  5
1E1
  8
0
  6
HIDDEN2
 62
     7
 10
42.2353738865
 20
82.8718777058
 30
0.0
  0
VERTEX
  5
1E2
  8
0
  6
HIDDEN2
 62
     7
 10
42.2370224376
 20
82.8702515258
 30
0.0
  0
VERTEX
  5
1E3
  8
0
  6
HIDDEN2
 62
     7
 10
42.2386175172
 20
82.8686777837
 30
0.0
  0
VERTEX
  5
1E4
  8
0
  6
HIDDEN2
 62
     7
 10
42.2401590861
 20
82.8671565392
 30
0.0
  0
VERTEX
  5
1E5
  8
0
  6
HIDDEN2
 62
     7
 10
42.2416471051
 20
82.8656878518
 30
0.0
  0
VERTEX
  5
1E6
  8
0
  6
HIDDEN2
 62
     7
 10
42.2430815349
 20
82.8642717811
 30
0.0
  0
VERTEX
  5
1E7
  8
0
  6
HIDDEN2
 62
     7
 10
42.2444623363
 20
82.8629083868
 30
0.0
  0
VERTEX
  5
1E8
  8
0
  6
HIDDEN2
 62
     7
 10
42.2457894702
 20
82.8615977285
 30
0.0
  0
VERTEX
  5
1E9
  8
0
  6
HIDDEN2
 62
     7
 10
42.2470628973
 20
82.8603398657
 30
0.0
  0
VERTEX
  5
1EA
  8
0
  6
HIDDEN2
 62
     7
 10
42.2482825784
 20
82.859134858
 30
0.0
  0
VERTEX
  5
1EB
  8
0
  6
HIDDEN2
 62
     7
 10
42.2494484743
 20
82.857982765
 30
0.0
  0
VERTEX
  5
1EC
  8
0
  6
HIDDEN2
 62
     7
 10
42.2505605457
 20
82.8568836464
 30
0.0
  0
VERTEX
  5
1ED
  8
0
  6
HIDDEN2
 62
     7
 10
42.2516187535
 20
82.8558375617
 30
0.0
  0
VERTEX
  5
1EE
  8
0
  6
HIDDEN2
 62
     7
 10
42.2526230585
 20
82.8548445705
 30
0.0
  0
VERTEX
  5
1EF
  8
0
  6
HIDDEN2
 62
     7
 10
42.2535734213
 20
82.8539047325
 30
0.0
  0
VERTEX
  5
1F0
  8
0
  6
HIDDEN2
 62
     7
 10
42.2544698029
 20
82.8530181071
 30
0.0
  0
VERTEX
  5
1F1
  8
0
  6
HIDDEN2
 62
     7
 10
42.255312164
 20
82.8521847541
 30
0.0
  0
VERTEX
  5
1F2
  8
0
  6
HIDDEN2
 62
     7
 10
42.2561004654
 20
82.8514047329
 30
0.0
  0
VERTEX
  5
1F3
  8
0
  6
HIDDEN2
 62
     7
 10
42.2568346678
 20
82.8506781033
 30
0.0
  0
VERTEX
  5
1F4
  8
0
  6
HIDDEN2
 62
     7
 10
42.2575147321
 20
82.8500049247
 30
0.0
  0
VERTEX
  5
1F5
  8
0
  6
HIDDEN2
 62
     7
 10
42.2581406191
 20
82.8493852569
 30
0.0
  0
VERTEX
  5
1F6
  8
0
  6
HIDDEN2
 62
     7
 10
42.2587122894
 20
82.8488191594
 30
0.0
  0
VERTEX
  5
1F7
  8
0
  6
HIDDEN2
 62
     7
 10
42.259229704
 20
82.8483066917
 30
0.0
  0
VERTEX
  5
1F8
  8
0
  6
HIDDEN2
 62
     7
 10
42.2596928236
 20
82.8478479135
 30
0.0
  0
VERTEX
  5
1F9
  8
0
  6
HIDDEN2
 62
     7
 10
42.260101609
 20
82.8474428844
 30
0.0
  0
VERTEX
  5
1FA
  8
0
  6
HIDDEN2
 62
     7
 10
42.2604560209
 20
82.847091664
 30
0.0
  0
VERTEX
  5
1FB
  8
0
  6
HIDDEN2
 62
     7
 10
42.2607560202
 20
82.8467943118
 30
0.0
  0
VERTEX
  5
1FC
  8
0
  6
HIDDEN2
 62
     7
 10
42.2610015677
 20
82.8465508876
 30
0.0
  0
VERTEX
  5
1FD
  8
0
  6
HIDDEN2
 62
     7
 10
42.261192624
 20
82.8463614508
 30
0.0
  0
VERTEX
  5
1FE
  8
0
  6
HIDDEN2
 62
     7
 10
42.2613291501
 20
82.846226061
 30
0.0
  0
VERTEX
  5
1FF
  8
0
  6
HIDDEN2
 62
     7
 10
42.2614111067
 20
82.8461447779
 30
0.0
  0
VERTEX
  5
200
  8
0
  6
HIDDEN2
 62
     7
 10
42.2614384434
 20
82.8461176715
 30
0.0
  0
SEQEND
  5
201
  8
0
  6
HIDDEN2
 62
     7
  0
LINE
  5
96
  8
0
  6
HIDDEN2
 62
     7
 10
50.6229668387
 20
92.1711176653
 30
0.0
 11
50.6229668387
 21
83.1211176653
 31
0.0
  0
LINE
  5
97
  8
HIDDEN
  6
HIDDEN2
 62
     7
 10
30.5729668387
 20
97.6961176653
 30
0.0
 11
30.5729668387
 21
77.5961176653
 31
0.0
  0
LINE
  5
98
  8
0
  6
HIDDEN2
 62
     7
 10
31.3229668387
 20
97.4461176653
 30
0.0
 11
31.3229668387
 21
77.8461176653
 31
0.0
  0
LINE
  5
99
  8
0
  6
HIDDEN2
 62
     7
 10
43.1846435302
 20
92.5461176653
 30
0.0
 11
43.1846435302
 21
82.7461176653
 31
0.0
  0
LINE
  5
9A
  8
0
  6
HIDDEN2
 62
     7
 10
62.8791820809
 20
89.3078676653
 30
0.0
 11
62.8791820809
 21
85.9843676653
 31
0.0
  0
LINE
  5
9B
  8
0
  6
HIDDEN2
 62
     7
 10
52.1781443359
 20
85.9843676653
 30
0.0
 11
52.1781443359
 21
89.3078676653
 31
0.0
  0
LINE
  5
9C
  8
VISIBLE
  6
CONTINUOUS
 62
     7
 10
46.6229668387
 20
70.1836176653
 30
0.0
 11
96.4247434832
 21
77.2981550979
 31
0.0
  0
LINE
  5
9D
  8
VISIBLE
  6
CONTINUOUS
 62
     7
 10
96.4247434832
 20
97.9940802326
 30
0.0
 11
46.6229668387
 21
105.1086176653
 31
0.0
  0
LINE
  5
9E
  8
VISIBLE
  6
CONTINUOUS
 62
     7
 10
45.5229668387
 20
70.1836176653
 30
0.0
 11
46.6229668387
 21
70.1836176653
 31
0.0
  0
LINE
  5
9F
  8
VISIBLE
  6
CONTINUOUS
 62
     7
 10
46.6229668387
 20
105.1086176653
 30
0.0
 11
45.5229668387
 21
105.1086176653
 31
0.0
  0
LINE
  5
A0
  8
0
  6
HIDDEN2
 62
     7
 10
91.7479668387
 20
81.3961176653
 30
0.0
 11
96.6319414349
 21
81.3961176653
 31
0.0
  0
LINE
  5
A1
  8
HIDDEN
  6
HIDDEN2
 62
     7
 10
96.6319414349
 20
93.8961176653
 30
0.0
 11
91.7479668387
 21
93.8961176653
 31
0.0
  0
LINE
  5
A2
  8
HIDDEN
  6
HIDDEN2
 62
     7
 10
91.7479668387
 20
93.8961176653
 30
0.0
 11
91.1098528613
 21
92.8341176653
 31
0.0
  0
LINE
  5
A3
  8
HIDDEN
  6
HIDDEN2
 62
     7
 10
91.1098528613
 20
82.4581176653
 30
0.0
 11
91.7479668387
 21
81.3961176653
 31
0.0
  0
LINE
  5
A4
  8
HIDDEN
  6
HIDDEN2
 62
     7
 10
64.9979668387
 20
82.4581176653
 30
0.0
 11
91.1098528613
 21
82.4581176653
 31
0.0
  0
LINE
  5
A5
  8
HIDDEN
  6
HIDDEN2
 62
     7
 10
91.1098528613
 20
92.8341176653
 30
0.0
 11
64.9979668387
 21
92.8341176653
 31
0.0
  0
LINE
  5
A6
  8
HIDDEN
  6
HIDDEN2
 62
     7
 10
64.9979668387
 20
92.8341176653
 30
0.0
 11
62.8791820809
 21
89.3078676653
 31
0.0
  0
LINE
  5
A7
  8
HIDDEN
  6
HIDDEN2
 62
     7
 10
62.8791820809
 20
85.9843676653
 30
0.0
 11
64.9979668387
 21
82.4581176653
 31
0.0
  0
LINE
  5
A8
  8
0
  6
HIDDEN2
 62
     7
 10
97.4979668387
 20
94.3961176653
 30
0.0
 11
96.6319414349
 21
93.8961176653
 31
0.0
  0
LINE
  5
A9
  8
0
  6
HIDDEN2
 62
     7
 10
96.6319414349
 20
81.3961176653
 30
0.0
 11
97.4979668387
 21
80.8961176653
 31
0.0
  0
ARC
  5
AA
  8
VISIBLE
  6
CONTINUOUS
 62
     7
 10
96.2479668387
 20
96.7566433583
 30
0.0
 40
1.250000000000001
 50
0.0
 51
81.8699
  0
ARC
  5
AB
  8
VISIBLE
  6
CONTINUOUS
 62
     7
 10
96.2479668387
 20
78.5355919722
 30
0.0
 40
1.25
 50
278.1301
 51
0.0
  0
ARC
  5
AC
  8
VISIBLE
  6
CONTINUOUS
 62
     7
 10
45.5229668387
 20
105.6086176653
 30
0.0
 40
0.5000000000000004
 50
205.1220349258
 51
270.0
  0
ARC
  5
AD
  8
VISIBLE
  6
CONTINUOUS
 62
     7
 10
45.5229668387
 20
69.6836176653
 30
0.0
 40
0.5000000000000004
 50
90.0
 51
180.0
  0
LINE
  5
AE
  8
VISIBLE
  6
CONTINUOUS
 62
     7
 10
27.1229668387
 20
75.1461176653
 30
0.0
 11
36.5729668387
 21
75.1461176653
 31
0.0
  0
LINE
  5
AF
  8
VISIBLE
  6
CONTINUOUS
 62
     7
 10
36.5729668387
 20
100.1461176653
 30
0.0
 11
27.1229668387
 21
100.1461176653
 31
0.0
  0
LINE
  5
B0
  8
VISIBLE
  6
CONTINUOUS
 62
     7
 10
27.1229668387
 20
100.1461176653
 30
0.0
 11
26.6229668387
 21
99.6461176653
 31
0.0
  0
LINE
  5
B1
  8
VISIBLE
  6
CONTINUOUS
 62
     7
 10
26.6229668387
 20
75.6461176653
 30
0.0
 11
27.1229668387
 21
75.1461176653
 31
0.0
  0
LINE
  5
B2
  8
0
  6
HIDDEN2
 62
     7
 10
32.3941840001
 20
81.5069049725
 30
0.0
 11
41.9302205333
 21
82.8471075066
 31
0.0
  0
LINE
  5
B3
  8
0
  6
HIDDEN2
 62
     7
 10
42.1010616894
 20
92.4211176653
 30
0.0
 11
32.3941840001
 21
93.7853303581
 31
0.0
  0
LINE
  5
B4
  8
0
  6
HIDDEN2
 62
     7
 10
42.4346435302
 20
92.5461176653
 30
0.0
 11
42.2181371792
 21
92.4211176653
 31
0.0
  0
LINE
  5
B5
  8
0
  6
HIDDEN2
 62
     7
 10
42.2579325006
 20
82.8481418258
 30
0.0
 11
42.4346435302
 21
82.7461176653
 31
0.0
  0
LINE
  5
B6
  8
0
  6
HIDDEN2
 62
     7
 10
43.1846435302
 20
82.7461176653
 30
0.0
 11
43.2234953972
 21
82.8528622925
 31
0.0
  0
LINE
  5
B7
  8
0
  6
HIDDEN2
 62
     7
 10
43.2910087935
 20
92.253881506
 30
0.0
 11
43.1846435302
 21
92.5461176653
 31
0.0
  0
LINE
  5
B8
  8
0
  6
HIDDEN2
 62
     7
 10
46.1229668387
 20
83.1211176653
 30
0.0
 11
50.6229668387
 21
83.1211176653
 31
0.0
  0
LINE
  5
B9
  8
0
  6
HIDDEN2
 62
     7
 10
50.6229668387
 20
92.1711176653
 30
0.0
 11
43.87990412
 21
92.1711176653
 31
0.0
  0
LINE
  5
BA
  8
0
  6
HIDDEN2
 62
     7
 10
42.2181371792
 20
92.4211176653
 30
0.0
 11
42.1010616894
 21
92.4211176653
 31
0.0
  0
LINE
  5
BB
  8
0
  6
HIDDEN2
 62
     7
 10
43.87990412
 20
92.1711176653
 30
0.0
 11
43.2910087935
 21
92.253881506
 31
0.0
  0
LINE
  5
BC
  8
HIDDEN
  6
HIDDEN2
 62
     7
 10
30.5729668387
 20
77.5961176653
 30
0.0
 11
31.0729668387
 21
77.5961176653
 31
0.0
  0
LINE
  5
BD
  8
HIDDEN
  6
HIDDEN2
 62
     7
 10
31.0729668387
 20
97.6961176653
 30
0.0
 11
30.5729668387
 21
97.6961176653
 31
0.0
  0
ARC
  5
BE
  8
HIDDEN
  6
HIDDEN2
 62
     7
 10
31.0729668387
 20
77.8461176653
 30
0.0
 40
0.2500000000000002
 50
270.0
 51
0.0
  0
ARC
  5
BF
  8
HIDDEN
  6
HIDDEN2
 62
     7
 10
31.0729668387
 20
97.4461176653
 30
0.0
 40
0.2500000000000019
 50
0.0
 51
90.0
  0
LINE
  5
C0
  8
0
  6
HIDDEN2
 62
     7
 10
31.3229668387
 20
79.651502423
 30
0.0
 11
32.3941840001
 21
81.5069049725
 31
0.0
  0
LINE
  5
C1
  8
0
  6
HIDDEN2
 62
     7
 10
32.3941840001
 20
93.7853303581
 30
0.0
 11
31.3229668387
 21
95.6407329075
 31
0.0
  0
LINE
  5
C2
  8
0
  6
HIDDEN2
 62
     7
 10
42.4346435302
 20
82.7461176653
 30
0.0
 11
43.1846435302
 21
82.7461176653
 31
0.0
  0
LINE
  5
C3
  8
0
  6
HIDDEN2
 62
     7
 10
43.1846435302
 20
92.5461176653
 30
0.0
 11
42.4346435302
 21
92.5461176653
 31
0.0
  0
LINE
  5
C4
  8
0
  6
HIDDEN2
 62
     7
 10
50.6229668387
 20
83.3961176653
 30
0.0
 11
52.1781443359
 21
85.9843676653
 31
0.0
  0
LINE
  5
C5
  8
0
  6
HIDDEN2
 62
     7
 10
52.1781443359
 20
89.3078676653
 30
0.0
 11
50.6229668387
 21
91.8961176653
 31
0.0
  0
LINE
  5
C6
  8
0
  6
HIDDEN2
 62
     7
 10
43.2210405536
 20
82.8461176653
 30
0.0
 11
46.1229668387
 21
82.8461176653
 31
0.0
  0
LINE
  5
C7
  8
0
  6
HIDDEN2
 62
     7
 10
41.9231774464
 20
82.8461176653
 30
0.0
 11
42.2614384494
 21
82.8461176653
 31
0.0
  0
ARC
  5
C8
  8
VISIBLE
  6
CONTINUOUS
 62
     7
 10
36.5729668387
 20
74.6461176653
 30
0.0
 40
0.5000000000000004
 50
0.0
 51
90.0
  0
ARC
  5
C9
  8
VISIBLE
  6
CONTINUOUS
 62
     7
 10
36.5729668387
 20
100.6461176653
 30
0.0
 40
0.5000000000000004
 50
270.0
 51
0.0
  0
LINE
  5
CA
  8
HIDDEN
  6
HIDDEN2
 62
     7
 10
91.597751684
 20
81.6461176653
 30
0.0
 11
73.4979668387
 21
81.6461176653
 31
0.0
  0
LINE
  5
CB
  8
HIDDEN
  6
HIDDEN2
 62
     7
 10
91.597751684
 20
93.6461176653
 30
0.0
 11
73.4979668387
 21
93.6461176653
 31
0.0
  0
LINE
  5
CC
  8
HIDDEN
  6
HIDDEN2
 62
     7
 10
73.4979668387
 20
93.6461176653
 30
0.0
 11
73.4979668387
 21
81.6461176653
 31
0.0
  0
LINE
  5
CD
  8
HIDDEN
  6
HIDDEN2
 62
     7
 10
26.6518343522
 20
97.6461176653
 30
0.0
 11
30.5729668387
 21
97.6461176653
 31
0.0
  0
LINE
  5
CE
  8
HIDDEN
  6
HIDDEN2
 62
     7
 10
26.6518343522
 20
77.6461176653
 30
0.0
 11
30.5729668387
 21
77.6461176653
 31
0.0
  0
LINE
  5
CF
  8
0
  6
HIDDEN2
 62
     7
 10
51.9749032315
 20
89.6461176653
 30
0.0
 11
63.0824231853
 21
89.6461176653
 31
0.0
  0
LINE
  5
D0
  8
0
  6
HIDDEN2
 62
     7
 10
51.9749032315
 20
85.6461176653
 30
0.0
 11
63.0824231853
 21
85.6461176653
 31
0.0
  0
LINE
  5
D1
  8
VISIBLE
  6
CONTINUOUS
 62
     7
 10
22.6229668387
 20
95.526502423
 30
0.0
 11
22.6229668387
 21
79.7657329075
 31
0.0
  0
LINE
  5
D2
  8
VISIBLE
  6
CONTINUOUS
 62
     7
 10
26.1229668387
 20
97.1461176653
 30
0.0
 11
26.1229668387
 21
78.1461176653
 31
0.0
  0
LINE
  5
D3
  8
VISIBLE
  6
CONTINUOUS
 62
     7
 10
22.9229668387
 20
79.6461176653
 30
0.0
 11
22.9229668387
 21
80.075403451
 31
0.0
  0
LINE
  5
D4
  8
VISIBLE
  6
CONTINUOUS
 62
     7
 10
22.9229668387
 20
87.2168318795
 30
0.0
 11
22.9229668387
 21
88.075403451
 31
0.0
  0
LINE
  5
D5
  8
VISIBLE
  6
CONTINUOUS
 62
     7
 10
22.9229668387
 20
95.2168318795
 30
0.0
 11
22.9229668387
 21
95.6461176653
 31
0.0
  0
ARC
  5
D6
  8
VISIBLE
  6
CONTINUOUS
 62
     7
 10
46.7475048758
 20
91.6461176653
 30
0.0
 40
24.0906332975762
 50
171.476211665
 51
188.523788335
  0
ARC
  5
D7
  8
VISIBLE
  6
CONTINUOUS
 62
     7
 10
46.7475048758
 20
83.6461176653
 30
0.0
 40
24.0906332975763
 50
171.476211665
 51
188.523788335
  0
LINE
  5
D8
  8
VISIBLE
  6
CONTINUOUS
 62
     7
 10
22.9229668387
 20
79.6461176653
 30
0.0
 11
22.6550185497
 21
79.6461176653
 31
0.0
  0
LINE
  5
D9
  8
VISIBLE
  6
CONTINUOUS
 62
     7
 10
22.9229668387
 20
95.6461176653
 30
0.0
 11
22.6550185497
 21
95.6461176653
 31
0.0
  0
LINE
  5
DA
  8
VISIBLE
  6
CONTINUOUS
 62
     7
 10
22.9229668387
 20
95.6461176653
 30
0.0
 11
26.1229668387
 21
95.6461176653
 31
0.0
  0
LINE
  5
DB
  8
VISIBLE
  6
CONTINUOUS
 62
     7
 10
26.1229668387
 20
79.6461176653
 30
0.0
 11
22.9229668387
 21
79.6461176653
 31
0.0
  0
LINE
  5
DC
  8
VISIBLE
  6
CONTINUOUS
 62
     7
 10
26.1229668387
 20
87.2168318795
 30
0.0
 11
22.9229668387
 21
87.2168318795
 31
0.0
  0
LINE
  5
DD
  8
VISIBLE
  6
CONTINUOUS
 62
     7
 10
22.9229668387
 20
80.075403451
 30
0.0
 11
26.1229668387
 21
80.075403451
 31
0.0
  0
LINE
  5
DE
  8
VISIBLE
  6
CONTINUOUS
 62
     7
 10
26.1229668387
 20
95.2168318795
 30
0.0
 11
22.9229668387
 21
95.2168318795
 31
0.0
  0
LINE
  5
DF
  8
VISIBLE
  6
CONTINUOUS
 62
     7
 10
22.9229668387
 20
88.075403451
 30
0.0
 11
26.1229668387
 21
88.075403451
 31
0.0
  0
POLYLINE
  5
E0
  8
VISIBLE
  6
CONTINUOUS
 62
     7
 66
     1
 10
0.0
 20
0.0
 30
0.0
  0
VERTEX
  5
202
  8
VISIBLE
  6
CONTINUOUS
 62
     7
 10
26.2179668387
 20
97.2387737325
 30
0.0
  0
VERTEX
  5
203
  8
VISIBLE
  6
CONTINUOUS
 62
     7
 10
26.2178939001
 20
97.2388920418
 30
0.0
  0
VERTEX
  5
204
  8
VISIBLE
  6
CONTINUOUS
 62
     7
 10
26.2178210063
 20
97.2390022592
 30
0.0
  0
VERTEX
  5
205
  8
VISIBLE
  6
CONTINUOUS
 62
     7
 10
26.2177481575
 20
97.2391043845
 30
0.0
  0
VERTEX
  5
206
  8
VISIBLE
  6
CONTINUOUS
 62
     7
 10
26.2176753536
 20
97.2391984177
 30
0.0
  0
VERTEX
  5
207
  8
VISIBLE
  6
CONTINUOUS
 62
     7
 10
26.2176025949
 20
97.2392843587
 30
0.0
  0
VERTEX
  5
208
  8
VISIBLE
  6
CONTINUOUS
 62
     7
 10
26.2175298813
 20
97.2393622076
 30
0.0
  0
VERTEX
  5
209
  8
VISIBLE
  6
CONTINUOUS
 62
     7
 10
26.217457213
 20
97.2394319642
 30
0.0
  0
VERTEX
  5
20A
  8
VISIBLE
  6
CONTINUOUS
 62
     7
 10
26.2173845899
 20
97.2394936285
 30
0.0
  0
VERTEX
  5
20B
  8
VISIBLE
  6
CONTINUOUS
 62
     7
 10
26.2173120121
 20
97.2395472004
 30
0.0
  0
VERTEX
  5
20C
  8
VISIBLE
  6
CONTINUOUS
 62
     7
 10
26.2172394798
 20
97.2395926799
 30
0.0
  0
VERTEX
  5
20D
  8
VISIBLE
  6
CONTINUOUS
 62
     7
 10
26.217166993
 20
97.239630067
 30
0.0
  0
VERTEX
  5
20E
  8
VISIBLE
  6
CONTINUOUS
 62
     7
 10
26.2170945517
 20
97.2396593615
 30
0.0
  0
VERTEX
  5
20F
  8
VISIBLE
  6
CONTINUOUS
 62
     7
 10
26.217022156
 20
97.2396805634
 30
0.0
  0
VERTEX
  5
210
  8
VISIBLE
  6
CONTINUOUS
 62
     7
 10
26.2169498061
 20
97.2396936728
 30
0.0
  0
VERTEX
  5
211
  8
VISIBLE
  6
CONTINUOUS
 62
     7
 10
26.2168775018
 20
97.2396986894
 30
0.0
  0
VERTEX
  5
212
  8
VISIBLE
  6
CONTINUOUS
 62
     7
 10
26.2168052434
 20
97.2396956133
 30
0.0
  0
VERTEX
  5
213
  8
VISIBLE
  6
CONTINUOUS
 62
     7
 10
26.2167330309
 20
97.2396844444
 30
0.0
  0
VERTEX
  5
214
  8
VISIBLE
  6
CONTINUOUS
 62
     7
 10
26.2166608643
 20
97.2396651827
 30
0.0
  0
VERTEX
  5
215
  8
VISIBLE
  6
CONTINUOUS
 62
     7
 10
26.2165887437
 20
97.2396378281
 30
0.0
  0
VERTEX
  5
216
  8
VISIBLE
  6
CONTINUOUS
 62
     7
 10
26.2165166692
 20
97.2396023805
 30
0.0
  0
VERTEX
  5
217
  8
VISIBLE
  6
CONTINUOUS
 62
     7
 10
26.2164446409
 20
97.2395588399
 30
0.0
  0
VERTEX
  5
218
  8
VISIBLE
  6
CONTINUOUS
 62
     7
 10
26.2163726588
 20
97.2395072063
 30
0.0
  0
VERTEX
  5
219
  8
VISIBLE
  6
CONTINUOUS
 62
     7
 10
26.216300723
 20
97.2394474796
 30
0.0
  0
VERTEX
  5
21A
  8
VISIBLE
  6
CONTINUOUS
 62
     7
 10
26.2162288335
 20
97.2393796597
 30
0.0
  0
SEQEND
  5
21B
  8
VISIBLE
  6
CONTINUOUS
 62
     7
  0
LINE
  5
E1
  8
VISIBLE
  6
CONTINUOUS
 62
     7
 10
22.6550176463
 20
95.6461176653
 30
0.0
 11
22.6229668387
 21
95.526502423
 31
0.0
  0
LINE
  5
E2
  8
VISIBLE
  6
CONTINUOUS
 62
     7
 10
22.6229668387
 20
79.7657329075
 30
0.0
 11
22.6550176463
 21
79.6461176653
 31
0.0
  0
LINE
  5
E3
  8
VISIBLE
  6
CONTINUOUS
 62
     7
 10
26.2161856757
 20
97.2393365023
 30
0.0
 11
26.1229668387
 21
97.1461176653
 31
0.0
  0
LINE
  5
E4
  8
VISIBLE
  6
CONTINUOUS
 62
     7
 10
26.1229668387
 20
78.1461176653
 30
0.0
 11
26.4506577219
 21
77.8184267821
 31
0.0
  0
LINE
  5
E5
  8
VISIBLE
  6
CONTINUOUS
 62
     7
 10
26.6229667909
 20
97.6197327585
 30
0.0
 11
26.4029218902
 21
97.2386968345
 31
0.0
  0
ARC
  5
E6
  8
VISIBLE
  6
CONTINUOUS
 62
     7
 10
26.3104668531
 20
97.2935472878
 30
0.0
 40
0.1075014500080012
 50
210.6906436988
 51
329.3082454355
  0
ARC
  5
E7
  8
VISIBLE
  6
CONTINUOUS
 62
     7
 10
26.685466853
 20
77.9986880421
 30
0.0
 40
0.1075014501656064
 50
125.9691886346
 51
149.3093617553
  0
LINE
  5
E8
  8
VISIBLE
  6
CONTINUOUS
 62
     7
 10
26.4557280021
 20
77.8158150511
 30
0.0
 11
26.5929962509
 21
78.0535117761
 31
0.0
  0
LINE
  5
EB
  8
STANDARD
  6
CENTER2
 62
     7
 10
26.0868732597
 20
87.6461176653
 30
0.0
 11
102.1609949544
 21
87.6461176653
 31
0.0
  0
ENDBLK
  5
ED
  8
0
  0
BLOCK
  8
0
  2
SE1
 70
     0
 10
0.0
 20
0.0
 30
0.0
  3
SE1
  1

  0
ARC
  5
F0
  8
VISIBLE
  6
CONTINUOUS
 62
     7
 10
144.2405599818
 20
87.6461176653
 30
0.0
 40
24.375
 50
285.2831719632
 51
307.9798724449
  0
CIRCLE
  5
F1
  8
0
  6
HIDDEN2
 62
     7
 10
144.2405599818
 20
87.6461176653
 30
0.0
 40
17.4625
  0
LINE
  5
F2
  8
VISIBLE
  6
CONTINUOUS
 62
     7
 10
150.6655599818
 20
67.7961176653
 30
0.0
 11
150.6655599818
 21
64.1331425239
 31
0.0
  0
LINE
  5
F3
  8
VISIBLE
  6
CONTINUOUS
 62
     7
 10
149.6655599818
 20
68.7961176653
 30
0.0
 11
150.6655599818
 21
67.7961176653
 31
0.0
  0
LINE
  5
F4
  8
VISIBLE
  6
CONTINUOUS
 62
     7
 10
138.8155599818
 20
68.7961176653
 30
0.0
 11
149.6655599818
 21
68.7961176653
 31
0.0
  0
LINE
  5
F5
  8
VISIBLE
  6
CONTINUOUS
 62
     7
 10
137.8155599818
 20
67.7961176653
 30
0.0
 11
138.8155599818
 21
68.7961176653
 31
0.0
  0
LINE
  5
F6
  8
VISIBLE
  6
CONTINUOUS
 62
     7
 10
137.8155599818
 20
64.1331425239
 30
0.0
 11
137.8155599818
 21
67.7961176653
 31
0.0
  0
ARC
  5
F7
  8
VISIBLE
  6
CONTINUOUS
 62
     7
 10
144.2405599818
 20
87.6461176653
 30
0.0
 40
24.375
 50
105.2831719632
 51
254.7168280368
  0
LINE
  5
F8
  8
VISIBLE
  6
CONTINUOUS
 62
     7
 10
137.8155599818
 20
106.3961176653
 30
0.0
 11
137.8155599818
 21
111.1590928067
 31
0.0
  0
LINE
  5
F9
  8
VISIBLE
  6
CONTINUOUS
 62
     7
 10
138.8155599818
 20
105.3961176653
 30
0.0
 11
137.8155599818
 21
106.3961176653
 31
0.0
  0
LINE
  5
FA
  8
VISIBLE
  6
CONTINUOUS
 62
     7
 10
150.6655599818
 20
106.3961176653
 30
0.0
 11
149.6655599818
 21
105.3961176653
 31
0.0
  0
LINE
  5
FB
  8
VISIBLE
  6
CONTINUOUS
 62
     7
 10
150.6655599818
 20
111.1590928067
 30
0.0
 11
150.6655599818
 21
106.3961176653
 31
0.0
  0
LINE
  5
FC
  8
VISIBLE
  6
CONTINUOUS
 62
     7
 10
149.6655599818
 20
105.3961176653
 30
0.0
 11
138.8155599818
 21
105.3961176653
 31
0.0
  0
ARC
  5
FD
  8
VISIBLE
  6
CONTINUOUS
 62
     7
 10
144.2405599818
 20
87.6461176653
 30
0.0
 40
24.375
 50
322.0201275551
 51
74.7168280368
  0
LINE
  5
FE
  8
VISIBLE
  6
CONTINUOUS
 62
     7
 10
159.2405599818
 20
72.6461176653
 30
0.0
 11
159.2405599818
 21
68.4330849791
 31
0.0
  0
LINE
  5
FF
  8
VISIBLE
  6
CONTINUOUS
 62
     7
 10
163.4535926679
 20
72.6461176653
 30
0.0
 11
159.2405599818
 21
72.6461176653
 31
0.0
  0
CIRCLE
  5
100
  8
VISIBLE
  6
CONTINUOUS
 62
     7
 10
144.2405599818
 20
87.6461176653
 30
0.0
 40
12.49999999999998
  0
CIRCLE
  5
101
  8
VISIBLE
  6
CONTINUOUS
 62
     7
 10
144.2405599818
 20
87.6461176653
 30
0.0
 40
2.0
  0
CIRCLE
  5
102
  8
VISIBLE
  6
CONTINUOUS
 62
     7
 10
144.2405599818
 20
87.6461176653
 30
0.0
 40
4.8
  0
ARC
  5
103
  8
VISIBLE
  6
CONTINUOUS
 62
     7
 10
144.2405599818
 20
87.6461176653
 30
0.0
 40
9.000000000000002
 50
237.2660444507
 51
242.7339555493
  0
CIRCLE
  5
104
  8
VISIBLE
  6
CONTINUOUS
 62
     7
 10
144.2405599818
 20
87.6461176653
 30
0.0
 40
9.5
  0
ARC
  5
105
  8
VISIBLE
  6
CONTINUOUS
 62
     7
 10
144.2405599818
 20
87.6461176653
 30
0.0
 40
9.000000000000002
 50
297.2660444507
 51
302.7339555493
  0
ARC
  5
106
  8
VISIBLE
  6
CONTINUOUS
 62
     7
 10
144.2405599818
 20
87.6461176653
 30
0.0
 40
9.000000000000002
 50
357.2660444507
 51
2.7339555493
  0
ARC
  5
107
  8
VISIBLE
  6
CONTINUOUS
 62
     7
 10
144.2405599818
 20
87.6461176653
 30
0.0
 40
9.000000000000002
 50
57.2660444507
 51
62.7339555493
  0
ARC
  5
108
  8
VISIBLE
  6
CONTINUOUS
 62
     7
 10
144.2405599818
 20
87.6461176653
 30
0.0
 40
9.000000000000002
 50
117.2660444507
 51
122.7339555493
  0
ARC
  5
109
  8
VISIBLE
  6
CONTINUOUS
 62
     7
 10
144.2405599818
 20
87.6461176653
 30
0.0
 40
9.000000000000002
 50
177.2660444507
 51
182.7339555493
  0
LINE
  5
10A
  8
VISIBLE
  6
CONTINUOUS
 62
     7
 10
149.1072103992
 20
95.2168318795
 30
0.0
 11
153.2303160249
 21
88.075403451
 31
0.0
  0
LINE
  5
10B
  8
VISIBLE
  6
CONTINUOUS
 62
     7
 10
153.2303160249
 20
87.2168318795
 30
0.0
 11
149.1072103992
 21
80.075403451
 31
0.0
  0
LINE
  5
10C
  8
VISIBLE
  6
CONTINUOUS
 62
     7
 10
148.3636656074
 20
79.6461176653
 30
0.0
 11
140.1174543562
 21
79.6461176653
 31
0.0
  0
LINE
  5
10D
  8
VISIBLE
  6
CONTINUOUS
 62
     7
 10
139.3739095643
 20
80.075403451
 30
0.0
 11
135.2508039387
 21
87.2168318795
 31
0.0
  0
LINE
  5
10E
  8
VISIBLE
  6
CONTINUOUS
 62
     7
 10
135.2508039387
 20
88.075403451
 30
0.0
 11
139.3739095643
 21
95.2168318795
 31
0.0
  0
LINE
  5
10F
  8
VISIBLE
  6
CONTINUOUS
 62
     7
 10
140.1174543562
 20
95.6461176653
 30
0.0
 11
148.3636656074
 21
95.6461176653
 31
0.0
  0
LINE
  5
110
  8
STANDARD
  6
CENTER2
 62
     7
 10
145.4905599538
 20
87.6461176653
 30
0.0
 11
142.9905600097
 21
87.6461176653
 31
0.0
  0
LINE
  5
111
  8
STANDARD
  6
CENTER2
 62
     7
 10
144.2405599818
 20
88.8961176373
 30
0.0
 11
144.2405599818
 21
86.3961176932
 31
0.0
  0
LINE
  5
112
  8
STANDARD
  6
CENTER2
 62
     7
 10
146.1155599399
 20
87.6461176653
 30
0.0
 11
169.4905599818
 21
87.6461176653
 31
0.0
  0
LINE
  5
113
  8
STANDARD
  6
CENTER2
 62
     7
 10
144.2405599818
 20
89.5211176234
 30
0.0
 11
144.2405599818
 21
112.8961176653
 31
0.0
  0
LINE
  5
114
  8
STANDARD
  6
CENTER2
 62
     7
 10
142.3655600237
 20
87.6461176653
 30
0.0
 11
118.9905599818
 21
87.6461176653
 31
0.0
  0
LINE
  5
115
  8
STANDARD
  6
CENTER2
 62
     7
 10
144.2405599818
 20
85.7711177072
 30
0.0
 11
144.2405599818
 21
62.3961176653
 31
0.0
  0
ENDBLK
  5
117
  8
0
  0
BLOCK
  8
0
  2
GDIMGGROUP
 70
     0
 10
0.0
 20
0.0
 30
0.0
  3
GDIMGGROUP
  1

  0
POLYLINE
  5
11A
  8
DEFAULT
  6
CONTINUOUS
 62
     7
 66
     1
 10
0.0
 20
0.0
 30
0.0
  0
VERTEX
  5
21D
  8
DEFAULT
  6
CONTINUOUS
 62
     7
 10
14.7738144445
 20
97.6461177211
 30
0.0
  0
VERTEX
  5
21E
  8
DEFAULT
  6
CONTINUOUS
 62
     7
 10
15.6071477592
 20
97.6461177211
 30
0.0
  0
VERTEX
  5
21F
  8
DEFAULT
  6
CONTINUOUS
 62
     7
 10
15.1904811018
 20
100.1461176653
 30
0.0
  0
VERTEX
  5
220
  8
DEFAULT
  6
CONTINUOUS
 62
     7
 10
14.7738144445
 20
97.6461177211
 30
0.0
  0
SEQEND
  5
21C
  8
DEFAULT
  6
CONTINUOUS
 62
     7
  0
POLYLINE
  5
11B
  8
DEFAULT
  6
CONTINUOUS
 62
     7
 66
     1
 10
0.0
 20
0.0
 30
0.0
  0
VERTEX
  5
222
  8
DEFAULT
  6
CONTINUOUS
 62
     7
 10
14.7738144445
 20
77.6461172369
 30
0.0
  0
VERTEX
  5
223
  8
DEFAULT
  6
CONTINUOUS
 62
     7
 10
15.6071477592
 20
77.6461172369
 30
0.0
  0
VERTEX
  5
224
  8
DEFAULT
  6
CONTINUOUS
 62
     7
 10
15.1904811018
 20
75.1461172927
 30
0.0
  0
VERTEX
  5
225
  8
DEFAULT
  6
CONTINUOUS
 62
     7
 10
14.7738144445
 20
77.6461172369
 30
0.0
  0
SEQEND
  5
221
  8
DEFAULT
  6
CONTINUOUS
 62
     7
  0
LINE
  5
11C
  8
DEFAULT
  6
CONTINUOUS
 62
     7
 10
27.1229668387
 20
100.1461176653
 30
0.0
 11
13.9404811298
 21
100.1461176653
 31
0.0
  0
LINE
  5
11D
  8
DEFAULT
  6
CONTINUOUS
 62
     7
 10
27.1229668387
 20
75.1461176653
 30
0.0
 11
13.9404811298
 21
75.1461176653
 31
0.0
  0
LINE
  5
11E
  8
DEFAULT
  6
CONTINUOUS
 62
     7
 10
15.1904811018
 20
100.1461176653
 30
0.0
 11
15.1904811018
 21
75.1461172927
 31
0.0
  0
TEXT
  5
11F
  8
DEFAULT
  6
CONTINUOUS
 62
     7
 10
14.5654811018
 20
87.9900343364
 30
0.0
 40
2.5
  1
50
 50
90.0
  7
SEACAD_ARIAL_TTF
 11
12.0654811018
 21
87.9900343364
 31
0.0
 73
     3
  0
TEXT
  5
121
  8
DEFAULT
  6
CONTINUOUS
 62
     7
 10
14.5654811018
 20
83.3891571434
 30
0.0
 40
2.5
  1
O
 50
90.0
  7
SEACAD_SEMECA1_TTF
 11
12.0654811018
 21
83.3891571434
 31
0.0
 73
     3
  0
ENDBLK
  5
123
  8
0
  0
BLOCK
  8
0
  2
GDIMGGROUP1
 70
     0
 10
0.0
 20
0.0
 30
0.0
  3
GDIMGGROUP1
  1

  0
POLYLINE
  5
126
  8
DEFAULT
  6
CONTINUOUS
 62
     7
 66
     1
 10
0.0
 20
0.0
 30
0.0
  0
VERTEX
  5
227
  8
DEFAULT
  6
CONTINUOUS
 62
     7
 10
29.1229667828
 20
53.970077954
 30
0.0
  0
VERTEX
  5
228
  8
DEFAULT
  6
CONTINUOUS
 62
     7
 10
29.1229667828
 20
54.8034112687
 30
0.0
  0
VERTEX
  5
229
  8
DEFAULT
  6
CONTINUOUS
 62
     7
 10
26.6229668387
 20
54.3867446114
 30
0.0
  0
VERTEX
  5
22A
  8
DEFAULT
  6
CONTINUOUS
 62
     7
 10
29.1229667828
 20
53.970077954
 30
0.0
  0
SEQEND
  5
226
  8
DEFAULT
  6
CONTINUOUS
 62
     7
  0
POLYLINE
  5
127
  8
DEFAULT
  6
CONTINUOUS
 62
     7
 66
     1
 10
0.0
 20
0.0
 30
0.0
  0
VERTEX
  5
22C
  8
DEFAULT
  6
CONTINUOUS
 62
     7
 10
44.1229664476
 20
53.970077954
 30
0.0
  0
VERTEX
  5
22D
  8
DEFAULT
  6
CONTINUOUS
 62
     7
 10
44.1229664476
 20
54.8034112687
 30
0.0
  0
VERTEX
  5
22E
  8
DEFAULT
  6
CONTINUOUS
 62
     7
 10
46.6229663917
 20
54.3867446114
 30
0.0
  0
VERTEX
  5
22F
  8
DEFAULT
  6
CONTINUOUS
 62
     7
 10
44.1229664476
 20
53.970077954
 30
0.0
  0
SEQEND
  5
22B
  8
DEFAULT
  6
CONTINUOUS
 62
     7
  0
LINE
  5
128
  8
DEFAULT
  6
CONTINUOUS
 62
     7
 10
26.6229668387
 20
75.6461176653
 30
0.0
 11
26.6229668387
 21
53.1367446393
 31
0.0
  0
LINE
  5
129
  8
DEFAULT
  6
CONTINUOUS
 62
     7
 10
46.6229668387
 20
70.1836176653
 30
0.0
 11
46.6229668387
 21
53.1367446393
 31
0.0
  0
LINE
  5
12A
  8
DEFAULT
  6
CONTINUOUS
 62
     7
 10
26.6229668387
 20
54.3867446114
 30
0.0
 11
46.6229663917
 21
54.3867446114
 31
0.0
  0
TEXT
  5
12B
  8
DEFAULT
  6
CONTINUOUS
 62
     7
 10
34.6664448761
 20
55.0117446114
 30
0.0
 40
2.5
  1
40
  7
SEACAD_ARIAL_TTF
 11
34.6664448761
 21
57.5117446114
 31
0.0
 73
     3
  0
ENDBLK
  5
12D
  8
0
  0
ENDSEC
  0
SECTION
  2
ENTITIES
  0
INSERT
  5
5F
  8
DEFAULT
  2
SEANNOT_GROUP
 10
0.0
 20
0.0
 30
0.0
  0
INSERT
  5
68
  8
DEFAULT
  2
SE
 10
0.0
 20
0.0
 30
0.0
  0
INSERT
  5
EF
  8
DEFAULT
  2
SE1
 10
0.0
 20
0.0
 30
0.0
  0
INSERT
  5
119
  8
DEFAULT
  2
GDIMGGROUP
 10
0.0
 20
0.0
 30
0.0
  0
INSERT
  5
125
  8
DEFAULT
  2
GDIMGGROUP1
 10
0.0
 20
0.0
 30
0.0
  0
ENDSEC
  0
EOF
