  0
SECTION
  2
HEADER
  9
$ACADVER
  1
AC1009
  9
$DWGCODEPAGE
  3
ansi_1252
  9
$INSBASE
 10
0.0
 20
0.0
 30
0.0
  9
$EXTMIN
 10
0.0
 20
0.0
 30
0.0
  9
$EXTMAX
 10
180.0
 20
160.0
 30
0.0
  9
$LIMMIN
 10
0.0
 20
0.0
  9
$LIMMAX
 10
180.0
 20
160.0
  9
$ORTHOMODE
 70
     0
  9
$REGENMODE
 70
     1
  9
$FILLMODE
 70
     1
  9
$QTEXTMODE
 70
     0
  9
$MIRRTEXT
 70
     1
  9
$DRAGMODE
 70
     2
  9
$LTSCALE
 40
1.0
  9
$OSMODE
 70
    37
  9
$ATTMODE
 70
     1
  9
$TEXTSIZE
 40
2.5
  9
$TRACEWID
 40
1.0
  9
$TEXTSTYLE
  7
STANDARD
  9
$CLAYER
  8
0
  9
$CELTYPE
  6
BYLAYER
  9
$CECOLOR
 62
   256
  9
$DIMSCALE
 40
1.0
  9
$DIMASZ
 40
2.5
  9
$DIMEXO
 40
0.625
  9
$DIMDLI
 40
3.75
  9
$DIMRND
 40
0.0
  9
$DIMDLE
 40
0.0
  9
$DIMEXE
 40
1.25
  9
$DIMTP
 40
0.0
  9
$DIMTM
 40
0.0
  9
$DIMTXT
 40
2.5
  9
$DIMCEN
 40
2.5
  9
$DIMTSZ
 40
0.0
  9
$DIMTOL
 70
     0
  9
$DIMLIM
 70
     0
  9
$DIMTIH
 70
     0
  9
$DIMTOH
 70
     0
  9
$DIMSE1
 70
     0
  9
$DIMSE2
 70
     0
  9
$DIMTAD
 70
     1
  9
$DIMZIN
 70
     8
  9
$DIMBLK
  1

  9
$DIMASO
 70
     1
  9
$DIMSHO
 70
     1
  9
$DIMPOST
  1

  9
$DIMAPOST
  1

  9
$DIMALT
 70
     0
  9
$DIMALTD
 70
     3
  9
$DIMALTF
 40
0.0393700787
  9
$DIMLFAC
 40
1.0
  9
$DIMTOFL
 70
     1
  9
$DIMTVP
 40
0.0
  9
$DIMTIX
 70
     0
  9
$DIMSOXD
 70
     0
  9
$DIMSAH
 70
     0
  9
$DIMBLK1
  1

  9
$DIMBLK2
  1

  9
$DIMSTYLE
  2
ISO-25
  9
$DIMCLRD
 70
     0
  9
$DIMCLRE
 70
     0
  9
$DIMCLRT
 70
     0
  9
$DIMTFAC
 40
1.0
  9
$DIMGAP
 40
0.625
  9
$LUNITS
 70
     2
  9
$LUPREC
 70
     4
  9
$SKETCHINC
 40
1.0
  9
$FILLETRAD
 40
10.0
  9
$AUNITS
 70
     0
  9
$AUPREC
 70
     0
  9
$MENU
  1
.
  9
$ELEVATION
 40
0.0
  9
$PELEVATION
 40
0.0
  9
$THICKNESS
 40
0.0
  9
$LIMCHECK
 70
     0
  9
$CHAMFERA
 40
10.0
  9
$CHAMFERB
 40
10.0
  9
$SKPOLY
 70
     0
  9
$TDCREATE
 40
2456136.324080683
  9
$TDUPDATE
 40
2456136.324080694
  9
$TDINDWG
 40
0.0000000116
  9
$TDUSRTIMER
 40
0.0000000116
  9
$USRTIMER
 70
     1
  9
$ANGBASE
 50
0.0
  9
$ANGDIR
 70
     0
  9
$PDMODE
 70
     0
  9
$PDSIZE
 40
0.0
  9
$PLINEWID
 40
0.0
  9
$COORDS
 70
     1
  9
$SPLFRAME
 70
     0
  9
$SPLINETYPE
 70
     6
  9
$SPLINESEGS
 70
     8
  9
$ATTDIA
 70
     0
  9
$ATTREQ
 70
     1
  9
$HANDLING
 70
     1
  9
$HANDSEED
  5
288
  9
$SURFTAB1
 70
     6
  9
$SURFTAB2
 70
     6
  9
$SURFTYPE
 70
     6
  9
$SURFU
 70
     6
  9
$SURFV
 70
     6
  9
$UCSNAME
  2

  9
$UCSORG
 10
0.0
 20
0.0
 30
0.0
  9
$UCSXDIR
 10
1.0
 20
0.0
 30
0.0
  9
$UCSYDIR
 10
0.0
 20
1.0
 30
0.0
  9
$PUCSNAME
  2

  9
$PUCSORG
 10
0.0
 20
0.0
 30
0.0
  9
$PUCSXDIR
 10
1.0
 20
0.0
 30
0.0
  9
$PUCSYDIR
 10
0.0
 20
1.0
 30
0.0
  9
$USERI1
 70
     0
  9
$USERI2
 70
     0
  9
$USERI3
 70
     0
  9
$USERI4
 70
     0
  9
$USERI5
 70
     0
  9
$USERR1
 40
0.0
  9
$USERR2
 40
0.0
  9
$USERR3
 40
0.0
  9
$USERR4
 40
0.0
  9
$USERR5
 40
0.0
  9
$WORLDVIEW
 70
     1
  9
$SHADEDGE
 70
     3
  9
$SHADEDIF
 70
    70
  9
$TILEMODE
 70
     1
  9
$MAXACTVP
 70
    64
  9
$PLIMCHECK
 70
     0
  9
$PEXTMIN
 10
0.0
 20
0.0
 30
0.0
  9
$PEXTMAX
 10
180.0
 20
160.0
 30
0.0
  9
$PLIMMIN
 10
0.0
 20
0.0
  9
$PLIMMAX
 10
180.0
 20
160.0
  9
$UNITMODE
 70
     0
  9
$VISRETAIN
 70
     1
  9
$PLINEGEN
 70
     0
  9
$PSLTSCALE
 70
     1
  0
ENDSEC
  0
SECTION
  2
TABLES
  0
TABLE
  2
VPORT
 70
     1
  0
VPORT
  2
*ACTIVE
 70
     0
 10
0.0
 20
0.0
 11
1.0
 21
1.0
 12
344.1869158879
 22
148.5
 13
0.0
 23
0.0
 14
10.0
 24
10.0
 15
10.0
 25
10.0
 16
0.0
 26
0.0
 36
1.0
 17
0.0
 27
0.0
 37
0.0
 40
297.0
 41
1.9729729729
 42
50.0
 43
0.0
 44
0.0
 50
0.0
 51
0.0
 71
     0
 72
   100
 73
     1
 74
     3
 75
     0
 76
     0
 77
     0
 78
     0
  0
ENDTAB
  0
TABLE
  2
LTYPE
 70
     3
  0
LTYPE
  2
CONTINUOUS
 70
     0
  3
Solid line
 72
    65
 73
     0
 40
0.0
  0
LTYPE
  2
HIDDEN2
 70
     0
  3
Hidden (.5x) _ _ _ _ _ _ _ _ _ _ _ _ _ _ _ _ _ 
 72
    65
 73
     2
 40
4.7625
 49
3.175
 49
-1.5875
  0
LTYPE
  2
CENTER2
 70
     0
  3
Center (.5x) ___ _ ___ _ ___ _ ___ _ ___ _ ___
 72
    65
 73
     4
 40
28.575
 49
19.05
 49
-3.175
 49
3.175
 49
-3.175
  0
ENDTAB
  0
TABLE
  2
LAYER
 70
     5
  0
LAYER
  2
0
 70
     0
 62
     7
  6
CONTINUOUS
  0
LAYER
  2
DEFAULT
 70
     0
 62
     7
  6
CONTINUOUS
  0
LAYER
  2
VISIBLE
 70
     0
 62
     7
  6
CONTINUOUS
  0
LAYER
  2
HIDDEN
 70
     0
 62
     7
  6
CONTINUOUS
  0
LAYER
  2
STANDARD
 70
     0
 62
     7
  6
CONTINUOUS
  0
ENDTAB
  0
TABLE
  2
STYLE
 70
     3
  0
STYLE
  2
STANDARD
 70
     0
 40
0.0
 41
1.0
 50
0.0
 71
     0
 42
2.5
  3
txt
  4

  0
STYLE
  2
SEACAD_ARIAL_TTF
 70
     0
 40
0.0
 41
1.0
 50
0.0
 71
     0
 42
0.2
  3
arial.ttf
  4

  0
STYLE
  2
SEACAD_SEMECA1_TTF
 70
     0
 40
0.0
 41
1.0
 50
0.0
 71
     0
 42
0.2
  3
semeca1.ttf
  4

  0
ENDTAB
  0
TABLE
  2
VIEW
 70
     0
  0
ENDTAB
  0
TABLE
  2
UCS
 70
     0
  0
ENDTAB
  0
TABLE
  2
APPID
 70
     1
  0
APPID
  2
ACAD
 70
     0
  0
ENDTAB
  0
TABLE
  2
DIMSTYLE
 70
     1
  0
DIMSTYLE
  2
ISO-25
 70
     0
  3

  4

  5

  6

  7

 40
1.0
 41
2.5
 42
0.625
 43
3.75
 44
1.25
 45
0.0
 46
0.0
 47
0.0
 48
0.0
140
2.5
141
2.5
142
0.0
143
0.0393700787
144
1.0
145
0.0
146
1.0
147
0.625
 71
     0
 72
     0
 73
     0
 74
     0
 75
     0
 76
     0
 77
     1
 78
     8
170
     0
171
     3
172
     1
173
     0
174
     0
175
     0
176
     0
177
     0
178
     0
  0
ENDTAB
  0
ENDSEC
  0
SECTION
  2
BLOCKS
  0
BLOCK
  8
0
  2
$MODEL_SPACE
 70
     0
 10
0.0
 20
0.0
 30
0.0
  3
$MODEL_SPACE
  1

  0
ENDBLK
  5
21
  8
0
  0
BLOCK
 67
     1
  8
0
  2
$PAPER_SPACE
 70
     0
 10
0.0
 20
0.0
 30
0.0
  3
$PAPER_SPACE
  1

  0
ENDBLK
  5
1D
 67
     1
  8
0
  0
BLOCK
  8
0
  2
SEANNOT_GROUP
 70
     0
 10
0.0
 20
0.0
 30
0.0
  3
SEANNOT_GROUP
  1

  0
POLYLINE
  5
60
  8
DEFAULT
  6
CONTINUOUS
 62
     7
 66
     1
 10
0.0
 20
0.0
 30
0.0
  0
VERTEX
  5
143
  8
DEFAULT
  6
CONTINUOUS
 62
     7
 10
71.7309097535
 20
101.6174279168
 30
0.0
  0
VERTEX
  5
144
  8
DEFAULT
  6
CONTINUOUS
 62
     7
 10
64.8644612819
 20
90.0584201058
 30
0.0
  0
SEQEND
  5
142
  8
DEFAULT
  6
CONTINUOUS
 62
     7
  0
POLYLINE
  5
61
  8
DEFAULT
  6
CONTINUOUS
 62
     7
 66
     1
 10
0.0
 20
0.0
 30
0.0
  0
VERTEX
  5
146
  8
DEFAULT
  6
CONTINUOUS
 62
     7
 10
65.7830320216
 20
92.420588309
 30
0.0
  0
VERTEX
  5
147
  8
DEFAULT
  6
CONTINUOUS
 62
     7
 10
66.4994881556
 20
91.9949887067
 30
0.0
  0
VERTEX
  5
148
  8
DEFAULT
  6
CONTINUOUS
 62
     7
 10
64.8644612819
 20
90.0584201058
 30
0.0
  0
VERTEX
  5
149
  8
DEFAULT
  6
CONTINUOUS
 62
     7
 10
65.7830320216
 20
92.420588309
 30
0.0
  0
SEQEND
  5
145
  8
DEFAULT
  6
CONTINUOUS
 62
     7
  0
LINE
  5
62
  8
DEFAULT
  6
CONTINUOUS
 62
     7
 10
71.7309097535
 20
101.6174279168
 30
0.0
 11
99.3939532318
 21
101.6174279168
 31
0.0
  0
TEXT
  5
64
  8
DEFAULT
  6
CONTINUOUS
 62
     7
 10
71.7309097535
 20
102.2424279168
 30
0.0
 40
2.5
  1
SK40 DIN69871A
  7
SEACAD_ARIAL_TTF
 11
71.7309097535
 21
104.7424279168
 31
0.0
 73
     3
  0
ENDBLK
  5
66
  8
0
  0
BLOCK
  8
0
  2
SE
 70
     0
 10
0.0
 20
0.0
 30
0.0
  3
SE
  1

  0
LINE
  5
6A
  8
VISIBLE
  6
CONTINUOUS
 62
     7
 10
56.2898918365
 20
64.5730959012
 30
0.0
 11
56.2898918365
 21
67.0252378235
 31
0.0
  0
LINE
  5
6B
  8
VISIBLE
  6
CONTINUOUS
 62
     7
 10
53.2780123797
 20
66.0643119289
 30
0.0
 11
53.2780123797
 21
68.8411016403
 31
0.0
  0
LINE
  5
6C
  8
VISIBLE
  6
CONTINUOUS
 62
     7
 10
51.4017712934
 20
66.0643119289
 30
0.0
 11
51.4017712934
 21
68.8411016403
 31
0.0
  0
LINE
  5
6D
  8
VISIBLE
  6
CONTINUOUS
 62
     7
 10
48.3398918365
 20
64.5730959012
 30
0.0
 11
48.3398918365
 21
67.0252378235
 31
0.0
  0
LINE
  5
6E
  8
VISIBLE
  6
CONTINUOUS
 62
     7
 10
57.8898918365
 20
91.054786877
 30
0.0
 11
57.8898918365
 21
68.829786877
 31
0.0
  0
LINE
  5
70
  8
0
  6
HIDDEN2
 62
     7
 10
87.9898918365
 20
84.192286877
 30
0.0
 11
87.9898918365
 21
75.692286877
 31
0.0
  0
LINE
  5
72
  8
HIDDEN
  6
HIDDEN2
 62
     7
 10
87.5144608717
 20
83.401036877
 30
0.0
 11
87.5144608717
 21
76.483536877
 31
0.0
  0
LINE
  5
73
  8
HIDDEN
  6
HIDDEN2
 62
     7
 10
69.5898918365
 20
83.401036877
 30
0.0
 11
69.5898918365
 21
76.483536877
 31
0.0
  0
LINE
  5
74
  8
0
  6
HIDDEN2
 62
     7
 10
91.2238664328
 20
75.692286877
 30
0.0
 11
91.2238664328
 21
84.192286877
 31
0.0
  0
LINE
  5
75
  8
VISIBLE
  6
CONTINUOUS
 62
     7
 10
92.0898918365
 20
74.2358769914
 30
0.0
 11
92.0898918365
 21
85.6486967625
 31
0.0
  0
LINE
  5
76
  8
VISIBLE
  6
CONTINUOUS
 62
     7
 10
48.3398918365
 20
64.5730959012
 30
0.0
 11
50.5717566371
 21
64.5730959012
 31
0.0
  0
LINE
  5
77
  8
VISIBLE
  6
CONTINUOUS
 62
     7
 10
50.5717566371
 20
64.5730959012
 30
0.0
 11
51.4017712934
 21
66.0643119289
 31
0.0
  0
LINE
  5
78
  8
VISIBLE
  6
CONTINUOUS
 62
     7
 10
51.4017712934
 20
66.4681159841
 30
0.0
 11
53.2780123797
 21
66.4681159841
 31
0.0
  0
LINE
  5
79
  8
VISIBLE
  6
CONTINUOUS
 62
     7
 10
53.2780123797
 20
66.0643119289
 30
0.0
 11
54.1080270359
 21
64.5730959012
 31
0.0
  0
LINE
  5
7A
  8
VISIBLE
  6
CONTINUOUS
 62
     7
 10
54.1080270359
 20
64.5730959012
 30
0.0
 11
56.2898918365
 21
64.5730959012
 31
0.0
  0
LINE
  5
7B
  8
VISIBLE
  6
CONTINUOUS
 62
     7
 10
56.2898918365
 20
91.342286877
 30
0.0
 11
56.3372949113
 21
91.342286877
 31
0.0
  0
LINE
  5
7C
  8
HIDDEN
  6
HIDDEN2
 62
     7
 10
54.1080270359
 20
67.383741359
 30
0.0
 11
54.1080270359
 21
67.0252378235
 31
0.0
  0
LINE
  5
7D
  8
HIDDEN
  6
HIDDEN2
 62
     7
 10
50.5717566371
 20
67.383741359
 30
0.0
 11
50.5717566371
 21
67.0252378235
 31
0.0
  0
LINE
  5
7E
  8
VISIBLE
  6
CONTINUOUS
 62
     7
 10
50.5717566371
 20
95.3114778528
 30
0.0
 11
48.3398918365
 21
95.3114778528
 31
0.0
  0
LINE
  5
7F
  8
VISIBLE
  6
CONTINUOUS
 62
     7
 10
56.2898918365
 20
95.3114778528
 30
0.0
 11
54.1080270359
 21
95.3114778528
 31
0.0
  0
POLYLINE
  5
80
  8
VISIBLE
  6
CONTINUOUS
 62
     7
 66
     1
 10
0.0
 20
0.0
 30
0.0
  0
VERTEX
  5
14A
  8
VISIBLE
  6
CONTINUOUS
 62
     7
 10
54.1080270359
 20
95.3114778528
 30
0.0
  0
VERTEX
  5
14B
  8
VISIBLE
  6
CONTINUOUS
 62
     7
 10
54.0733555659
 20
95.2493918885
 30
0.0
  0
VERTEX
  5
14C
  8
VISIBLE
  6
CONTINUOUS
 62
     7
 10
54.0386909943
 20
95.1873021186
 30
0.0
  0
VERTEX
  5
14D
  8
VISIBLE
  6
CONTINUOUS
 62
     7
 10
54.0040334184
 20
95.1252084922
 30
0.0
  0
VERTEX
  5
14E
  8
VISIBLE
  6
CONTINUOUS
 62
     7
 10
53.9693829352
 20
95.0631109587
 30
0.0
  0
VERTEX
  5
14F
  8
VISIBLE
  6
CONTINUOUS
 62
     7
 10
53.9347396421
 20
95.0010094676
 30
0.0
  0
VERTEX
  5
150
  8
VISIBLE
  6
CONTINUOUS
 62
     7
 10
53.900103636
 20
94.9389039681
 30
0.0
  0
VERTEX
  5
151
  8
VISIBLE
  6
CONTINUOUS
 62
     7
 10
53.8654750142
 20
94.8767944097
 30
0.0
  0
VERTEX
  5
152
  8
VISIBLE
  6
CONTINUOUS
 62
     7
 10
53.8308538739
 20
94.8146807417
 30
0.0
  0
VERTEX
  5
153
  8
VISIBLE
  6
CONTINUOUS
 62
     7
 10
53.7962403121
 20
94.7525629134
 30
0.0
  0
VERTEX
  5
154
  8
VISIBLE
  6
CONTINUOUS
 62
     7
 10
53.761634426
 20
94.6904408742
 30
0.0
  0
VERTEX
  5
155
  8
VISIBLE
  6
CONTINUOUS
 62
     7
 10
53.7270363129
 20
94.6283145736
 30
0.0
  0
VERTEX
  5
156
  8
VISIBLE
  6
CONTINUOUS
 62
     7
 10
53.6924460698
 20
94.5661839607
 30
0.0
  0
VERTEX
  5
157
  8
VISIBLE
  6
CONTINUOUS
 62
     7
 10
53.6578637938
 20
94.5040489851
 30
0.0
  0
VERTEX
  5
158
  8
VISIBLE
  6
CONTINUOUS
 62
     7
 10
53.6232895822
 20
94.441909596
 30
0.0
  0
VERTEX
  5
159
  8
VISIBLE
  6
CONTINUOUS
 62
     7
 10
53.5887235322
 20
94.3797657428
 30
0.0
  0
VERTEX
  5
15A
  8
VISIBLE
  6
CONTINUOUS
 62
     7
 10
53.5541657408
 20
94.3176173749
 30
0.0
  0
VERTEX
  5
15B
  8
VISIBLE
  6
CONTINUOUS
 62
     7
 10
53.5196163052
 20
94.2554644417
 30
0.0
  0
VERTEX
  5
15C
  8
VISIBLE
  6
CONTINUOUS
 62
     7
 10
53.4850753225
 20
94.1933068924
 30
0.0
  0
VERTEX
  5
15D
  8
VISIBLE
  6
CONTINUOUS
 62
     7
 10
53.45054289
 20
94.1311446765
 30
0.0
  0
VERTEX
  5
15E
  8
VISIBLE
  6
CONTINUOUS
 62
     7
 10
53.4160191048
 20
94.0689777433
 30
0.0
  0
VERTEX
  5
15F
  8
VISIBLE
  6
CONTINUOUS
 62
     7
 10
53.381504064
 20
94.0068060423
 30
0.0
  0
VERTEX
  5
160
  8
VISIBLE
  6
CONTINUOUS
 62
     7
 10
53.3469978648
 20
93.9446295226
 30
0.0
  0
VERTEX
  5
161
  8
VISIBLE
  6
CONTINUOUS
 62
     7
 10
53.3125006043
 20
93.8824481337
 30
0.0
  0
VERTEX
  5
162
  8
VISIBLE
  6
CONTINUOUS
 62
     7
 10
53.2780123797
 20
93.8202618251
 30
0.0
  0
SEQEND
  5
163
  8
VISIBLE
  6
CONTINUOUS
 62
     7
  0
LINE
  5
81
  8
VISIBLE
  6
CONTINUOUS
 62
     7
 10
53.2780123797
 20
93.4164577698
 30
0.0
 11
51.4017712934
 21
93.4164577698
 31
0.0
  0
POLYLINE
  5
82
  8
VISIBLE
  6
CONTINUOUS
 62
     7
 66
     1
 10
0.0
 20
0.0
 30
0.0
  0
VERTEX
  5
164
  8
VISIBLE
  6
CONTINUOUS
 62
     7
 10
51.4017712934
 20
93.8202618251
 30
0.0
  0
VERTEX
  5
165
  8
VISIBLE
  6
CONTINUOUS
 62
     7
 10
51.3672830688
 20
93.8824481337
 30
0.0
  0
VERTEX
  5
166
  8
VISIBLE
  6
CONTINUOUS
 62
     7
 10
51.3327858083
 20
93.9446295226
 30
0.0
  0
VERTEX
  5
167
  8
VISIBLE
  6
CONTINUOUS
 62
     7
 10
51.2982796091
 20
94.0068060423
 30
0.0
  0
VERTEX
  5
168
  8
VISIBLE
  6
CONTINUOUS
 62
     7
 10
51.2637645683
 20
94.0689777433
 30
0.0
  0
VERTEX
  5
169
  8
VISIBLE
  6
CONTINUOUS
 62
     7
 10
51.2292407831
 20
94.1311446765
 30
0.0
  0
VERTEX
  5
16A
  8
VISIBLE
  6
CONTINUOUS
 62
     7
 10
51.1947083506
 20
94.1933068924
 30
0.0
  0
VERTEX
  5
16B
  8
VISIBLE
  6
CONTINUOUS
 62
     7
 10
51.1601673679
 20
94.2554644417
 30
0.0
  0
VERTEX
  5
16C
  8
VISIBLE
  6
CONTINUOUS
 62
     7
 10
51.1256179323
 20
94.3176173749
 30
0.0
  0
VERTEX
  5
16D
  8
VISIBLE
  6
CONTINUOUS
 62
     7
 10
51.0910601409
 20
94.3797657428
 30
0.0
  0
VERTEX
  5
16E
  8
VISIBLE
  6
CONTINUOUS
 62
     7
 10
51.0564940908
 20
94.441909596
 30
0.0
  0
VERTEX
  5
16F
  8
VISIBLE
  6
CONTINUOUS
 62
     7
 10
51.0219198793
 20
94.5040489851
 30
0.0
  0
VERTEX
  5
170
  8
VISIBLE
  6
CONTINUOUS
 62
     7
 10
50.9873376033
 20
94.5661839607
 30
0.0
  0
VERTEX
  5
171
  8
VISIBLE
  6
CONTINUOUS
 62
     7
 10
50.9527473602
 20
94.6283145736
 30
0.0
  0
VERTEX
  5
172
  8
VISIBLE
  6
CONTINUOUS
 62
     7
 10
50.918149247
 20
94.6904408742
 30
0.0
  0
VERTEX
  5
173
  8
VISIBLE
  6
CONTINUOUS
 62
     7
 10
50.883543361
 20
94.7525629134
 30
0.0
  0
VERTEX
  5
174
  8
VISIBLE
  6
CONTINUOUS
 62
     7
 10
50.8489297992
 20
94.8146807417
 30
0.0
  0
VERTEX
  5
175
  8
VISIBLE
  6
CONTINUOUS
 62
     7
 10
50.8143086588
 20
94.8767944097
 30
0.0
  0
VERTEX
  5
176
  8
VISIBLE
  6
CONTINUOUS
 62
     7
 10
50.7796800371
 20
94.9389039681
 30
0.0
  0
VERTEX
  5
177
  8
VISIBLE
  6
CONTINUOUS
 62
     7
 10
50.745044031
 20
95.0010094676
 30
0.0
  0
VERTEX
  5
178
  8
VISIBLE
  6
CONTINUOUS
 62
     7
 10
50.7104007378
 20
95.0631109587
 30
0.0
  0
VERTEX
  5
179
  8
VISIBLE
  6
CONTINUOUS
 62
     7
 10
50.6757502547
 20
95.1252084922
 30
0.0
  0
VERTEX
  5
17A
  8
VISIBLE
  6
CONTINUOUS
 62
     7
 10
50.6410926788
 20
95.1873021186
 30
0.0
  0
VERTEX
  5
17B
  8
VISIBLE
  6
CONTINUOUS
 62
     7
 10
50.6064281072
 20
95.2493918885
 30
0.0
  0
VERTEX
  5
17C
  8
VISIBLE
  6
CONTINUOUS
 62
     7
 10
50.5717566371
 20
95.3114778528
 30
0.0
  0
SEQEND
  5
17D
  8
VISIBLE
  6
CONTINUOUS
 62
     7
  0
LINE
  5
83
  8
VISIBLE
  6
CONTINUOUS
 62
     7
 10
56.2898918365
 20
70.692286877
 30
0.0
 11
56.2898918365
 21
95.3114778528
 31
0.0
  0
LINE
  5
84
  8
VISIBLE
  6
CONTINUOUS
 62
     7
 10
56.2898918365
 20
67.0252378235
 30
0.0
 11
56.2898918365
 21
70.692286877
 31
0.0
  0
LINE
  5
85
  8
VISIBLE
  6
CONTINUOUS
 62
     7
 10
53.2780123797
 20
70.692286877
 30
0.0
 11
53.2780123797
 21
93.8202618251
 31
0.0
  0
LINE
  5
86
  8
VISIBLE
  6
CONTINUOUS
 62
     7
 10
51.4017712934
 20
70.692286877
 30
0.0
 11
51.4017712934
 21
93.8202618251
 31
0.0
  0
LINE
  5
87
  8
VISIBLE
  6
CONTINUOUS
 62
     7
 10
48.3398918365
 20
70.692286877
 30
0.0
 11
48.3398918365
 21
95.3114778528
 31
0.0
  0
LINE
  5
88
  8
VISIBLE
  6
CONTINUOUS
 62
     7
 10
48.3398918365
 20
70.692286877
 30
0.0
 11
48.3398918365
 21
67.0252378235
 31
0.0
  0
LINE
  5
89
  8
VISIBLE
  6
CONTINUOUS
 62
     7
 10
48.3398918365
 20
67.0252378235
 30
0.0
 11
50.5717566371
 21
67.0252378235
 31
0.0
  0
POLYLINE
  5
8A
  8
VISIBLE
  6
CONTINUOUS
 62
     7
 66
     1
 10
0.0
 20
0.0
 30
0.0
  0
VERTEX
  5
17E
  8
VISIBLE
  6
CONTINUOUS
 62
     7
 10
50.5717566371
 20
67.0252378235
 30
0.0
  0
VERTEX
  5
17F
  8
VISIBLE
  6
CONTINUOUS
 62
     7
 10
50.6070739456
 20
67.100550451
 30
0.0
  0
VERTEX
  5
180
  8
VISIBLE
  6
CONTINUOUS
 62
     7
 10
50.6423361272
 20
67.1758952729
 30
0.0
  0
VERTEX
  5
181
  8
VISIBLE
  6
CONTINUOUS
 62
     7
 10
50.6775420033
 20
67.2512720297
 30
0.0
  0
VERTEX
  5
182
  8
VISIBLE
  6
CONTINUOUS
 62
     7
 10
50.7126903952
 20
67.3266804623
 30
0.0
  0
VERTEX
  5
183
  8
VISIBLE
  6
CONTINUOUS
 62
     7
 10
50.747780124
 20
67.4021203111
 30
0.0
  0
VERTEX
  5
184
  8
VISIBLE
  6
CONTINUOUS
 62
     7
 10
50.7828100111
 20
67.4775913171
 30
0.0
  0
VERTEX
  5
185
  8
VISIBLE
  6
CONTINUOUS
 62
     7
 10
50.8177788777
 20
67.5530932207
 30
0.0
  0
VERTEX
  5
186
  8
VISIBLE
  6
CONTINUOUS
 62
     7
 10
50.8526855452
 20
67.6286257626
 30
0.0
  0
VERTEX
  5
187
  8
VISIBLE
  6
CONTINUOUS
 62
     7
 10
50.8875288347
 20
67.7041886836
 30
0.0
  0
VERTEX
  5
188
  8
VISIBLE
  6
CONTINUOUS
 62
     7
 10
50.9223075676
 20
67.7797817244
 30
0.0
  0
VERTEX
  5
189
  8
VISIBLE
  6
CONTINUOUS
 62
     7
 10
50.9570205651
 20
67.8554046255
 30
0.0
  0
VERTEX
  5
18A
  8
VISIBLE
  6
CONTINUOUS
 62
     7
 10
50.9916666486
 20
67.9310571276
 30
0.0
  0
VERTEX
  5
18B
  8
VISIBLE
  6
CONTINUOUS
 62
     7
 10
51.0262446392
 20
68.0067389715
 30
0.0
  0
VERTEX
  5
18C
  8
VISIBLE
  6
CONTINUOUS
 62
     7
 10
51.0607533582
 20
68.0824498978
 30
0.0
  0
VERTEX
  5
18D
  8
VISIBLE
  6
CONTINUOUS
 62
     7
 10
51.095191627
 20
68.1581896471
 30
0.0
  0
VERTEX
  5
18E
  8
VISIBLE
  6
CONTINUOUS
 62
     7
 10
51.1295582668
 20
68.2339579602
 30
0.0
  0
VERTEX
  5
18F
  8
VISIBLE
  6
CONTINUOUS
 62
     7
 10
51.1638520988
 20
68.3097545777
 30
0.0
  0
VERTEX
  5
190
  8
VISIBLE
  6
CONTINUOUS
 62
     7
 10
51.1980719444
 20
68.3855792403
 30
0.0
  0
VERTEX
  5
191
  8
VISIBLE
  6
CONTINUOUS
 62
     7
 10
51.2322166248
 20
68.4614316887
 30
0.0
  0
VERTEX
  5
192
  8
VISIBLE
  6
CONTINUOUS
 62
     7
 10
51.2662849613
 20
68.5373116635
 30
0.0
  0
VERTEX
  5
193
  8
VISIBLE
  6
CONTINUOUS
 62
     7
 10
51.3002757751
 20
68.6132189053
 30
0.0
  0
VERTEX
  5
194
  8
VISIBLE
  6
CONTINUOUS
 62
     7
 10
51.3341878875
 20
68.689153155
 30
0.0
  0
VERTEX
  5
195
  8
VISIBLE
  6
CONTINUOUS
 62
     7
 10
51.3680201199
 20
68.7651141531
 30
0.0
  0
VERTEX
  5
196
  8
VISIBLE
  6
CONTINUOUS
 62
     7
 10
51.4017712934
 20
68.8411016403
 30
0.0
  0
SEQEND
  5
197
  8
VISIBLE
  6
CONTINUOUS
 62
     7
  0
LINE
  5
8B
  8
VISIBLE
  6
CONTINUOUS
 62
     7
 10
51.4017712934
 20
68.8411016403
 30
0.0
 11
51.4017712934
 21
69.3502423978
 31
0.0
  0
LINE
  5
8C
  8
VISIBLE
  6
CONTINUOUS
 62
     7
 10
51.4017712934
 20
69.3502423978
 30
0.0
 11
53.2780123797
 21
69.3502423978
 31
0.0
  0
LINE
  5
8D
  8
VISIBLE
  6
CONTINUOUS
 62
     7
 10
53.2780123797
 20
69.3502423978
 30
0.0
 11
53.2780123797
 21
68.8411016403
 31
0.0
  0
POLYLINE
  5
8E
  8
VISIBLE
  6
CONTINUOUS
 62
     7
 66
     1
 10
0.0
 20
0.0
 30
0.0
  0
VERTEX
  5
198
  8
VISIBLE
  6
CONTINUOUS
 62
     7
 10
53.2780123797
 20
68.8411016403
 30
0.0
  0
VERTEX
  5
199
  8
VISIBLE
  6
CONTINUOUS
 62
     7
 10
53.3117826227
 20
68.7650711782
 30
0.0
  0
VERTEX
  5
19A
  8
VISIBLE
  6
CONTINUOUS
 62
     7
 10
53.3456309646
 20
68.6890739107
 30
0.0
  0
VERTEX
  5
19B
  8
VISIBLE
  6
CONTINUOUS
 62
     7
 10
53.3795564042
 20
68.6131096922
 30
0.0
  0
VERTEX
  5
19C
  8
VISIBLE
  6
CONTINUOUS
 62
     7
 10
53.4135579403
 20
68.5371783775
 30
0.0
  0
VERTEX
  5
19D
  8
VISIBLE
  6
CONTINUOUS
 62
     7
 10
53.4476345716
 20
68.4612798209
 30
0.0
  0
VERTEX
  5
19E
  8
VISIBLE
  6
CONTINUOUS
 62
     7
 10
53.481785297
 20
68.385413877
 30
0.0
  0
VERTEX
  5
19F
  8
VISIBLE
  6
CONTINUOUS
 62
     7
 10
53.5160091152
 20
68.3095804004
 30
0.0
  0
VERTEX
  5
1A0
  8
VISIBLE
  6
CONTINUOUS
 62
     7
 10
53.550305025
 20
68.2337792455
 30
0.0
  0
VERTEX
  5
1A1
  8
VISIBLE
  6
CONTINUOUS
 62
     7
 10
53.5846720251
 20
68.1580102669
 30
0.0
  0
VERTEX
  5
1A2
  8
VISIBLE
  6
CONTINUOUS
 62
     7
 10
53.6191091143
 20
68.0822733192
 30
0.0
  0
VERTEX
  5
1A3
  8
VISIBLE
  6
CONTINUOUS
 62
     7
 10
53.6536152915
 20
68.0065682568
 30
0.0
  0
VERTEX
  5
1A4
  8
VISIBLE
  6
CONTINUOUS
 62
     7
 10
53.6881895553
 20
67.9308949343
 30
0.0
  0
VERTEX
  5
1A5
  8
VISIBLE
  6
CONTINUOUS
 62
     7
 10
53.7228309046
 20
67.8552532061
 30
0.0
  0
VERTEX
  5
1A6
  8
VISIBLE
  6
CONTINUOUS
 62
     7
 10
53.7575383381
 20
67.779642927
 30
0.0
  0
VERTEX
  5
1A7
  8
VISIBLE
  6
CONTINUOUS
 62
     7
 10
53.7923108546
 20
67.7040639513
 30
0.0
  0
VERTEX
  5
1A8
  8
VISIBLE
  6
CONTINUOUS
 62
     7
 10
53.8271474529
 20
67.6285161336
 30
0.0
  0
VERTEX
  5
1A9
  8
VISIBLE
  6
CONTINUOUS
 62
     7
 10
53.8620471317
 20
67.5529993284
 30
0.0
  0
VERTEX
  5
1AA
  8
VISIBLE
  6
CONTINUOUS
 62
     7
 10
53.8970088899
 20
67.4775133903
 30
0.0
  0
VERTEX
  5
1AB
  8
VISIBLE
  6
CONTINUOUS
 62
     7
 10
53.9320317261
 20
67.4020581738
 30
0.0
  0
VERTEX
  5
1AC
  8
VISIBLE
  6
CONTINUOUS
 62
     7
 10
53.9671146392
 20
67.3266335334
 30
0.0
  0
VERTEX
  5
1AD
  8
VISIBLE
  6
CONTINUOUS
 62
     7
 10
54.002256628
 20
67.2512393236
 30
0.0
  0
VERTEX
  5
1AE
  8
VISIBLE
  6
CONTINUOUS
 62
     7
 10
54.0374566912
 20
67.175875399
 30
0.0
  0
VERTEX
  5
1AF
  8
VISIBLE
  6
CONTINUOUS
 62
     7
 10
54.0727138276
 20
67.1005416142
 30
0.0
  0
VERTEX
  5
1B0
  8
VISIBLE
  6
CONTINUOUS
 62
     7
 10
54.1080270359
 20
67.0252378235
 30
0.0
  0
SEQEND
  5
1B1
  8
VISIBLE
  6
CONTINUOUS
 62
     7
  0
LINE
  5
8F
  8
VISIBLE
  6
CONTINUOUS
 62
     7
 10
54.1080270359
 20
67.0252378235
 30
0.0
 11
56.2898918365
 21
67.0252378235
 31
0.0
  0
LINE
  5
90
  8
VISIBLE
  6
CONTINUOUS
 62
     7
 10
50.5717566371
 20
70.692286877
 30
0.0
 11
48.3398918365
 21
70.692286877
 31
0.0
  0
LINE
  5
91
  8
VISIBLE
  6
CONTINUOUS
 62
     7
 10
56.2898918365
 20
70.692286877
 30
0.0
 11
54.1080270359
 21
70.692286877
 31
0.0
  0
LINE
  5
92
  8
VISIBLE
  6
CONTINUOUS
 62
     7
 10
54.1080270359
 20
70.692286877
 30
0.0
 11
53.2780123797
 21
70.692286877
 31
0.0
  0
LINE
  5
93
  8
VISIBLE
  6
CONTINUOUS
 62
     7
 10
53.2780123797
 20
70.692286877
 30
0.0
 11
51.4017712934
 21
70.692286877
 31
0.0
  0
LINE
  5
94
  8
VISIBLE
  6
CONTINUOUS
 62
     7
 10
51.4017712934
 20
70.692286877
 30
0.0
 11
50.5717566371
 21
70.692286877
 31
0.0
  0
LINE
  5
95
  8
VISIBLE
  6
CONTINUOUS
 62
     7
 10
37.8898918365
 20
91.942286877
 30
0.0
 11
37.8898918365
 21
67.942286877
 31
0.0
  0
LINE
  5
96
  8
0
  6
HIDDEN2
 62
     7
 10
53.3679866872
 20
75.1850324127
 30
0.0
 11
53.1901024687
 21
75.1422868829
 31
0.0
  0
LINE
  5
97
  8
0
  6
HIDDEN2
 62
     7
 10
53.3679866872
 20
75.1850324127
 30
0.0
 11
53.4850621771
 21
75.1850324127
 31
0.0
  0
LINE
  5
98
  8
0
  6
HIDDEN2
 62
     7
 10
53.701568528
 20
84.842286877
 30
0.0
 11
53.701568528
 21
75.042286877
 31
0.0
  0
POLYLINE
  5
99
  8
0
  6
HIDDEN2
 62
     7
 66
     1
 10
0.0
 20
0.0
 30
0.0
  0
VERTEX
  5
1B2
  8
0
  6
HIDDEN2
 62
     7
 10
53.4850621771
 20
75.1850324127
 30
0.0
  0
VERTEX
  5
1B3
  8
0
  6
HIDDEN2
 62
     7
 10
53.4871902071
 20
75.1829369729
 30
0.0
  0
VERTEX
  5
1B4
  8
0
  6
HIDDEN2
 62
     7
 10
53.4892651185
 20
75.1808934346
 30
0.0
  0
VERTEX
  5
1B5
  8
0
  6
HIDDEN2
 62
     7
 10
53.4912868721
 20
75.1789018576
 30
0.0
  0
VERTEX
  5
1B6
  8
0
  6
HIDDEN2
 62
     7
 10
53.4932554287
 20
75.1769623013
 30
0.0
  0
VERTEX
  5
1B7
  8
0
  6
HIDDEN2
 62
     7
 10
53.4951707492
 20
75.1750748254
 30
0.0
  0
VERTEX
  5
1B8
  8
0
  6
HIDDEN2
 62
     7
 10
53.4970327941
 20
75.1732394895
 30
0.0
  0
VERTEX
  5
1B9
  8
0
  6
HIDDEN2
 62
     7
 10
53.4988415245
 20
75.1714563531
 30
0.0
  0
VERTEX
  5
1BA
  8
0
  6
HIDDEN2
 62
     7
 10
53.5005969009
 20
75.169725476
 30
0.0
  0
VERTEX
  5
1BB
  8
0
  6
HIDDEN2
 62
     7
 10
53.5022988843
 20
75.1680469176
 30
0.0
  0
VERTEX
  5
1BC
  8
0
  6
HIDDEN2
 62
     7
 10
53.5039474354
 20
75.1664207375
 30
0.0
  0
VERTEX
  5
1BD
  8
0
  6
HIDDEN2
 62
     7
 10
53.505542515
 20
75.1648469954
 30
0.0
  0
VERTEX
  5
1BE
  8
0
  6
HIDDEN2
 62
     7
 10
53.5070840839
 20
75.1633257509
 30
0.0
  0
VERTEX
  5
1BF
  8
0
  6
HIDDEN2
 62
     7
 10
53.5085721029
 20
75.1618570635
 30
0.0
  0
VERTEX
  5
1C0
  8
0
  6
HIDDEN2
 62
     7
 10
53.5100065327
 20
75.1604409929
 30
0.0
  0
VERTEX
  5
1C1
  8
0
  6
HIDDEN2
 62
     7
 10
53.5113873342
 20
75.1590775986
 30
0.0
  0
VERTEX
  5
1C2
  8
0
  6
HIDDEN2
 62
     7
 10
53.512714468
 20
75.1577669402
 30
0.0
  0
VERTEX
  5
1C3
  8
0
  6
HIDDEN2
 62
     7
 10
53.5139878951
 20
75.1565090774
 30
0.0
  0
VERTEX
  5
1C4
  8
0
  6
HIDDEN2
 62
     7
 10
53.5152075762
 20
75.1553040697
 30
0.0
  0
VERTEX
  5
1C5
  8
0
  6
HIDDEN2
 62
     7
 10
53.5163734721
 20
75.1541519768
 30
0.0
  0
VERTEX
  5
1C6
  8
0
  6
HIDDEN2
 62
     7
 10
53.5174855435
 20
75.1530528581
 30
0.0
  0
VERTEX
  5
1C7
  8
0
  6
HIDDEN2
 62
     7
 10
53.5185437513
 20
75.1520067734
 30
0.0
  0
VERTEX
  5
1C8
  8
0
  6
HIDDEN2
 62
     7
 10
53.5195480563
 20
75.1510137822
 30
0.0
  0
VERTEX
  5
1C9
  8
0
  6
HIDDEN2
 62
     7
 10
53.5204984192
 20
75.1500739442
 30
0.0
  0
VERTEX
  5
1CA
  8
0
  6
HIDDEN2
 62
     7
 10
53.5213948007
 20
75.1491873188
 30
0.0
  0
VERTEX
  5
1CB
  8
0
  6
HIDDEN2
 62
     7
 10
53.5222371618
 20
75.1483539658
 30
0.0
  0
VERTEX
  5
1CC
  8
0
  6
HIDDEN2
 62
     7
 10
53.5230254632
 20
75.1475739446
 30
0.0
  0
VERTEX
  5
1CD
  8
0
  6
HIDDEN2
 62
     7
 10
53.5237596656
 20
75.146847315
 30
0.0
  0
VERTEX
  5
1CE
  8
0
  6
HIDDEN2
 62
     7
 10
53.5244397299
 20
75.1461741365
 30
0.0
  0
VERTEX
  5
1CF
  8
0
  6
HIDDEN2
 62
     7
 10
53.5250656169
 20
75.1455544686
 30
0.0
  0
VERTEX
  5
1D0
  8
0
  6
HIDDEN2
 62
     7
 10
53.5256372872
 20
75.1449883711
 30
0.0
  0
VERTEX
  5
1D1
  8
0
  6
HIDDEN2
 62
     7
 10
53.5261547018
 20
75.1444759034
 30
0.0
  0
VERTEX
  5
1D2
  8
0
  6
HIDDEN2
 62
     7
 10
53.5266178214
 20
75.1440171252
 30
0.0
  0
VERTEX
  5
1D3
  8
0
  6
HIDDEN2
 62
     7
 10
53.5270266068
 20
75.1436120961
 30
0.0
  0
VERTEX
  5
1D4
  8
0
  6
HIDDEN2
 62
     7
 10
53.5273810187
 20
75.1432608757
 30
0.0
  0
VERTEX
  5
1D5
  8
0
  6
HIDDEN2
 62
     7
 10
53.527681018
 20
75.1429635236
 30
0.0
  0
VERTEX
  5
1D6
  8
0
  6
HIDDEN2
 62
     7
 10
53.5279265655
 20
75.1427200993
 30
0.0
  0
VERTEX
  5
1D7
  8
0
  6
HIDDEN2
 62
     7
 10
53.5281176219
 20
75.1425306625
 30
0.0
  0
VERTEX
  5
1D8
  8
0
  6
HIDDEN2
 62
     7
 10
53.528254148
 20
75.1423952727
 30
0.0
  0
VERTEX
  5
1D9
  8
0
  6
HIDDEN2
 62
     7
 10
53.5283361046
 20
75.1423139896
 30
0.0
  0
VERTEX
  5
1DA
  8
0
  6
HIDDEN2
 62
     7
 10
53.5283634412
 20
75.1422868832
 30
0.0
  0
SEQEND
  5
1DB
  8
0
  6
HIDDEN2
 62
     7
  0
LINE
  5
9A
  8
0
  6
HIDDEN2
 62
     7
 10
61.8898918365
 20
75.417286877
 30
0.0
 11
61.8898918365
 21
80.7786323624
 31
0.0
  0
LINE
  5
9B
  8
0
  6
HIDDEN2
 62
     7
 10
41.8398918365
 20
89.992286877
 30
0.0
 11
41.8398918365
 21
69.892286877
 31
0.0
  0
LINE
  5
9C
  8
0
  6
HIDDEN2
 62
     7
 10
42.5898918365
 20
89.742286877
 30
0.0
 11
42.5898918365
 21
70.142286877
 31
0.0
  0
LINE
  5
9D
  8
0
  6
HIDDEN2
 62
     7
 10
54.451568528
 20
84.842286877
 30
0.0
 11
54.451568528
 21
75.042286877
 31
0.0
  0
LINE
  5
9E
  8
0
  6
HIDDEN2
 62
     7
 10
68.5101453041
 20
81.604036877
 30
0.0
 11
68.5101453041
 21
78.280536877
 31
0.0
  0
LINE
  5
9F
  8
0
  6
HIDDEN2
 62
     7
 10
63.4450693337
 20
78.280536877
 30
0.0
 11
63.4450693337
 21
81.604036877
 31
0.0
  0
POLYLINE
  5
A0
  8
VISIBLE
  6
CONTINUOUS
 62
     7
 66
     1
 10
0.0
 20
0.0
 30
0.0
  0
VERTEX
  5
1DC
  8
VISIBLE
  6
CONTINUOUS
 62
     7
 10
44.3148918376
 20
92.4422868738
 30
0.0
  0
VERTEX
  5
1DD
  8
VISIBLE
  6
CONTINUOUS
 62
     7
 10
44.3168932936
 20
92.4415851326
 30
0.0
  0
VERTEX
  5
1DE
  8
VISIBLE
  6
CONTINUOUS
 62
     7
 10
44.3228690162
 20
92.439513113
 30
0.0
  0
VERTEX
  5
1DF
  8
VISIBLE
  6
CONTINUOUS
 62
     7
 10
44.3327770927
 20
92.4361177709
 30
0.0
  0
VERTEX
  5
1E0
  8
VISIBLE
  6
CONTINUOUS
 62
     7
 10
44.3465756104
 20
92.431446062
 30
0.0
  0
VERTEX
  5
1E1
  8
VISIBLE
  6
CONTINUOUS
 62
     7
 10
44.3642226565
 20
92.4255449423
 30
0.0
  0
VERTEX
  5
1E2
  8
VISIBLE
  6
CONTINUOUS
 62
     7
 10
44.3856763184
 20
92.4184613676
 30
0.0
  0
VERTEX
  5
1E3
  8
VISIBLE
  6
CONTINUOUS
 62
     7
 10
44.4108946832
 20
92.4102422937
 30
0.0
  0
VERTEX
  5
1E4
  8
VISIBLE
  6
CONTINUOUS
 62
     7
 10
44.4398358384
 20
92.4009346765
 30
0.0
  0
VERTEX
  5
1E5
  8
VISIBLE
  6
CONTINUOUS
 62
     7
 10
44.4724578711
 20
92.3905854718
 30
0.0
  0
VERTEX
  5
1E6
  8
VISIBLE
  6
CONTINUOUS
 62
     7
 10
44.5087188686
 20
92.3792416355
 30
0.0
  0
VERTEX
  5
1E7
  8
VISIBLE
  6
CONTINUOUS
 62
     7
 10
44.5485769182
 20
92.3669501233
 30
0.0
  0
VERTEX
  5
1E8
  8
VISIBLE
  6
CONTINUOUS
 62
     7
 10
44.5919901073
 20
92.3537578913
 30
0.0
  0
VERTEX
  5
1E9
  8
VISIBLE
  6
CONTINUOUS
 62
     7
 10
44.638916523
 20
92.3397118951
 30
0.0
  0
VERTEX
  5
1EA
  8
VISIBLE
  6
CONTINUOUS
 62
     7
 10
44.6893142527
 20
92.3248590906
 30
0.0
  0
VERTEX
  5
1EB
  8
VISIBLE
  6
CONTINUOUS
 62
     7
 10
44.7431413836
 20
92.3092464337
 30
0.0
  0
VERTEX
  5
1EC
  8
VISIBLE
  6
CONTINUOUS
 62
     7
 10
44.8003560031
 20
92.2929208803
 30
0.0
  0
VERTEX
  5
1ED
  8
VISIBLE
  6
CONTINUOUS
 62
     7
 10
44.8609161983
 20
92.2759293861
 30
0.0
  0
VERTEX
  5
1EE
  8
VISIBLE
  6
CONTINUOUS
 62
     7
 10
44.9247800566
 20
92.258318907
 30
0.0
  0
VERTEX
  5
1EF
  8
VISIBLE
  6
CONTINUOUS
 62
     7
 10
44.9919056653
 20
92.2401363989
 30
0.0
  0
VERTEX
  5
1F0
  8
VISIBLE
  6
CONTINUOUS
 62
     7
 10
45.0622511116
 20
92.2214288175
 30
0.0
  0
VERTEX
  5
1F1
  8
VISIBLE
  6
CONTINUOUS
 62
     7
 10
45.1357744828
 20
92.2022431188
 30
0.0
  0
VERTEX
  5
1F2
  8
VISIBLE
  6
CONTINUOUS
 62
     7
 10
45.2124338662
 20
92.1826262586
 30
0.0
  0
VERTEX
  5
1F3
  8
VISIBLE
  6
CONTINUOUS
 62
     7
 10
45.2921873491
 20
92.1626251927
 30
0.0
  0
VERTEX
  5
1F4
  8
VISIBLE
  6
CONTINUOUS
 62
     7
 10
45.3749930187
 20
92.142286877
 30
0.0
  0
SEQEND
  5
1F5
  8
VISIBLE
  6
CONTINUOUS
 62
     7
  0
ARC
  5
A1
  8
VISIBLE
  6
CONTINUOUS
 62
     7
 10
48.3954173655
 20
108.4773154247
 30
0.0
 40
16.6119270672821
 50
259.5240588477
 51
268.0835935736
  0
LINE
  5
A2
  8
HIDDEN
  6
HIDDEN2
 62
     7
 10
61.8898918365
 20
82.1247847843
 30
0.0
 11
61.8898918365
 21
80.7786323624
 31
0.0
  0
LINE
  5
A3
  8
HIDDEN
  6
HIDDEN2
 62
     7
 10
61.8898918365
 20
84.467286877
 30
0.0
 11
61.8898918365
 21
82.1601102991
 31
0.0
  0
ARC
  5
A4
  8
VISIBLE
  6
CONTINUOUS
 62
     7
 10
47.8812752698
 20
92.3581165428
 30
0.0
 40
0.4852048518146941
 50
265.107261888
 51
333.5975168914
  0
LINE
  5
A5
  8
VISIBLE
  6
CONTINUOUS
 62
     7
 10
48.33160081
 20
67.442286877
 30
0.0
 11
47.8398918365
 21
67.442286877
 31
0.0
  0
LINE
  5
A6
  8
VISIBLE
  6
CONTINUOUS
 62
     7
 10
57.8898918365
 20
68.829786877
 30
0.0
 11
91.5747446259
 21
73.6419072918
 31
0.0
  0
LINE
  5
A7
  8
VISIBLE
  6
CONTINUOUS
 62
     7
 10
91.5747446259
 20
86.2426664622
 30
0.0
 11
57.8898918365
 21
91.054786877
 31
0.0
  0
LINE
  5
A8
  8
VISIBLE
  6
CONTINUOUS
 62
     7
 10
56.7898918365
 20
68.829786877
 30
0.0
 11
57.8898918365
 21
68.829786877
 31
0.0
  0
LINE
  5
A9
  8
VISIBLE
  6
CONTINUOUS
 62
     7
 10
57.8898918365
 20
91.054786877
 30
0.0
 11
56.7898918365
 21
91.054786877
 31
0.0
  0
LINE
  5
AA
  8
HIDDEN
  6
HIDDEN2
 62
     7
 10
87.9898918365
 20
75.692286877
 30
0.0
 11
91.2238664328
 21
75.692286877
 31
0.0
  0
LINE
  5
AB
  8
HIDDEN
  6
HIDDEN2
 62
     7
 10
91.2238664328
 20
84.192286877
 30
0.0
 11
87.9898918365
 21
84.192286877
 31
0.0
  0
LINE
  5
AC
  8
HIDDEN
  6
HIDDEN2
 62
     7
 10
87.9898918365
 20
84.192286877
 30
0.0
 11
87.5144608717
 21
83.401036877
 31
0.0
  0
LINE
  5
AD
  8
HIDDEN
  6
HIDDEN2
 62
     7
 10
87.5144608717
 20
76.483536877
 30
0.0
 11
87.9898918365
 21
75.692286877
 31
0.0
  0
LINE
  5
AE
  8
HIDDEN
  6
HIDDEN2
 62
     7
 10
69.5898918365
 20
76.483536877
 30
0.0
 11
87.5144608717
 21
76.483536877
 31
0.0
  0
LINE
  5
AF
  8
HIDDEN
  6
HIDDEN2
 62
     7
 10
87.5144608717
 20
83.401036877
 30
0.0
 11
69.5898918365
 21
83.401036877
 31
0.0
  0
LINE
  5
B0
  8
0
  6
HIDDEN2
 62
     7
 10
69.5898918365
 20
83.401036877
 30
0.0
 11
68.5101453041
 21
81.604036877
 31
0.0
  0
LINE
  5
B1
  8
0
  6
HIDDEN2
 62
     7
 10
68.5101453041
 20
78.280536877
 30
0.0
 11
69.5898918365
 21
76.483536877
 31
0.0
  0
LINE
  5
B2
  8
HIDDEN
  6
HIDDEN2
 62
     7
 10
92.0898918365
 20
84.692286877
 30
0.0
 11
91.2238664328
 21
84.192286877
 31
0.0
  0
LINE
  5
B3
  8
HIDDEN
  6
HIDDEN2
 62
     7
 10
91.2238664328
 20
75.692286877
 30
0.0
 11
92.0898918365
 21
75.192286877
 31
0.0
  0
ARC
  5
B4
  8
VISIBLE
  6
CONTINUOUS
 62
     7
 10
91.4898918365
 20
85.6486967625
 30
0.0
 40
0.6000000000000033
 50
0.0
 51
81.8699
  0
ARC
  5
B5
  8
VISIBLE
  6
CONTINUOUS
 62
     7
 10
91.4898918365
 20
74.2358769914
 30
0.0
 40
0.6
 50
278.1301
 51
0.0
  0
ARC
  5
B6
  8
VISIBLE
  6
CONTINUOUS
 62
     7
 10
56.7898918365
 20
91.554786877
 30
0.0
 40
0.5000000000000004
 50
205.1220867771
 51
270.0
  0
ARC
  5
B7
  8
VISIBLE
  6
CONTINUOUS
 62
     7
 10
56.7898918365
 20
68.329786877
 30
0.0
 40
0.5
 50
90.0
 51
180.0
  0
LINE
  5
B8
  8
VISIBLE
  6
CONTINUOUS
 62
     7
 10
38.3898918365
 20
67.442286877
 30
0.0
 11
47.8398918365
 21
67.442286877
 31
0.0
  0
LINE
  5
B9
  8
VISIBLE
  6
CONTINUOUS
 62
     7
 10
44.3148918365
 20
92.442286877
 30
0.0
 11
38.3898918365
 21
92.442286877
 31
0.0
  0
LINE
  5
BA
  8
VISIBLE
  6
CONTINUOUS
 62
     7
 10
38.3898918365
 20
92.442286877
 30
0.0
 11
37.8898918365
 21
91.942286877
 31
0.0
  0
LINE
  5
BB
  8
VISIBLE
  6
CONTINUOUS
 62
     7
 10
37.8898918365
 20
67.942286877
 30
0.0
 11
38.3898918365
 21
67.442286877
 31
0.0
  0
LINE
  5
BC
  8
HIDDEN
  6
HIDDEN2
 62
     7
 10
43.6611089979
 20
73.8030741842
 30
0.0
 11
53.1971455311
 21
75.1432767183
 31
0.0
  0
LINE
  5
BD
  8
0
  6
HIDDEN2
 62
     7
 10
53.3679866872
 20
84.717286877
 30
0.0
 11
43.6611089979
 21
86.0814995698
 31
0.0
  0
LINE
  5
BE
  8
0
  6
HIDDEN2
 62
     7
 10
53.701568528
 20
84.842286877
 30
0.0
 11
53.4850621771
 21
84.717286877
 31
0.0
  0
LINE
  5
BF
  8
0
  6
HIDDEN2
 62
     7
 10
53.5248574984
 20
75.1443110375
 30
0.0
 11
53.701568528
 21
75.042286877
 31
0.0
  0
LINE
  5
C0
  8
0
  6
HIDDEN2
 62
     7
 10
54.451568528
 20
75.042286877
 30
0.0
 11
54.490420395
 21
75.1490315042
 31
0.0
  0
LINE
  5
C1
  8
0
  6
HIDDEN2
 62
     7
 10
54.5579337914
 20
84.5500507177
 30
0.0
 11
54.451568528
 21
84.842286877
 31
0.0
  0
LINE
  5
C2
  8
0
  6
HIDDEN2
 62
     7
 10
57.3898918365
 20
75.417286877
 30
0.0
 11
61.8898918365
 21
75.417286877
 31
0.0
  0
LINE
  5
C3
  8
HIDDEN
  6
HIDDEN2
 62
     7
 10
61.8898918365
 20
84.467286877
 30
0.0
 11
55.1468291178
 21
84.467286877
 31
0.0
  0
LINE
  5
C4
  8
0
  6
HIDDEN2
 62
     7
 10
53.4850621771
 20
84.717286877
 30
0.0
 11
53.3679866872
 21
84.717286877
 31
0.0
  0
LINE
  5
C5
  8
0
  6
HIDDEN2
 62
     7
 10
55.1468291178
 20
84.467286877
 30
0.0
 11
54.5579337914
 21
84.5500507177
 31
0.0
  0
LINE
  5
C6
  8
HIDDEN
  6
HIDDEN2
 62
     7
 10
41.8398918365
 20
69.892286877
 30
0.0
 11
42.3398918365
 21
69.892286877
 31
0.0
  0
LINE
  5
C7
  8
0
  6
HIDDEN2
 62
     7
 10
42.3398918365
 20
89.992286877
 30
0.0
 11
41.8398918365
 21
89.992286877
 31
0.0
  0
ARC
  5
C8
  8
HIDDEN
  6
HIDDEN2
 62
     7
 10
42.3398918365
 20
70.142286877
 30
0.0
 40
0.2500000000000002
 50
270.0
 51
0.0
  0
ARC
  5
C9
  8
HIDDEN
  6
HIDDEN2
 62
     7
 10
42.3398918365
 20
89.742286877
 30
0.0
 40
0.2500000000000019
 50
0.0
 51
90.0
  0
LINE
  5
CA
  8
HIDDEN
  6
HIDDEN2
 62
     7
 10
42.5898918365
 20
71.9476716347
 30
0.0
 11
43.6611089979
 21
73.8030741842
 31
0.0
  0
LINE
  5
CB
  8
0
  6
HIDDEN2
 62
     7
 10
43.6611089979
 20
86.0814995698
 30
0.0
 11
42.5898918365
 21
87.9369021193
 31
0.0
  0
LINE
  5
CC
  8
0
  6
HIDDEN2
 62
     7
 10
53.701568528
 20
75.042286877
 30
0.0
 11
54.451568528
 21
75.042286877
 31
0.0
  0
LINE
  5
CD
  8
0
  6
HIDDEN2
 62
     7
 10
54.451568528
 20
84.842286877
 30
0.0
 11
53.701568528
 21
84.842286877
 31
0.0
  0
LINE
  5
CE
  8
0
  6
HIDDEN2
 62
     7
 10
61.8898918365
 20
75.692286877
 30
0.0
 11
63.4450693337
 21
78.280536877
 31
0.0
  0
LINE
  5
CF
  8
0
  6
HIDDEN2
 62
     7
 10
63.4450693337
 20
81.604036877
 30
0.0
 11
61.8898918365
 21
84.192286877
 31
0.0
  0
LINE
  5
D0
  8
0
  6
HIDDEN2
 62
     7
 10
54.4879655514
 20
75.142286877
 30
0.0
 11
57.3898918365
 21
75.142286877
 31
0.0
  0
LINE
  5
D1
  8
0
  6
HIDDEN2
 62
     7
 10
68.5101453041
 20
81.604036877
 30
0.0
 11
63.4450693337
 21
81.604036877
 31
0.0
  0
LINE
  5
D2
  8
0
  6
HIDDEN2
 62
     7
 10
63.4450693337
 20
78.280536877
 30
0.0
 11
68.5101453041
 21
78.280536877
 31
0.0
  0
LINE
  5
D3
  8
HIDDEN
  6
HIDDEN2
 62
     7
 10
87.8396766818
 20
75.942286877
 30
0.0
 11
76.0898918365
 21
75.942286877
 31
0.0
  0
LINE
  5
D4
  8
HIDDEN
  6
HIDDEN2
 62
     7
 10
87.8396766818
 20
83.942286877
 30
0.0
 11
76.0898918365
 21
83.942286877
 31
0.0
  0
LINE
  5
D5
  8
HIDDEN
  6
HIDDEN2
 62
     7
 10
76.0898918365
 20
83.942286877
 30
0.0
 11
76.0898918365
 21
75.942286877
 31
0.0
  0
LINE
  5
D6
  8
0
  6
HIDDEN2
 62
     7
 10
37.91875935
 20
89.942286877
 30
0.0
 11
41.8398918365
 21
89.942286877
 31
0.0
  0
LINE
  5
D7
  8
0
  6
HIDDEN2
 62
     7
 10
37.91875935
 20
69.942286877
 30
0.0
 11
41.8398918365
 21
69.942286877
 31
0.0
  0
LINE
  5
D8
  8
VISIBLE
  6
CONTINUOUS
 62
     7
 10
33.8898918365
 20
87.8226716347
 30
0.0
 11
33.8898918365
 21
72.0619021193
 31
0.0
  0
LINE
  5
D9
  8
VISIBLE
  6
CONTINUOUS
 62
     7
 10
37.3898918365
 20
89.442286877
 30
0.0
 11
37.3898918365
 21
70.442286877
 31
0.0
  0
LINE
  5
DA
  8
VISIBLE
  6
CONTINUOUS
 62
     7
 10
34.1898918365
 20
71.942286877
 30
0.0
 11
34.1898918365
 21
72.3715726627
 31
0.0
  0
LINE
  5
DB
  8
VISIBLE
  6
CONTINUOUS
 62
     7
 10
34.1898918365
 20
79.5130010913
 30
0.0
 11
34.1898918365
 21
80.3715726627
 31
0.0
  0
LINE
  5
DC
  8
VISIBLE
  6
CONTINUOUS
 62
     7
 10
34.1898918365
 20
87.5130010913
 30
0.0
 11
34.1898918365
 21
87.942286877
 31
0.0
  0
ARC
  5
DD
  8
VISIBLE
  6
CONTINUOUS
 62
     7
 10
58.0144298736
 20
83.942286877
 30
0.0
 40
24.09063329757617
 50
171.476211665
 51
188.523788335
  0
ARC
  5
DE
  8
VISIBLE
  6
CONTINUOUS
 62
     7
 10
58.0144298736
 20
75.942286877
 30
0.0
 40
24.09063329757635
 50
171.476211665
 51
188.523788335
  0
LINE
  5
DF
  8
VISIBLE
  6
CONTINUOUS
 62
     7
 10
34.1898918365
 20
71.942286877
 30
0.0
 11
33.9219435475
 21
71.942286877
 31
0.0
  0
LINE
  5
E0
  8
VISIBLE
  6
CONTINUOUS
 62
     7
 10
34.1898918365
 20
87.942286877
 30
0.0
 11
33.9219435475
 21
87.942286877
 31
0.0
  0
LINE
  5
E1
  8
VISIBLE
  6
CONTINUOUS
 62
     7
 10
34.1898918365
 20
87.942286877
 30
0.0
 11
37.3898918365
 21
87.942286877
 31
0.0
  0
LINE
  5
E2
  8
VISIBLE
  6
CONTINUOUS
 62
     7
 10
37.3898918365
 20
71.942286877
 30
0.0
 11
34.1898918365
 21
71.942286877
 31
0.0
  0
LINE
  5
E3
  8
VISIBLE
  6
CONTINUOUS
 62
     7
 10
37.3898918365
 20
79.5130010913
 30
0.0
 11
34.1898918365
 21
79.5130010913
 31
0.0
  0
LINE
  5
E4
  8
VISIBLE
  6
CONTINUOUS
 62
     7
 10
34.1898918365
 20
72.3715726627
 30
0.0
 11
37.3898918365
 21
72.3715726627
 31
0.0
  0
LINE
  5
E5
  8
VISIBLE
  6
CONTINUOUS
 62
     7
 10
37.3898918365
 20
87.5130010913
 30
0.0
 11
34.1898918365
 21
87.5130010913
 31
0.0
  0
LINE
  5
E6
  8
VISIBLE
  6
CONTINUOUS
 62
     7
 10
34.1898918365
 20
80.3715726627
 30
0.0
 11
37.3898918365
 21
80.3715726627
 31
0.0
  0
POLYLINE
  5
E7
  8
VISIBLE
  6
CONTINUOUS
 62
     7
 66
     1
 10
0.0
 20
0.0
 30
0.0
  0
VERTEX
  5
1F6
  8
VISIBLE
  6
CONTINUOUS
 62
     7
 10
37.4848918365
 20
89.5349429442
 30
0.0
  0
VERTEX
  5
1F7
  8
VISIBLE
  6
CONTINUOUS
 62
     7
 10
37.4848188979
 20
89.5350612536
 30
0.0
  0
VERTEX
  5
1F8
  8
VISIBLE
  6
CONTINUOUS
 62
     7
 10
37.4847460041
 20
89.5351714709
 30
0.0
  0
VERTEX
  5
1F9
  8
VISIBLE
  6
CONTINUOUS
 62
     7
 10
37.4846731553
 20
89.5352735962
 30
0.0
  0
VERTEX
  5
1FA
  8
VISIBLE
  6
CONTINUOUS
 62
     7
 10
37.4846003515
 20
89.5353676294
 30
0.0
  0
VERTEX
  5
1FB
  8
VISIBLE
  6
CONTINUOUS
 62
     7
 10
37.4845275927
 20
89.5354535704
 30
0.0
  0
VERTEX
  5
1FC
  8
VISIBLE
  6
CONTINUOUS
 62
     7
 10
37.4844548791
 20
89.5355314193
 30
0.0
  0
VERTEX
  5
1FD
  8
VISIBLE
  6
CONTINUOUS
 62
     7
 10
37.4843822108
 20
89.5356011759
 30
0.0
  0
VERTEX
  5
1FE
  8
VISIBLE
  6
CONTINUOUS
 62
     7
 10
37.4843095877
 20
89.5356628402
 30
0.0
  0
VERTEX
  5
1FF
  8
VISIBLE
  6
CONTINUOUS
 62
     7
 10
37.48423701
 20
89.5357164121
 30
0.0
  0
VERTEX
  5
200
  8
VISIBLE
  6
CONTINUOUS
 62
     7
 10
37.4841644776
 20
89.5357618916
 30
0.0
  0
VERTEX
  5
201
  8
VISIBLE
  6
CONTINUOUS
 62
     7
 10
37.4840919908
 20
89.5357992787
 30
0.0
  0
VERTEX
  5
202
  8
VISIBLE
  6
CONTINUOUS
 62
     7
 10
37.4840195495
 20
89.5358285732
 30
0.0
  0
VERTEX
  5
203
  8
VISIBLE
  6
CONTINUOUS
 62
     7
 10
37.4839471539
 20
89.5358497752
 30
0.0
  0
VERTEX
  5
204
  8
VISIBLE
  6
CONTINUOUS
 62
     7
 10
37.4838748039
 20
89.5358628845
 30
0.0
  0
VERTEX
  5
205
  8
VISIBLE
  6
CONTINUOUS
 62
     7
 10
37.4838024996
 20
89.5358679011
 30
0.0
  0
VERTEX
  5
206
  8
VISIBLE
  6
CONTINUOUS
 62
     7
 10
37.4837302412
 20
89.535864825
 30
0.0
  0
VERTEX
  5
207
  8
VISIBLE
  6
CONTINUOUS
 62
     7
 10
37.4836580287
 20
89.5358536561
 30
0.0
  0
VERTEX
  5
208
  8
VISIBLE
  6
CONTINUOUS
 62
     7
 10
37.4835858621
 20
89.5358343944
 30
0.0
  0
VERTEX
  5
209
  8
VISIBLE
  6
CONTINUOUS
 62
     7
 10
37.4835137415
 20
89.5358070398
 30
0.0
  0
VERTEX
  5
20A
  8
VISIBLE
  6
CONTINUOUS
 62
     7
 10
37.4834416671
 20
89.5357715922
 30
0.0
  0
VERTEX
  5
20B
  8
VISIBLE
  6
CONTINUOUS
 62
     7
 10
37.4833696387
 20
89.5357280517
 30
0.0
  0
VERTEX
  5
20C
  8
VISIBLE
  6
CONTINUOUS
 62
     7
 10
37.4832976566
 20
89.535676418
 30
0.0
  0
VERTEX
  5
20D
  8
VISIBLE
  6
CONTINUOUS
 62
     7
 10
37.4832257208
 20
89.5356166913
 30
0.0
  0
VERTEX
  5
20E
  8
VISIBLE
  6
CONTINUOUS
 62
     7
 10
37.4831538313
 20
89.5355488714
 30
0.0
  0
SEQEND
  5
20F
  8
VISIBLE
  6
CONTINUOUS
 62
     7
  0
LINE
  5
E8
  8
VISIBLE
  6
CONTINUOUS
 62
     7
 10
33.9219426441
 20
87.942286877
 30
0.0
 11
33.8898918365
 21
87.8226716347
 31
0.0
  0
LINE
  5
E9
  8
VISIBLE
  6
CONTINUOUS
 62
     7
 10
33.8898918365
 20
72.0619021193
 30
0.0
 11
33.9219426441
 21
71.942286877
 31
0.0
  0
LINE
  5
EA
  8
VISIBLE
  6
CONTINUOUS
 62
     7
 10
37.4831106735
 20
89.535505714
 30
0.0
 11
37.3898918365
 21
89.442286877
 31
0.0
  0
LINE
  5
EB
  8
VISIBLE
  6
CONTINUOUS
 62
     7
 10
37.3898918365
 20
70.442286877
 30
0.0
 11
37.7175827197
 21
70.1145959938
 31
0.0
  0
LINE
  5
EC
  8
VISIBLE
  6
CONTINUOUS
 62
     7
 10
37.8898917887
 20
89.9159019702
 30
0.0
 11
37.669846888
 21
89.5348660462
 31
0.0
  0
ARC
  5
ED
  8
VISIBLE
  6
CONTINUOUS
 62
     7
 10
37.5773918509
 20
89.5897164995
 30
0.0
 40
0.1075014500080003
 50
210.6906436988
 51
329.3082454355
  0
ARC
  5
EE
  8
VISIBLE
  6
CONTINUOUS
 62
     7
 10
37.9523918508
 20
70.2948572538
 30
0.0
 40
0.1075014501656066
 50
125.9691886346
 51
149.3093617553
  0
LINE
  5
EF
  8
VISIBLE
  6
CONTINUOUS
 62
     7
 10
37.7226529999
 20
70.1119842628
 30
0.0
 11
37.8599212487
 21
70.3496809878
 31
0.0
  0
LINE
  5
F2
  8
STANDARD
  6
CENTER2
 62
     7
 10
37.3537982575
 20
79.942286877
 30
0.0
 11
90.9686577942
 21
79.942286877
 31
0.0
  0
ENDBLK
  5
F4
  8
0
  0
BLOCK
  8
0
  2
SE1
 70
     0
 10
0.0
 20
0.0
 30
0.0
  3
SE1
  1

  0
ARC
  5
F7
  8
VISIBLE
  6
CONTINUOUS
 62
     7
 10
142.3849620777
 20
79.942286877
 30
0.0
 40
15.8875
 50
284.6754710692
 51
305.6067477533
  0
CIRCLE
  5
F8
  8
0
  6
HIDDEN2
 62
     7
 10
142.3849620777
 20
79.942286877
 30
0.0
 40
11.1125
  0
LINE
  5
F9
  8
VISIBLE
  6
CONTINUOUS
 62
     7
 10
146.4099620777
 20
66.642286877
 30
0.0
 11
146.4099620777
 21
64.5730959012
 31
0.0
  0
LINE
  5
FA
  8
VISIBLE
  6
CONTINUOUS
 62
     7
 10
138.3599620777
 20
66.642286877
 30
0.0
 11
139.0856117106
 21
67.3679365099
 31
0.0
  0
LINE
  5
FB
  8
VISIBLE
  6
CONTINUOUS
 62
     7
 10
138.3599620777
 20
64.5730959012
 30
0.0
 11
138.3599620777
 21
66.642286877
 31
0.0
  0
ARC
  5
FC
  8
VISIBLE
  6
CONTINUOUS
 62
     7
 10
142.3849620777
 20
79.942286877
 30
0.0
 40
15.8875
 50
104.6754710692
 51
255.3245289308
  0
LINE
  5
FD
  8
0
  6
HIDDEN2
 62
     7
 10
139.1599620777
 20
91.342286877
 30
0.0
 11
138.3599620777
 21
92.142286877
 31
0.0
  0
LINE
  5
FE
  8
VISIBLE
  6
CONTINUOUS
 62
     7
 10
146.4099620777
 20
95.3114778528
 30
0.0
 11
146.4099620777
 21
92.3034913086
 31
0.0
  0
ARC
  5
FF
  8
VISIBLE
  6
CONTINUOUS
 62
     7
 10
142.3849620777
 20
79.942286877
 30
0.0
 40
15.8875
 50
324.3932522467
 51
75.3245289308
  0
LINE
  5
100
  8
VISIBLE
  6
CONTINUOUS
 62
     7
 10
151.6349620777
 20
70.692286877
 30
0.0
 11
151.6349620777
 21
67.0252378235
 31
0.0
  0
LINE
  5
101
  8
VISIBLE
  6
CONTINUOUS
 62
     7
 10
155.3020111312
 20
70.692286877
 30
0.0
 11
151.6349620777
 21
70.692286877
 31
0.0
  0
LINE
  5
102
  8
0
  6
HIDDEN2
 62
     7
 10
145.6099620777
 20
91.342286877
 30
0.0
 11
146.4099620777
 21
92.142286877
 31
0.0
  0
CIRCLE
  5
103
  8
VISIBLE
  6
CONTINUOUS
 62
     7
 10
142.3849620777
 20
79.942286877
 30
0.0
 40
12.5
  0
LINE
  5
104
  8
0
  6
HIDDEN2
 62
     7
 10
139.1599620777
 20
91.342286877
 30
0.0
 11
145.6099620777
 21
91.342286877
 31
0.0
  0
LINE
  5
105
  8
VISIBLE
  6
CONTINUOUS
 62
     7
 10
138.3599620777
 20
92.3034913086
 30
0.0
 11
138.3599620777
 21
95.3114778528
 31
0.0
  0
LINE
  5
106
  8
VISIBLE
  6
CONTINUOUS
 62
     7
 10
142.3849620777
 20
67.442286877
 30
0.0
 11
139.1599620777
 21
67.442286877
 31
0.0
  0
LINE
  5
107
  8
VISIBLE
  6
CONTINUOUS
 62
     7
 10
139.1599620777
 20
67.442286877
 30
0.0
 11
139.0856117106
 21
67.3679365099
 31
0.0
  0
LINE
  5
108
  8
VISIBLE
  6
CONTINUOUS
 62
     7
 10
138.3599620777
 20
92.3034913086
 30
0.0
 11
138.3599620777
 21
92.1423585617
 31
0.0
  0
POLYLINE
  5
109
  8
VISIBLE
  6
CONTINUOUS
 62
     7
 66
     1
 10
0.0
 20
0.0
 30
0.0
  0
VERTEX
  5
210
  8
VISIBLE
  6
CONTINUOUS
 62
     7
 10
138.3599620777
 20
92.1423585617
 30
0.0
  0
VERTEX
  5
211
  8
VISIBLE
  6
CONTINUOUS
 62
     7
 10
138.3680814405
 20
92.1342609031
 30
0.0
  0
VERTEX
  5
212
  8
VISIBLE
  6
CONTINUOUS
 62
     7
 10
138.3761320605
 20
92.126236188
 30
0.0
  0
VERTEX
  5
213
  8
VISIBLE
  6
CONTINUOUS
 62
     7
 10
138.3841141843
 20
92.1182849983
 30
0.0
  0
VERTEX
  5
214
  8
VISIBLE
  6
CONTINUOUS
 62
     7
 10
138.3920280585
 20
92.1104079159
 30
0.0
  0
VERTEX
  5
215
  8
VISIBLE
  6
CONTINUOUS
 62
     7
 10
138.3998739299
 20
92.1026055227
 30
0.0
  0
VERTEX
  5
216
  8
VISIBLE
  6
CONTINUOUS
 62
     7
 10
138.4076520449
 20
92.0948784007
 30
0.0
  0
VERTEX
  5
217
  8
VISIBLE
  6
CONTINUOUS
 62
     7
 10
138.4153626503
 20
92.0872271318
 30
0.0
  0
VERTEX
  5
218
  8
VISIBLE
  6
CONTINUOUS
 62
     7
 10
138.4230059927
 20
92.079652298
 30
0.0
  0
VERTEX
  5
219
  8
VISIBLE
  6
CONTINUOUS
 62
     7
 10
138.4305823186
 20
92.072154481
 30
0.0
  0
VERTEX
  5
21A
  8
VISIBLE
  6
CONTINUOUS
 62
     7
 10
138.4380918747
 20
92.064734263
 30
0.0
  0
VERTEX
  5
21B
  8
VISIBLE
  6
CONTINUOUS
 62
     7
 10
138.4455349077
 20
92.0573922257
 30
0.0
  0
VERTEX
  5
21C
  8
VISIBLE
  6
CONTINUOUS
 62
     7
 10
138.4529116641
 20
92.0501289511
 30
0.0
  0
VERTEX
  5
21D
  8
VISIBLE
  6
CONTINUOUS
 62
     7
 10
138.4602223906
 20
92.0429450211
 30
0.0
  0
VERTEX
  5
21E
  8
VISIBLE
  6
CONTINUOUS
 62
     7
 10
138.4674673338
 20
92.0358410177
 30
0.0
  0
VERTEX
  5
21F
  8
VISIBLE
  6
CONTINUOUS
 62
     7
 10
138.4746362856
 20
92.0288281983
 30
0.0
  0
VERTEX
  5
220
  8
VISIBLE
  6
CONTINUOUS
 62
     7
 10
138.4817168773
 20
92.0219201478
 30
0.0
  0
VERTEX
  5
221
  8
VISIBLE
  6
CONTINUOUS
 62
     7
 10
138.4887061153
 20
92.0151209391
 30
0.0
  0
VERTEX
  5
222
  8
VISIBLE
  6
CONTINUOUS
 62
     7
 10
138.4956010055
 20
92.0084346453
 30
0.0
  0
VERTEX
  5
223
  8
VISIBLE
  6
CONTINUOUS
 62
     7
 10
138.5023985542
 20
92.0018653393
 30
0.0
  0
VERTEX
  5
224
  8
VISIBLE
  6
CONTINUOUS
 62
     7
 10
138.5090957673
 20
91.995417094
 30
0.0
  0
VERTEX
  5
225
  8
VISIBLE
  6
CONTINUOUS
 62
     7
 10
138.5156896511
 20
91.9890939826
 30
0.0
  0
VERTEX
  5
226
  8
VISIBLE
  6
CONTINUOUS
 62
     7
 10
138.5221772117
 20
91.9829000779
 30
0.0
  0
VERTEX
  5
227
  8
VISIBLE
  6
CONTINUOUS
 62
     7
 10
138.5285554552
 20
91.976839453
 30
0.0
  0
VERTEX
  5
228
  8
VISIBLE
  6
CONTINUOUS
 62
     7
 10
138.5348213877
 20
91.9709161808
 30
0.0
  0
VERTEX
  5
229
  8
VISIBLE
  6
CONTINUOUS
 62
     7
 10
138.5409720154
 20
91.9651343343
 30
0.0
  0
VERTEX
  5
22A
  8
VISIBLE
  6
CONTINUOUS
 62
     7
 10
138.5470043443
 20
91.9594979865
 30
0.0
  0
VERTEX
  5
22B
  8
VISIBLE
  6
CONTINUOUS
 62
     7
 10
138.5529153807
 20
91.9540112104
 30
0.0
  0
VERTEX
  5
22C
  8
VISIBLE
  6
CONTINUOUS
 62
     7
 10
138.5587021305
 20
91.9486780789
 30
0.0
  0
VERTEX
  5
22D
  8
VISIBLE
  6
CONTINUOUS
 62
     7
 10
138.56436427
 20
91.9435022515
 30
0.0
  0
VERTEX
  5
22E
  8
VISIBLE
  6
CONTINUOUS
 62
     7
 10
138.5699016219
 20
91.9384867713
 30
0.0
  0
VERTEX
  5
22F
  8
VISIBLE
  6
CONTINUOUS
 62
     7
 10
138.5753114127
 20
91.9336347864
 30
0.0
  0
VERTEX
  5
230
  8
VISIBLE
  6
CONTINUOUS
 62
     7
 10
138.5805908684
 20
91.9289494451
 30
0.0
  0
VERTEX
  5
231
  8
VISIBLE
  6
CONTINUOUS
 62
     7
 10
138.5857372154
 20
91.9244338956
 30
0.0
  0
VERTEX
  5
232
  8
VISIBLE
  6
CONTINUOUS
 62
     7
 10
138.5907476799
 20
91.9200912861
 30
0.0
  0
VERTEX
  5
233
  8
VISIBLE
  6
CONTINUOUS
 62
     7
 10
138.5956194882
 20
91.9159247649
 30
0.0
  0
VERTEX
  5
234
  8
VISIBLE
  6
CONTINUOUS
 62
     7
 10
138.6003498665
 20
91.9119374802
 30
0.0
  0
VERTEX
  5
235
  8
VISIBLE
  6
CONTINUOUS
 62
     7
 10
138.6049360411
 20
91.9081325802
 30
0.0
  0
VERTEX
  5
236
  8
VISIBLE
  6
CONTINUOUS
 62
     7
 10
138.6093752383
 20
91.9045132132
 30
0.0
  0
VERTEX
  5
237
  8
VISIBLE
  6
CONTINUOUS
 62
     7
 10
138.6136646842
 20
91.9010825273
 30
0.0
  0
VERTEX
  5
238
  8
VISIBLE
  6
CONTINUOUS
 62
     7
 10
138.6178016053
 20
91.8978436709
 30
0.0
  0
VERTEX
  5
239
  8
VISIBLE
  6
CONTINUOUS
 62
     7
 10
138.6217832276
 20
91.8947997921
 30
0.0
  0
VERTEX
  5
23A
  8
VISIBLE
  6
CONTINUOUS
 62
     7
 10
138.6256067775
 20
91.8919540392
 30
0.0
  0
VERTEX
  5
23B
  8
VISIBLE
  6
CONTINUOUS
 62
     7
 10
138.6292694812
 20
91.8893095603
 30
0.0
  0
VERTEX
  5
23C
  8
VISIBLE
  6
CONTINUOUS
 62
     7
 10
138.6327685651
 20
91.8868695038
 30
0.0
  0
VERTEX
  5
23D
  8
VISIBLE
  6
CONTINUOUS
 62
     7
 10
138.6361012552
 20
91.8846370178
 30
0.0
  0
VERTEX
  5
23E
  8
VISIBLE
  6
CONTINUOUS
 62
     7
 10
138.639264778
 20
91.8826152506
 30
0.0
  0
VERTEX
  5
23F
  8
VISIBLE
  6
CONTINUOUS
 62
     7
 10
138.6422563596
 20
91.8808073505
 30
0.0
  0
VERTEX
  5
240
  8
VISIBLE
  6
CONTINUOUS
 62
     7
 10
138.6450732264
 20
91.8792164655
 30
0.0
  0
VERTEX
  5
241
  8
VISIBLE
  6
CONTINUOUS
 62
     7
 10
138.6477126045
 20
91.8778457441
 30
0.0
  0
VERTEX
  5
242
  8
VISIBLE
  6
CONTINUOUS
 62
     7
 10
138.6501717202
 20
91.8766983343
 30
0.0
  0
VERTEX
  5
243
  8
VISIBLE
  6
CONTINUOUS
 62
     7
 10
138.6524477998
 20
91.8757773844
 30
0.0
  0
VERTEX
  5
244
  8
VISIBLE
  6
CONTINUOUS
 62
     7
 10
138.6545380696
 20
91.8750860427
 30
0.0
  0
VERTEX
  5
245
  8
VISIBLE
  6
CONTINUOUS
 62
     7
 10
138.6564397557
 20
91.8746274574
 30
0.0
  0
VERTEX
  5
246
  8
VISIBLE
  6
CONTINUOUS
 62
     7
 10
138.6581500845
 20
91.8744047767
 30
0.0
  0
VERTEX
  5
247
  8
VISIBLE
  6
CONTINUOUS
 62
     7
 10
138.6596662822
 20
91.8744211488
 30
0.0
  0
VERTEX
  5
248
  8
VISIBLE
  6
CONTINUOUS
 62
     7
 10
138.6609855751
 20
91.874679722
 30
0.0
  0
SEQEND
  5
249
  8
VISIBLE
  6
CONTINUOUS
 62
     7
  0
LINE
  5
10A
  8
VISIBLE
  6
CONTINUOUS
 62
     7
 10
145.6843124448
 20
67.3679365099
 30
0.0
 11
146.4099620777
 21
66.642286877
 31
0.0
  0
POLYLINE
  5
10B
  8
VISIBLE
  6
CONTINUOUS
 62
     7
 66
     1
 10
0.0
 20
0.0
 30
0.0
  0
VERTEX
  5
24A
  8
VISIBLE
  6
CONTINUOUS
 62
     7
 10
146.1089385803
 20
91.874679722
 30
0.0
  0
VERTEX
  5
24B
  8
VISIBLE
  6
CONTINUOUS
 62
     7
 10
146.1108317333
 20
91.8743803646
 30
0.0
  0
VERTEX
  5
24C
  8
VISIBLE
  6
CONTINUOUS
 62
     7
 10
146.113096788
 20
91.8745420613
 30
0.0
  0
VERTEX
  5
24D
  8
VISIBLE
  6
CONTINUOUS
 62
     7
 10
146.1157279783
 20
91.8751578647
 30
0.0
  0
VERTEX
  5
24E
  8
VISIBLE
  6
CONTINUOUS
 62
     7
 10
146.1187195378
 20
91.8762208274
 30
0.0
  0
VERTEX
  5
24F
  8
VISIBLE
  6
CONTINUOUS
 62
     7
 10
146.1220657003
 20
91.877724002
 30
0.0
  0
VERTEX
  5
250
  8
VISIBLE
  6
CONTINUOUS
 62
     7
 10
146.1257606996
 20
91.879660441
 30
0.0
  0
VERTEX
  5
251
  8
VISIBLE
  6
CONTINUOUS
 62
     7
 10
146.1297987693
 20
91.882023197
 30
0.0
  0
VERTEX
  5
252
  8
VISIBLE
  6
CONTINUOUS
 62
     7
 10
146.1341741433
 20
91.8848053226
 30
0.0
  0
VERTEX
  5
253
  8
VISIBLE
  6
CONTINUOUS
 62
     7
 10
146.1388810552
 20
91.8879998705
 30
0.0
  0
VERTEX
  5
254
  8
VISIBLE
  6
CONTINUOUS
 62
     7
 10
146.1439137389
 20
91.8915998931
 30
0.0
  0
VERTEX
  5
255
  8
VISIBLE
  6
CONTINUOUS
 62
     7
 10
146.1492664281
 20
91.895598443
 30
0.0
  0
VERTEX
  5
256
  8
VISIBLE
  6
CONTINUOUS
 62
     7
 10
146.1549333564
 20
91.8999885729
 30
0.0
  0
VERTEX
  5
257
  8
VISIBLE
  6
CONTINUOUS
 62
     7
 10
146.1609087577
 20
91.9047633353
 30
0.0
  0
VERTEX
  5
258
  8
VISIBLE
  6
CONTINUOUS
 62
     7
 10
146.1671868657
 20
91.9099157828
 30
0.0
  0
VERTEX
  5
259
  8
VISIBLE
  6
CONTINUOUS
 62
     7
 10
146.1737619142
 20
91.915438968
 30
0.0
  0
VERTEX
  5
25A
  8
VISIBLE
  6
CONTINUOUS
 62
     7
 10
146.1806281368
 20
91.9213259434
 30
0.0
  0
VERTEX
  5
25B
  8
VISIBLE
  6
CONTINUOUS
 62
     7
 10
146.1877797674
 20
91.9275697617
 30
0.0
  0
VERTEX
  5
25C
  8
VISIBLE
  6
CONTINUOUS
 62
     7
 10
146.1952110397
 20
91.9341634754
 30
0.0
  0
VERTEX
  5
25D
  8
VISIBLE
  6
CONTINUOUS
 62
     7
 10
146.2029161874
 20
91.9411001371
 30
0.0
  0
VERTEX
  5
25E
  8
VISIBLE
  6
CONTINUOUS
 62
     7
 10
146.2108894443
 20
91.9483727994
 30
0.0
  0
VERTEX
  5
25F
  8
VISIBLE
  6
CONTINUOUS
 62
     7
 10
146.2191061905
 20
91.9559519804
 30
0.0
  0
VERTEX
  5
260
  8
VISIBLE
  6
CONTINUOUS
 62
     7
 10
146.2275416621
 20
91.9638069801
 30
0.0
  0
VERTEX
  5
261
  8
VISIBLE
  6
CONTINUOUS
 62
     7
 10
146.2361898765
 20
91.9719290235
 30
0.0
  0
VERTEX
  5
262
  8
VISIBLE
  6
CONTINUOUS
 62
     7
 10
146.2450448511
 20
91.9803093358
 30
0.0
  0
VERTEX
  5
263
  8
VISIBLE
  6
CONTINUOUS
 62
     7
 10
146.2541006034
 20
91.9889391419
 30
0.0
  0
VERTEX
  5
264
  8
VISIBLE
  6
CONTINUOUS
 62
     7
 10
146.2633511508
 20
91.997809667
 30
0.0
  0
VERTEX
  5
265
  8
VISIBLE
  6
CONTINUOUS
 62
     7
 10
146.2727905109
 20
92.0069121362
 30
0.0
  0
VERTEX
  5
266
  8
VISIBLE
  6
CONTINUOUS
 62
     7
 10
146.282412701
 20
92.0162377745
 30
0.0
  0
VERTEX
  5
267
  8
VISIBLE
  6
CONTINUOUS
 62
     7
 10
146.2922117385
 20
92.0257778071
 30
0.0
  0
VERTEX
  5
268
  8
VISIBLE
  6
CONTINUOUS
 62
     7
 10
146.3021816411
 20
92.0355234591
 30
0.0
  0
VERTEX
  5
269
  8
VISIBLE
  6
CONTINUOUS
 62
     7
 10
146.312316426
 20
92.0454659554
 30
0.0
  0
VERTEX
  5
26A
  8
VISIBLE
  6
CONTINUOUS
 62
     7
 10
146.3226101108
 20
92.0555965213
 30
0.0
  0
VERTEX
  5
26B
  8
VISIBLE
  6
CONTINUOUS
 62
     7
 10
146.3330567128
 20
92.0659063818
 30
0.0
  0
VERTEX
  5
26C
  8
VISIBLE
  6
CONTINUOUS
 62
     7
 10
146.3436502497
 20
92.076386762
 30
0.0
  0
VERTEX
  5
26D
  8
VISIBLE
  6
CONTINUOUS
 62
     7
 10
146.3543847387
 20
92.087028887
 30
0.0
  0
VERTEX
  5
26E
  8
VISIBLE
  6
CONTINUOUS
 62
     7
 10
146.3652541974
 20
92.0978239818
 30
0.0
  0
VERTEX
  5
26F
  8
VISIBLE
  6
CONTINUOUS
 62
     7
 10
146.3762526432
 20
92.1087632717
 30
0.0
  0
VERTEX
  5
270
  8
VISIBLE
  6
CONTINUOUS
 62
     7
 10
146.3873740935
 20
92.1198379815
 30
0.0
  0
VERTEX
  5
271
  8
VISIBLE
  6
CONTINUOUS
 62
     7
 10
146.3986125659
 20
92.1310393365
 30
0.0
  0
VERTEX
  5
272
  8
VISIBLE
  6
CONTINUOUS
 62
     7
 10
146.4099620777
 20
92.1423585617
 30
0.0
  0
SEQEND
  5
273
  8
VISIBLE
  6
CONTINUOUS
 62
     7
  0
LINE
  5
10C
  8
VISIBLE
  6
CONTINUOUS
 62
     7
 10
146.4099620777
 20
92.1423585617
 30
0.0
 11
146.4099620777
 21
92.3034913086
 31
0.0
  0
LINE
  5
10D
  8
VISIBLE
  6
CONTINUOUS
 62
     7
 10
145.6843124448
 20
67.3679365099
 30
0.0
 11
145.6099620777
 21
67.442286877
 31
0.0
  0
LINE
  5
10E
  8
VISIBLE
  6
CONTINUOUS
 62
     7
 10
145.6099620777
 20
67.442286877
 30
0.0
 11
142.3849620777
 21
67.442286877
 31
0.0
  0
CIRCLE
  5
10F
  8
VISIBLE
  6
CONTINUOUS
 62
     7
 10
142.3849620777
 20
79.942286877
 30
0.0
 40
2.0
  0
CIRCLE
  5
110
  8
VISIBLE
  6
CONTINUOUS
 62
     7
 10
142.3849620777
 20
79.942286877
 30
0.0
 40
4.8
  0
ARC
  5
111
  8
VISIBLE
  6
CONTINUOUS
 62
     7
 10
142.3849620777
 20
79.942286877
 30
0.0
 40
9.000000000000002
 50
237.2660444507
 51
242.7339555493
  0
CIRCLE
  5
112
  8
VISIBLE
  6
CONTINUOUS
 62
     7
 10
142.3849620777
 20
79.942286877
 30
0.0
 40
9.5
  0
ARC
  5
113
  8
VISIBLE
  6
CONTINUOUS
 62
     7
 10
142.3849620777
 20
79.942286877
 30
0.0
 40
9.000000000000004
 50
297.2660444507
 51
302.7339555493
  0
ARC
  5
114
  8
VISIBLE
  6
CONTINUOUS
 62
     7
 10
142.3849620777
 20
79.942286877
 30
0.0
 40
9.000000000000002
 50
357.2660444507
 51
2.7339555493
  0
ARC
  5
115
  8
VISIBLE
  6
CONTINUOUS
 62
     7
 10
142.3849620777
 20
79.942286877
 30
0.0
 40
9.000000000000004
 50
57.2660444507
 51
62.7339555493
  0
ARC
  5
116
  8
VISIBLE
  6
CONTINUOUS
 62
     7
 10
142.3849620777
 20
79.942286877
 30
0.0
 40
8.999999999999998
 50
117.2660444507
 51
122.7339555493
  0
ARC
  5
117
  8
VISIBLE
  6
CONTINUOUS
 62
     7
 10
142.3849620777
 20
79.942286877
 30
0.0
 40
9.000000000000005
 50
177.2660444507
 51
182.7339555493
  0
LINE
  5
118
  8
VISIBLE
  6
CONTINUOUS
 62
     7
 10
147.2516124952
 20
87.5130010913
 30
0.0
 11
151.3747181208
 21
80.3715726627
 31
0.0
  0
LINE
  5
119
  8
VISIBLE
  6
CONTINUOUS
 62
     7
 10
151.3747181208
 20
79.5130010913
 30
0.0
 11
147.2516124952
 21
72.3715726627
 31
0.0
  0
LINE
  5
11A
  8
VISIBLE
  6
CONTINUOUS
 62
     7
 10
146.5080677033
 20
71.942286877
 30
0.0
 11
138.2618564521
 21
71.942286877
 31
0.0
  0
LINE
  5
11B
  8
VISIBLE
  6
CONTINUOUS
 62
     7
 10
137.5183116602
 20
72.3715726627
 30
0.0
 11
133.3952060346
 21
79.5130010913
 31
0.0
  0
LINE
  5
11C
  8
VISIBLE
  6
CONTINUOUS
 62
     7
 10
133.3952060346
 20
80.3715726627
 30
0.0
 11
137.5183116602
 21
87.5130010913
 31
0.0
  0
LINE
  5
11D
  8
VISIBLE
  6
CONTINUOUS
 62
     7
 10
138.2618564521
 20
87.942286877
 30
0.0
 11
146.5080677033
 21
87.942286877
 31
0.0
  0
LINE
  5
11E
  8
STANDARD
  6
CENTER2
 62
     7
 10
143.6349620498
 20
79.942286877
 30
0.0
 11
141.1349621056
 21
79.942286877
 31
0.0
  0
LINE
  5
11F
  8
STANDARD
  6
CENTER2
 62
     7
 10
142.3849620777
 20
81.192286849
 30
0.0
 11
142.3849620777
 21
78.6922869049
 31
0.0
  0
LINE
  5
120
  8
STANDARD
  6
CENTER2
 62
     7
 10
144.2599620358
 20
79.942286877
 30
0.0
 11
159.1474620777
 21
79.942286877
 31
0.0
  0
LINE
  5
121
  8
STANDARD
  6
CENTER2
 62
     7
 10
142.3849620777
 20
81.8172868351
 30
0.0
 11
142.3849620777
 21
96.704786877
 31
0.0
  0
LINE
  5
122
  8
STANDARD
  6
CENTER2
 62
     7
 10
140.5099621196
 20
79.942286877
 30
0.0
 11
125.6224620777
 21
79.942286877
 31
0.0
  0
LINE
  5
123
  8
STANDARD
  6
CENTER2
 62
     7
 10
142.3849620777
 20
78.0672869189
 30
0.0
 11
142.3849620777
 21
63.179786877
 31
0.0
  0
ENDBLK
  5
125
  8
0
  0
BLOCK
  8
0
  2
GDIMGGROUP
 70
     0
 10
0.0
 20
0.0
 30
0.0
  3
GDIMGGROUP
  1

  0
POLYLINE
  5
128
  8
DEFAULT
  6
CONTINUOUS
 62
     7
 66
     1
 10
0.0
 20
0.0
 30
0.0
  0
VERTEX
  5
275
  8
DEFAULT
  6
CONTINUOUS
 62
     7
 10
26.123634602
 20
89.9422869329
 30
0.0
  0
VERTEX
  5
276
  8
DEFAULT
  6
CONTINUOUS
 62
     7
 10
26.9569679167
 20
89.9422869329
 30
0.0
  0
VERTEX
  5
277
  8
DEFAULT
  6
CONTINUOUS
 62
     7
 10
26.5403012594
 20
92.442286877
 30
0.0
  0
VERTEX
  5
278
  8
DEFAULT
  6
CONTINUOUS
 62
     7
 10
26.123634602
 20
89.9422869329
 30
0.0
  0
SEQEND
  5
274
  8
DEFAULT
  6
CONTINUOUS
 62
     7
  0
POLYLINE
  5
129
  8
DEFAULT
  6
CONTINUOUS
 62
     7
 66
     1
 10
0.0
 20
0.0
 30
0.0
  0
VERTEX
  5
27A
  8
DEFAULT
  6
CONTINUOUS
 62
     7
 10
26.123634602
 20
69.9422864486
 30
0.0
  0
VERTEX
  5
27B
  8
DEFAULT
  6
CONTINUOUS
 62
     7
 10
26.9569679167
 20
69.9422864486
 30
0.0
  0
VERTEX
  5
27C
  8
DEFAULT
  6
CONTINUOUS
 62
     7
 10
26.5403012594
 20
67.4422865045
 30
0.0
  0
VERTEX
  5
27D
  8
DEFAULT
  6
CONTINUOUS
 62
     7
 10
26.123634602
 20
69.9422864486
 30
0.0
  0
SEQEND
  5
279
  8
DEFAULT
  6
CONTINUOUS
 62
     7
  0
LINE
  5
12A
  8
DEFAULT
  6
CONTINUOUS
 62
     7
 10
38.3898918365
 20
92.442286877
 30
0.0
 11
25.2903012873
 21
92.442286877
 31
0.0
  0
LINE
  5
12B
  8
DEFAULT
  6
CONTINUOUS
 62
     7
 10
38.3898918365
 20
67.442286877
 30
0.0
 11
25.2903012873
 21
67.442286877
 31
0.0
  0
LINE
  5
12C
  8
DEFAULT
  6
CONTINUOUS
 62
     7
 10
26.5403012594
 20
92.442286877
 30
0.0
 11
26.5403012594
 21
67.4422865045
 31
0.0
  0
TEXT
  5
12D
  8
DEFAULT
  6
CONTINUOUS
 62
     7
 10
25.9153012594
 20
80.2862035481
 30
0.0
 40
2.5
  1
50
 50
90.0
  7
SEACAD_ARIAL_TTF
 11
23.4153012594
 21
80.2862035481
 31
0.0
 73
     3
  0
TEXT
  5
12F
  8
DEFAULT
  6
CONTINUOUS
 62
     7
 10
25.9153012594
 20
75.6853263551
 30
0.0
 40
2.5
  1
O
 50
90.0
  7
SEACAD_SEMECA1_TTF
 11
23.4153012594
 21
75.6853263551
 31
0.0
 73
     3
  0
ENDBLK
  5
131
  8
0
  0
BLOCK
  8
0
  2
GDIMGGROUP1
 70
     0
 10
0.0
 20
0.0
 30
0.0
  3
GDIMGGROUP1
  1

  0
POLYLINE
  5
134
  8
DEFAULT
  6
CONTINUOUS
 62
     7
 66
     1
 10
0.0
 20
0.0
 30
0.0
  0
VERTEX
  5
27F
  8
DEFAULT
  6
CONTINUOUS
 62
     7
 10
40.3898917807
 20
55.5490941008
 30
0.0
  0
VERTEX
  5
280
  8
DEFAULT
  6
CONTINUOUS
 62
     7
 10
40.3898917807
 20
56.3824274155
 30
0.0
  0
VERTEX
  5
281
  8
DEFAULT
  6
CONTINUOUS
 62
     7
 10
37.8898918365
 20
55.9657607582
 30
0.0
  0
VERTEX
  5
282
  8
DEFAULT
  6
CONTINUOUS
 62
     7
 10
40.3898917807
 20
55.5490941008
 30
0.0
  0
SEQEND
  5
27E
  8
DEFAULT
  6
CONTINUOUS
 62
     7
  0
POLYLINE
  5
135
  8
DEFAULT
  6
CONTINUOUS
 62
     7
 66
     1
 10
0.0
 20
0.0
 30
0.0
  0
VERTEX
  5
284
  8
DEFAULT
  6
CONTINUOUS
 62
     7
 10
55.3898914454
 20
55.5490941008
 30
0.0
  0
VERTEX
  5
285
  8
DEFAULT
  6
CONTINUOUS
 62
     7
 10
55.3898914454
 20
56.3824274155
 30
0.0
  0
VERTEX
  5
286
  8
DEFAULT
  6
CONTINUOUS
 62
     7
 10
57.8898913895
 20
55.9657607582
 30
0.0
  0
VERTEX
  5
287
  8
DEFAULT
  6
CONTINUOUS
 62
     7
 10
55.3898914454
 20
55.5490941008
 30
0.0
  0
SEQEND
  5
283
  8
DEFAULT
  6
CONTINUOUS
 62
     7
  0
LINE
  5
136
  8
DEFAULT
  6
CONTINUOUS
 62
     7
 10
37.8898918365
 20
67.942286877
 30
0.0
 11
37.8898918365
 21
54.7157607861
 31
0.0
  0
LINE
  5
137
  8
DEFAULT
  6
CONTINUOUS
 62
     7
 10
57.8898918365
 20
68.829786877
 30
0.0
 11
57.8898918365
 21
54.7157607861
 31
0.0
  0
LINE
  5
138
  8
DEFAULT
  6
CONTINUOUS
 62
     7
 10
37.8898918365
 20
55.9657607582
 30
0.0
 11
57.8898913895
 21
55.9657607582
 31
0.0
  0
TEXT
  5
139
  8
DEFAULT
  6
CONTINUOUS
 62
     7
 10
45.9333698739
 20
56.5907607582
 30
0.0
 40
2.5
  1
40
  7
SEACAD_ARIAL_TTF
 11
45.9333698739
 21
59.0907607582
 31
0.0
 73
     3
  0
ENDBLK
  5
13B
  8
0
  0
ENDSEC
  0
SECTION
  2
ENTITIES
  0
INSERT
  5
5F
  8
DEFAULT
  2
SEANNOT_GROUP
 10
0.0
 20
0.0
 30
0.0
  0
INSERT
  5
68
  8
DEFAULT
  2
SE
 10
0.0
 20
0.0
 30
0.0
  0
INSERT
  5
F6
  8
DEFAULT
  2
SE1
 10
0.0
 20
0.0
 30
0.0
  0
INSERT
  5
127
  8
DEFAULT
  2
GDIMGGROUP
 10
0.0
 20
0.0
 30
0.0
  0
INSERT
  5
133
  8
DEFAULT
  2
GDIMGGROUP1
 10
0.0
 20
0.0
 30
0.0
  0
ENDSEC
  0
EOF
