  0
SECTION
  2
HEADER
  9
$ACADVER
  1
AC1009
  9
$DWGCODEPAGE
  3
ansi_1252
  9
$INSBASE
 10
0.0
 20
0.0
 30
0.0
  9
$EXTMIN
 10
0.0
 20
0.0
 30
0.0
  9
$EXTMAX
 10
180.0
 20
160.0
 30
0.0
  9
$LIMMIN
 10
0.0
 20
0.0
  9
$LIMMAX
 10
180.0
 20
160.0
  9
$ORTHOMODE
 70
     0
  9
$REGENMODE
 70
     1
  9
$FILLMODE
 70
     1
  9
$QTEXTMODE
 70
     0
  9
$MIRRTEXT
 70
     1
  9
$DRAGMODE
 70
     2
  9
$LTSCALE
 40
1.0
  9
$OSMODE
 70
    37
  9
$ATTMODE
 70
     1
  9
$TEXTSIZE
 40
2.5
  9
$TRACEWID
 40
1.0
  9
$TEXTSTYLE
  7
STANDARD
  9
$CLAYER
  8
0
  9
$CELTYPE
  6
BYLAYER
  9
$CECOLOR
 62
   256
  9
$DIMSCALE
 40
1.0
  9
$DIMASZ
 40
2.5
  9
$DIMEXO
 40
0.625
  9
$DIMDLI
 40
3.75
  9
$DIMRND
 40
0.0
  9
$DIMDLE
 40
0.0
  9
$DIMEXE
 40
1.25
  9
$DIMTP
 40
0.0
  9
$DIMTM
 40
0.0
  9
$DIMTXT
 40
2.5
  9
$DIMCEN
 40
2.5
  9
$DIMTSZ
 40
0.0
  9
$DIMTOL
 70
     0
  9
$DIMLIM
 70
     0
  9
$DIMTIH
 70
     0
  9
$DIMTOH
 70
     0
  9
$DIMSE1
 70
     0
  9
$DIMSE2
 70
     0
  9
$DIMTAD
 70
     1
  9
$DIMZIN
 70
     8
  9
$DIMBLK
  1

  9
$DIMASO
 70
     1
  9
$DIMSHO
 70
     1
  9
$DIMPOST
  1

  9
$DIMAPOST
  1

  9
$DIMALT
 70
     0
  9
$DIMALTD
 70
     3
  9
$DIMALTF
 40
0.0393700787
  9
$DIMLFAC
 40
1.0
  9
$DIMTOFL
 70
     1
  9
$DIMTVP
 40
0.0
  9
$DIMTIX
 70
     0
  9
$DIMSOXD
 70
     0
  9
$DIMSAH
 70
     0
  9
$DIMBLK1
  1

  9
$DIMBLK2
  1

  9
$DIMSTYLE
  2
ISO-25
  9
$DIMCLRD
 70
     0
  9
$DIMCLRE
 70
     0
  9
$DIMCLRT
 70
     0
  9
$DIMTFAC
 40
1.0
  9
$DIMGAP
 40
0.625
  9
$LUNITS
 70
     2
  9
$LUPREC
 70
     4
  9
$SKETCHINC
 40
1.0
  9
$FILLETRAD
 40
10.0
  9
$AUNITS
 70
     0
  9
$AUPREC
 70
     0
  9
$MENU
  1
.
  9
$ELEVATION
 40
0.0
  9
$PELEVATION
 40
0.0
  9
$THICKNESS
 40
0.0
  9
$LIMCHECK
 70
     0
  9
$CHAMFERA
 40
10.0
  9
$CHAMFERB
 40
10.0
  9
$SKPOLY
 70
     0
  9
$TDCREATE
 40
2456136.379934641
  9
$TDUPDATE
 40
2456136.379934653
  9
$TDINDWG
 40
0.0000000116
  9
$TDUSRTIMER
 40
0.0000000116
  9
$USRTIMER
 70
     1
  9
$ANGBASE
 50
0.0
  9
$ANGDIR
 70
     0
  9
$PDMODE
 70
     0
  9
$PDSIZE
 40
0.0
  9
$PLINEWID
 40
0.0
  9
$COORDS
 70
     1
  9
$SPLFRAME
 70
     0
  9
$SPLINETYPE
 70
     6
  9
$SPLINESEGS
 70
     8
  9
$ATTDIA
 70
     0
  9
$ATTREQ
 70
     1
  9
$HANDLING
 70
     1
  9
$HANDSEED
  5
246
  9
$SURFTAB1
 70
     6
  9
$SURFTAB2
 70
     6
  9
$SURFTYPE
 70
     6
  9
$SURFU
 70
     6
  9
$SURFV
 70
     6
  9
$UCSNAME
  2

  9
$UCSORG
 10
0.0
 20
0.0
 30
0.0
  9
$UCSXDIR
 10
1.0
 20
0.0
 30
0.0
  9
$UCSYDIR
 10
0.0
 20
1.0
 30
0.0
  9
$PUCSNAME
  2

  9
$PUCSORG
 10
0.0
 20
0.0
 30
0.0
  9
$PUCSXDIR
 10
1.0
 20
0.0
 30
0.0
  9
$PUCSYDIR
 10
0.0
 20
1.0
 30
0.0
  9
$USERI1
 70
     0
  9
$USERI2
 70
     0
  9
$USERI3
 70
     0
  9
$USERI4
 70
     0
  9
$USERI5
 70
     0
  9
$USERR1
 40
0.0
  9
$USERR2
 40
0.0
  9
$USERR3
 40
0.0
  9
$USERR4
 40
0.0
  9
$USERR5
 40
0.0
  9
$WORLDVIEW
 70
     1
  9
$SHADEDGE
 70
     3
  9
$SHADEDIF
 70
    70
  9
$TILEMODE
 70
     1
  9
$MAXACTVP
 70
    64
  9
$PLIMCHECK
 70
     0
  9
$PEXTMIN
 10
0.0
 20
0.0
 30
0.0
  9
$PEXTMAX
 10
180.0
 20
160.0
 30
0.0
  9
$PLIMMIN
 10
0.0
 20
0.0
  9
$PLIMMAX
 10
180.0
 20
160.0
  9
$UNITMODE
 70
     0
  9
$VISRETAIN
 70
     1
  9
$PLINEGEN
 70
     0
  9
$PSLTSCALE
 70
     1
  0
ENDSEC
  0
SECTION
  2
TABLES
  0
TABLE
  2
VPORT
 70
     1
  0
VPORT
  2
*ACTIVE
 70
     0
 10
0.0
 20
0.0
 11
1.0
 21
1.0
 12
344.1869158879
 22
148.5
 13
0.0
 23
0.0
 14
10.0
 24
10.0
 15
10.0
 25
10.0
 16
0.0
 26
0.0
 36
1.0
 17
0.0
 27
0.0
 37
0.0
 40
297.0
 41
1.9729729729
 42
50.0
 43
0.0
 44
0.0
 50
0.0
 51
0.0
 71
     0
 72
   100
 73
     1
 74
     3
 75
     0
 76
     0
 77
     0
 78
     0
  0
ENDTAB
  0
TABLE
  2
LTYPE
 70
     3
  0
LTYPE
  2
CONTINUOUS
 70
     0
  3
Solid line
 72
    65
 73
     0
 40
0.0
  0
LTYPE
  2
HIDDEN2
 70
     0
  3
Hidden (.5x) _ _ _ _ _ _ _ _ _ _ _ _ _ _ _ _ _ 
 72
    65
 73
     2
 40
4.7625
 49
3.175
 49
-1.5875
  0
LTYPE
  2
DASHDOT2
 70
     0
  3
Dash dot (.5x) _._._._._._._._._._._._._._._.
 72
    65
 73
     4
 40
12.7
 49
6.35
 49
-3.175
 49
0.0
 49
-3.175
  0
ENDTAB
  0
TABLE
  2
LAYER
 70
     5
  0
LAYER
  2
0
 70
     0
 62
     7
  6
CONTINUOUS
  0
LAYER
  2
DEFAULT
 70
     0
 62
     7
  6
CONTINUOUS
  0
LAYER
  2
VISIBLE
 70
     0
 62
     7
  6
CONTINUOUS
  0
LAYER
  2
HIDDEN
 70
     0
 62
     7
  6
CONTINUOUS
  0
LAYER
  2
STANDARD
 70
     0
 62
     7
  6
CONTINUOUS
  0
ENDTAB
  0
TABLE
  2
STYLE
 70
     3
  0
STYLE
  2
STANDARD
 70
     0
 40
0.0
 41
1.0
 50
0.0
 71
     0
 42
2.5
  3
txt
  4

  0
STYLE
  2
SEACAD_ARIAL_TTF
 70
     0
 40
0.0
 41
1.0
 50
0.0
 71
     0
 42
0.2
  3
arial.ttf
  4

  0
STYLE
  2
SEACAD_SEMECA1_TTF
 70
     0
 40
0.0
 41
1.0
 50
0.0
 71
     0
 42
0.2
  3
semeca1.ttf
  4

  0
ENDTAB
  0
TABLE
  2
VIEW
 70
     0
  0
ENDTAB
  0
TABLE
  2
UCS
 70
     0
  0
ENDTAB
  0
TABLE
  2
APPID
 70
     1
  0
APPID
  2
ACAD
 70
     0
  0
ENDTAB
  0
TABLE
  2
DIMSTYLE
 70
     1
  0
DIMSTYLE
  2
ISO-25
 70
     0
  3

  4

  5

  6

  7

 40
1.0
 41
2.5
 42
0.625
 43
3.75
 44
1.25
 45
0.0
 46
0.0
 47
0.0
 48
0.0
140
2.5
141
2.5
142
0.0
143
0.0393700787
144
1.0
145
0.0
146
1.0
147
0.625
 71
     0
 72
     0
 73
     0
 74
     0
 75
     0
 76
     0
 77
     1
 78
     8
170
     0
171
     3
172
     1
173
     0
174
     0
175
     0
176
     0
177
     0
178
     0
  0
ENDTAB
  0
ENDSEC
  0
SECTION
  2
BLOCKS
  0
BLOCK
  8
0
  2
$MODEL_SPACE
 70
     0
 10
0.0
 20
0.0
 30
0.0
  3
$MODEL_SPACE
  1

  0
ENDBLK
  5
21
  8
0
  0
BLOCK
 67
     1
  8
0
  2
$PAPER_SPACE
 70
     0
 10
0.0
 20
0.0
 30
0.0
  3
$PAPER_SPACE
  1

  0
ENDBLK
  5
1D
 67
     1
  8
0
  0
BLOCK
  8
0
  2
SEANNOT_GROUP
 70
     0
 10
0.0
 20
0.0
 30
0.0
  3
SEANNOT_GROUP
  1

  0
POLYLINE
  5
60
  8
DEFAULT
  6
CONTINUOUS
 62
     7
 66
     1
 10
0.0
 20
0.0
 30
0.0
  0
VERTEX
  5
13B
  8
DEFAULT
  6
CONTINUOUS
 62
     7
 10
73.5252176655
 20
103.0393986402
 30
0.0
  0
VERTEX
  5
13C
  8
DEFAULT
  6
CONTINUOUS
 62
     7
 10
68.0002129477
 20
94.8535950373
 30
0.0
  0
SEQEND
  5
13A
  8
DEFAULT
  6
CONTINUOUS
 62
     7
  0
POLYLINE
  5
61
  8
DEFAULT
  6
CONTINUOUS
 62
     7
 66
     1
 10
0.0
 20
0.0
 30
0.0
  0
VERTEX
  5
13E
  8
DEFAULT
  6
CONTINUOUS
 62
     7
 10
69.0534615988
 20
97.158866844
 30
0.0
  0
VERTEX
  5
13F
  8
DEFAULT
  6
CONTINUOUS
 62
     7
 10
69.7441849604
 20
96.6926634
 30
0.0
  0
VERTEX
  5
140
  8
DEFAULT
  6
CONTINUOUS
 62
     7
 10
68.0002129477
 20
94.8535950373
 30
0.0
  0
VERTEX
  5
141
  8
DEFAULT
  6
CONTINUOUS
 62
     7
 10
69.0534615988
 20
97.158866844
 30
0.0
  0
SEQEND
  5
13D
  8
DEFAULT
  6
CONTINUOUS
 62
     7
  0
LINE
  5
62
  8
DEFAULT
  6
CONTINUOUS
 62
     7
 10
73.5252176655
 20
103.0393986402
 30
0.0
 11
101.1882611438
 21
103.0393986402
 31
0.0
  0
TEXT
  5
64
  8
DEFAULT
  6
CONTINUOUS
 62
     7
 10
73.5252176655
 20
103.6643986402
 30
0.0
 40
2.5
  1
SK50 DIN69871A
  7
SEACAD_ARIAL_TTF
 11
73.5252176655
 21
106.1643986402
 31
0.0
 73
     3
  0
ENDBLK
  5
66
  8
0
  0
BLOCK
  8
0
  2
SE
 70
     0
 10
0.0
 20
0.0
 30
0.0
  3
SE
  1

  0
LINE
  5
6A
  8
VISIBLE
  6
CONTINUOUS
 62
     7
 10
49.0424096186
 20
56.357805358
 30
0.0
 11
49.0424096186
 21
60.6577478133
 31
0.0
  0
LINE
  5
6B
  8
VISIBLE
  6
CONTINUOUS
 62
     7
 10
46.0305301618
 20
57.5913367031
 30
0.0
 11
46.0305301618
 21
62.1887489172
 31
0.0
  0
LINE
  5
6C
  8
VISIBLE
  6
CONTINUOUS
 62
     7
 10
44.1542890755
 20
57.5913367031
 30
0.0
 11
44.1542890755
 21
62.1887489172
 31
0.0
  0
LINE
  5
6D
  8
VISIBLE
  6
CONTINUOUS
 62
     7
 10
41.0924096186
 20
56.357805358
 30
0.0
 11
41.0924096186
 21
60.6577478133
 31
0.0
  0
LINE
  5
6E
  8
VISIBLE
  6
CONTINUOUS
 62
     7
 10
50.6424096186
 20
97.3332804994
 30
0.0
 11
50.6424096186
 21
62.4082804994
 31
0.0
  0
LINE
  5
71
  8
HIDDEN
  6
HIDDEN2
 62
     7
 10
95.7674096186
 20
86.1207804994
 30
0.0
 11
95.7674096186
 21
73.6207804994
 31
0.0
  0
LINE
  5
72
  8
HIDDEN
  6
HIDDEN2
 62
     7
 10
95.1292956412
 20
85.0587804994
 30
0.0
 11
95.1292956412
 21
74.6827804994
 31
0.0
  0
LINE
  5
73
  8
HIDDEN
  6
HIDDEN2
 62
     7
 10
69.0174096186
 20
85.0587804994
 30
0.0
 11
69.0174096186
 21
74.6827804994
 31
0.0
  0
LINE
  5
74
  8
HIDDEN
  6
HIDDEN2
 62
     7
 10
100.6513842148
 20
73.6207804994
 30
0.0
 11
100.6513842148
 21
86.1207804994
 31
0.0
  0
LINE
  5
75
  8
VISIBLE
  6
CONTINUOUS
 62
     7
 10
101.5174096186
 20
70.7602548064
 30
0.0
 11
101.5174096186
 21
88.9813061925
 31
0.0
  0
LINE
  5
76
  8
VISIBLE
  6
CONTINUOUS
 62
     7
 10
41.0924096186
 20
56.357805358
 30
0.0
 11
43.4686119865
 21
56.357805358
 31
0.0
  0
POLYLINE
  5
77
  8
VISIBLE
  6
CONTINUOUS
 62
     7
 66
     1
 10
0.0
 20
0.0
 30
0.0
  0
VERTEX
  5
142
  8
VISIBLE
  6
CONTINUOUS
 62
     7
 10
43.4686119865
 20
56.357805358
 30
0.0
  0
VERTEX
  5
143
  8
VISIBLE
  6
CONTINUOUS
 62
     7
 10
43.4972220448
 20
56.4091800654
 30
0.0
  0
VERTEX
  5
144
  8
VISIBLE
  6
CONTINUOUS
 62
     7
 10
43.5258287858
 20
56.4605566479
 30
0.0
  0
VERTEX
  5
145
  8
VISIBLE
  6
CONTINUOUS
 62
     7
 10
43.5544321854
 20
56.5119351157
 30
0.0
  0
VERTEX
  5
146
  8
VISIBLE
  6
CONTINUOUS
 62
     7
 10
43.5830322196
 20
56.5633154793
 30
0.0
  0
VERTEX
  5
147
  8
VISIBLE
  6
CONTINUOUS
 62
     7
 10
43.6116288643
 20
56.6146977488
 30
0.0
  0
VERTEX
  5
148
  8
VISIBLE
  6
CONTINUOUS
 62
     7
 10
43.6402220953
 20
56.6660819347
 30
0.0
  0
VERTEX
  5
149
  8
VISIBLE
  6
CONTINUOUS
 62
     7
 10
43.6688118887
 20
56.7174680471
 30
0.0
  0
VERTEX
  5
14A
  8
VISIBLE
  6
CONTINUOUS
 62
     7
 10
43.6973982203
 20
56.7688560965
 30
0.0
  0
VERTEX
  5
14B
  8
VISIBLE
  6
CONTINUOUS
 62
     7
 10
43.7259810661
 20
56.820246093
 30
0.0
  0
VERTEX
  5
14C
  8
VISIBLE
  6
CONTINUOUS
 62
     7
 10
43.7545604019
 20
56.8716380469
 30
0.0
  0
VERTEX
  5
14D
  8
VISIBLE
  6
CONTINUOUS
 62
     7
 10
43.7831362038
 20
56.9230319687
 30
0.0
  0
VERTEX
  5
14E
  8
VISIBLE
  6
CONTINUOUS
 62
     7
 10
43.8117084475
 20
56.9744278685
 30
0.0
  0
VERTEX
  5
14F
  8
VISIBLE
  6
CONTINUOUS
 62
     7
 10
43.8402771091
 20
57.0258257566
 30
0.0
  0
VERTEX
  5
150
  8
VISIBLE
  6
CONTINUOUS
 62
     7
 10
43.8688421644
 20
57.0772256435
 30
0.0
  0
VERTEX
  5
151
  8
VISIBLE
  6
CONTINUOUS
 62
     7
 10
43.8974035894
 20
57.1286275393
 30
0.0
  0
VERTEX
  5
152
  8
VISIBLE
  6
CONTINUOUS
 62
     7
 10
43.9259613599
 20
57.1800314543
 30
0.0
  0
VERTEX
  5
153
  8
VISIBLE
  6
CONTINUOUS
 62
     7
 10
43.954515452
 20
57.2314373989
 30
0.0
  0
VERTEX
  5
154
  8
VISIBLE
  6
CONTINUOUS
 62
     7
 10
43.9830658414
 20
57.2828453833
 30
0.0
  0
VERTEX
  5
155
  8
VISIBLE
  6
CONTINUOUS
 62
     7
 10
44.0116125042
 20
57.3342554178
 30
0.0
  0
VERTEX
  5
156
  8
VISIBLE
  6
CONTINUOUS
 62
     7
 10
44.0401554163
 20
57.3856675128
 30
0.0
  0
VERTEX
  5
157
  8
VISIBLE
  6
CONTINUOUS
 62
     7
 10
44.0686945535
 20
57.4370816786
 30
0.0
  0
VERTEX
  5
158
  8
VISIBLE
  6
CONTINUOUS
 62
     7
 10
44.0972298919
 20
57.4884979253
 30
0.0
  0
VERTEX
  5
159
  8
VISIBLE
  6
CONTINUOUS
 62
     7
 10
44.1257614072
 20
57.5399162634
 30
0.0
  0
VERTEX
  5
15A
  8
VISIBLE
  6
CONTINUOUS
 62
     7
 10
44.1542890755
 20
57.5913367031
 30
0.0
  0
SEQEND
  5
15B
  8
VISIBLE
  6
CONTINUOUS
 62
     7
  0
LINE
  5
78
  8
VISIBLE
  6
CONTINUOUS
 62
     7
 10
44.1542890755
 20
57.9817528543
 30
0.0
 11
46.0305301618
 21
57.9817528543
 31
0.0
  0
POLYLINE
  5
79
  8
VISIBLE
  6
CONTINUOUS
 62
     7
 66
     1
 10
0.0
 20
0.0
 30
0.0
  0
VERTEX
  5
15C
  8
VISIBLE
  6
CONTINUOUS
 62
     7
 10
46.0305301618
 20
57.5913367031
 30
0.0
  0
VERTEX
  5
15D
  8
VISIBLE
  6
CONTINUOUS
 62
     7
 10
46.0590578301
 20
57.5399162634
 30
0.0
  0
VERTEX
  5
15E
  8
VISIBLE
  6
CONTINUOUS
 62
     7
 10
46.0875893454
 20
57.4884979253
 30
0.0
  0
VERTEX
  5
15F
  8
VISIBLE
  6
CONTINUOUS
 62
     7
 10
46.1161246837
 20
57.4370816786
 30
0.0
  0
VERTEX
  5
160
  8
VISIBLE
  6
CONTINUOUS
 62
     7
 10
46.1446638209
 20
57.3856675128
 30
0.0
  0
VERTEX
  5
161
  8
VISIBLE
  6
CONTINUOUS
 62
     7
 10
46.173206733
 20
57.3342554178
 30
0.0
  0
VERTEX
  5
162
  8
VISIBLE
  6
CONTINUOUS
 62
     7
 10
46.2017533958
 20
57.2828453833
 30
0.0
  0
VERTEX
  5
163
  8
VISIBLE
  6
CONTINUOUS
 62
     7
 10
46.2303037853
 20
57.2314373989
 30
0.0
  0
VERTEX
  5
164
  8
VISIBLE
  6
CONTINUOUS
 62
     7
 10
46.2588578773
 20
57.1800314543
 30
0.0
  0
VERTEX
  5
165
  8
VISIBLE
  6
CONTINUOUS
 62
     7
 10
46.2874156479
 20
57.1286275393
 30
0.0
  0
VERTEX
  5
166
  8
VISIBLE
  6
CONTINUOUS
 62
     7
 10
46.3159770729
 20
57.0772256435
 30
0.0
  0
VERTEX
  5
167
  8
VISIBLE
  6
CONTINUOUS
 62
     7
 10
46.3445421282
 20
57.0258257566
 30
0.0
  0
VERTEX
  5
168
  8
VISIBLE
  6
CONTINUOUS
 62
     7
 10
46.3731107897
 20
56.9744278685
 30
0.0
  0
VERTEX
  5
169
  8
VISIBLE
  6
CONTINUOUS
 62
     7
 10
46.4016830335
 20
56.9230319687
 30
0.0
  0
VERTEX
  5
16A
  8
VISIBLE
  6
CONTINUOUS
 62
     7
 10
46.4302588353
 20
56.8716380469
 30
0.0
  0
VERTEX
  5
16B
  8
VISIBLE
  6
CONTINUOUS
 62
     7
 10
46.4588381711
 20
56.820246093
 30
0.0
  0
VERTEX
  5
16C
  8
VISIBLE
  6
CONTINUOUS
 62
     7
 10
46.4874210169
 20
56.7688560965
 30
0.0
  0
VERTEX
  5
16D
  8
VISIBLE
  6
CONTINUOUS
 62
     7
 10
46.5160073485
 20
56.7174680471
 30
0.0
  0
VERTEX
  5
16E
  8
VISIBLE
  6
CONTINUOUS
 62
     7
 10
46.5445971419
 20
56.6660819347
 30
0.0
  0
VERTEX
  5
16F
  8
VISIBLE
  6
CONTINUOUS
 62
     7
 10
46.573190373
 20
56.6146977488
 30
0.0
  0
VERTEX
  5
170
  8
VISIBLE
  6
CONTINUOUS
 62
     7
 10
46.6017870177
 20
56.5633154793
 30
0.0
  0
VERTEX
  5
171
  8
VISIBLE
  6
CONTINUOUS
 62
     7
 10
46.6303870518
 20
56.5119351157
 30
0.0
  0
VERTEX
  5
172
  8
VISIBLE
  6
CONTINUOUS
 62
     7
 10
46.6589904515
 20
56.4605566479
 30
0.0
  0
VERTEX
  5
173
  8
VISIBLE
  6
CONTINUOUS
 62
     7
 10
46.6875971925
 20
56.4091800654
 30
0.0
  0
VERTEX
  5
174
  8
VISIBLE
  6
CONTINUOUS
 62
     7
 10
46.7162072507
 20
56.357805358
 30
0.0
  0
SEQEND
  5
175
  8
VISIBLE
  6
CONTINUOUS
 62
     7
  0
LINE
  5
7A
  8
VISIBLE
  6
CONTINUOUS
 62
     7
 10
46.7162072507
 20
56.357805358
 30
0.0
 11
49.0424096186
 21
56.357805358
 31
0.0
  0
LINE
  5
7B
  8
VISIBLE
  6
CONTINUOUS
 62
     7
 10
49.0867226154
 20
97.6207804994
 30
0.0
 11
49.0898125468
 21
97.6207804994
 31
0.0
  0
LINE
  5
7C
  8
VISIBLE
  6
CONTINUOUS
 62
     7
 10
43.4686119865
 20
103.3837556408
 30
0.0
 11
41.0924096186
 21
103.3837556408
 31
0.0
  0
LINE
  5
7D
  8
VISIBLE
  6
CONTINUOUS
 62
     7
 10
49.0424096186
 20
103.3837556408
 30
0.0
 11
46.7162072507
 21
103.3837556408
 31
0.0
  0
POLYLINE
  5
7E
  8
VISIBLE
  6
CONTINUOUS
 62
     7
 66
     1
 10
0.0
 20
0.0
 30
0.0
  0
VERTEX
  5
176
  8
VISIBLE
  6
CONTINUOUS
 62
     7
 10
46.7162072507
 20
103.3837556408
 30
0.0
  0
VERTEX
  5
177
  8
VISIBLE
  6
CONTINUOUS
 62
     7
 10
46.6875969795
 20
103.3323805511
 30
0.0
  0
VERTEX
  5
178
  8
VISIBLE
  6
CONTINUOUS
 62
     7
 10
46.6589900521
 20
103.2810036338
 30
0.0
  0
VERTEX
  5
179
  8
VISIBLE
  6
CONTINUOUS
 62
     7
 10
46.6303864916
 20
103.2296248768
 30
0.0
  0
VERTEX
  5
17A
  8
VISIBLE
  6
CONTINUOUS
 62
     7
 10
46.6017863208
 20
103.1782442679
 30
0.0
  0
VERTEX
  5
17B
  8
VISIBLE
  6
CONTINUOUS
 62
     7
 10
46.5731895629
 20
103.1268617947
 30
0.0
  0
VERTEX
  5
17C
  8
VISIBLE
  6
CONTINUOUS
 62
     7
 10
46.5445962407
 20
103.075477445
 30
0.0
  0
VERTEX
  5
17D
  8
VISIBLE
  6
CONTINUOUS
 62
     7
 10
46.5160063773
 20
103.0240912065
 30
0.0
  0
VERTEX
  5
17E
  8
VISIBLE
  6
CONTINUOUS
 62
     7
 10
46.4874199956
 20
102.9727030671
 30
0.0
  0
VERTEX
  5
17F
  8
VISIBLE
  6
CONTINUOUS
 62
     7
 10
46.4588371187
 20
102.9213130143
 30
0.0
  0
VERTEX
  5
180
  8
VISIBLE
  6
CONTINUOUS
 62
     7
 10
46.4302577694
 20
102.869921036
 30
0.0
  0
VERTEX
  5
181
  8
VISIBLE
  6
CONTINUOUS
 62
     7
 10
46.4016819709
 20
102.81852712
 30
0.0
  0
VERTEX
  5
182
  8
VISIBLE
  6
CONTINUOUS
 62
     7
 10
46.3731097461
 20
102.7671312539
 30
0.0
  0
VERTEX
  5
183
  8
VISIBLE
  6
CONTINUOUS
 62
     7
 10
46.3445411179
 20
102.7157334255
 30
0.0
  0
VERTEX
  5
184
  8
VISIBLE
  6
CONTINUOUS
 62
     7
 10
46.3159761094
 20
102.6643336225
 30
0.0
  0
VERTEX
  5
185
  8
VISIBLE
  6
CONTINUOUS
 62
     7
 10
46.2874147435
 20
102.6129318328
 30
0.0
  0
VERTEX
  5
186
  8
VISIBLE
  6
CONTINUOUS
 62
     7
 10
46.2588570433
 20
102.5615280439
 30
0.0
  0
VERTEX
  5
187
  8
VISIBLE
  6
CONTINUOUS
 62
     7
 10
46.2303030316
 20
102.5101222438
 30
0.0
  0
VERTEX
  5
188
  8
VISIBLE
  6
CONTINUOUS
 62
     7
 10
46.2017527316
 20
102.45871442
 30
0.0
  0
VERTEX
  5
189
  8
VISIBLE
  6
CONTINUOUS
 62
     7
 10
46.1732061661
 20
102.4073045604
 30
0.0
  0
VERTEX
  5
18A
  8
VISIBLE
  6
CONTINUOUS
 62
     7
 10
46.1446633582
 20
102.3558926527
 30
0.0
  0
VERTEX
  5
18B
  8
VISIBLE
  6
CONTINUOUS
 62
     7
 10
46.1161243308
 20
102.3044786847
 30
0.0
  0
VERTEX
  5
18C
  8
VISIBLE
  6
CONTINUOUS
 62
     7
 10
46.087589107
 20
102.253062644
 30
0.0
  0
VERTEX
  5
18D
  8
VISIBLE
  6
CONTINUOUS
 62
     7
 10
46.0590577096
 20
102.2016445185
 30
0.0
  0
VERTEX
  5
18E
  8
VISIBLE
  6
CONTINUOUS
 62
     7
 10
46.0305301618
 20
102.1502242958
 30
0.0
  0
SEQEND
  5
18F
  8
VISIBLE
  6
CONTINUOUS
 62
     7
  0
LINE
  5
7F
  8
VISIBLE
  6
CONTINUOUS
 62
     7
 10
46.0305301618
 20
101.7598081446
 30
0.0
 11
44.1542890755
 21
101.7598081446
 31
0.0
  0
POLYLINE
  5
80
  8
VISIBLE
  6
CONTINUOUS
 62
     7
 66
     1
 10
0.0
 20
0.0
 30
0.0
  0
VERTEX
  5
190
  8
VISIBLE
  6
CONTINUOUS
 62
     7
 10
44.1542890755
 20
102.1502242958
 30
0.0
  0
VERTEX
  5
191
  8
VISIBLE
  6
CONTINUOUS
 62
     7
 10
44.1257615276
 20
102.2016445185
 30
0.0
  0
VERTEX
  5
192
  8
VISIBLE
  6
CONTINUOUS
 62
     7
 10
44.0972301303
 20
102.253062644
 30
0.0
  0
VERTEX
  5
193
  8
VISIBLE
  6
CONTINUOUS
 62
     7
 10
44.0686949064
 20
102.3044786847
 30
0.0
  0
VERTEX
  5
194
  8
VISIBLE
  6
CONTINUOUS
 62
     7
 10
44.0401558791
 20
102.3558926527
 30
0.0
  0
VERTEX
  5
195
  8
VISIBLE
  6
CONTINUOUS
 62
     7
 10
44.0116130712
 20
102.4073045604
 30
0.0
  0
VERTEX
  5
196
  8
VISIBLE
  6
CONTINUOUS
 62
     7
 10
43.9830665057
 20
102.45871442
 30
0.0
  0
VERTEX
  5
197
  8
VISIBLE
  6
CONTINUOUS
 62
     7
 10
43.9545162056
 20
102.5101222438
 30
0.0
  0
VERTEX
  5
198
  8
VISIBLE
  6
CONTINUOUS
 62
     7
 10
43.925962194
 20
102.5615280439
 30
0.0
  0
VERTEX
  5
199
  8
VISIBLE
  6
CONTINUOUS
 62
     7
 10
43.8974044937
 20
102.6129318328
 30
0.0
  0
VERTEX
  5
19A
  8
VISIBLE
  6
CONTINUOUS
 62
     7
 10
43.8688431278
 20
102.6643336225
 30
0.0
  0
VERTEX
  5
19B
  8
VISIBLE
  6
CONTINUOUS
 62
     7
 10
43.8402781193
 20
102.7157334255
 30
0.0
  0
VERTEX
  5
19C
  8
VISIBLE
  6
CONTINUOUS
 62
     7
 10
43.8117094912
 20
102.7671312539
 30
0.0
  0
VERTEX
  5
19D
  8
VISIBLE
  6
CONTINUOUS
 62
     7
 10
43.7831372663
 20
102.81852712
 30
0.0
  0
VERTEX
  5
19E
  8
VISIBLE
  6
CONTINUOUS
 62
     7
 10
43.7545614678
 20
102.869921036
 30
0.0
  0
VERTEX
  5
19F
  8
VISIBLE
  6
CONTINUOUS
 62
     7
 10
43.7259821186
 20
102.9213130143
 30
0.0
  0
VERTEX
  5
1A0
  8
VISIBLE
  6
CONTINUOUS
 62
     7
 10
43.6973992416
 20
102.9727030671
 30
0.0
  0
VERTEX
  5
1A1
  8
VISIBLE
  6
CONTINUOUS
 62
     7
 10
43.66881286
 20
103.0240912065
 30
0.0
  0
VERTEX
  5
1A2
  8
VISIBLE
  6
CONTINUOUS
 62
     7
 10
43.6402229966
 20
103.075477445
 30
0.0
  0
VERTEX
  5
1A3
  8
VISIBLE
  6
CONTINUOUS
 62
     7
 10
43.6116296744
 20
103.1268617947
 30
0.0
  0
VERTEX
  5
1A4
  8
VISIBLE
  6
CONTINUOUS
 62
     7
 10
43.5830329164
 20
103.1782442679
 30
0.0
  0
VERTEX
  5
1A5
  8
VISIBLE
  6
CONTINUOUS
 62
     7
 10
43.5544327457
 20
103.2296248768
 30
0.0
  0
VERTEX
  5
1A6
  8
VISIBLE
  6
CONTINUOUS
 62
     7
 10
43.5258291851
 20
103.2810036338
 30
0.0
  0
VERTEX
  5
1A7
  8
VISIBLE
  6
CONTINUOUS
 62
     7
 10
43.4972222577
 20
103.3323805511
 30
0.0
  0
VERTEX
  5
1A8
  8
VISIBLE
  6
CONTINUOUS
 62
     7
 10
43.4686119865
 20
103.3837556408
 30
0.0
  0
SEQEND
  5
1A9
  8
VISIBLE
  6
CONTINUOUS
 62
     7
  0
LINE
  5
81
  8
VISIBLE
  6
CONTINUOUS
 62
     7
 10
49.0424096186
 20
64.8707804994
 30
0.0
 11
49.0424096186
 21
103.3837556408
 31
0.0
  0
LINE
  5
82
  8
VISIBLE
  6
CONTINUOUS
 62
     7
 10
49.0424096186
 20
60.6577478133
 30
0.0
 11
49.0424096186
 21
64.8707804994
 31
0.0
  0
LINE
  5
83
  8
VISIBLE
  6
CONTINUOUS
 62
     7
 10
46.0305301618
 20
64.8707804994
 30
0.0
 11
46.0305301618
 21
102.1502242958
 31
0.0
  0
LINE
  5
84
  8
VISIBLE
  6
CONTINUOUS
 62
     7
 10
44.1542890755
 20
64.8707804994
 30
0.0
 11
44.1542890755
 21
102.1502242958
 31
0.0
  0
LINE
  5
85
  8
VISIBLE
  6
CONTINUOUS
 62
     7
 10
41.0924096186
 20
64.8707804994
 30
0.0
 11
41.0924096186
 21
103.3837556408
 31
0.0
  0
LINE
  5
86
  8
VISIBLE
  6
CONTINUOUS
 62
     7
 10
41.0924096186
 20
64.8707804994
 30
0.0
 11
41.0924096186
 21
60.6577478133
 31
0.0
  0
LINE
  5
87
  8
VISIBLE
  6
CONTINUOUS
 62
     7
 10
41.0924096186
 20
60.6577478133
 30
0.0
 11
43.4686119865
 21
60.6577478133
 31
0.0
  0
POLYLINE
  5
88
  8
VISIBLE
  6
CONTINUOUS
 62
     7
 66
     1
 10
0.0
 20
0.0
 30
0.0
  0
VERTEX
  5
1AA
  8
VISIBLE
  6
CONTINUOUS
 62
     7
 10
43.4686119865
 20
60.6577478133
 30
0.0
  0
VERTEX
  5
1AB
  8
VISIBLE
  6
CONTINUOUS
 62
     7
 10
43.4975473231
 20
60.7213702512
 30
0.0
  0
VERTEX
  5
1AC
  8
VISIBLE
  6
CONTINUOUS
 62
     7
 10
43.5264534841
 20
60.7850087726
 30
0.0
  0
VERTEX
  5
1AD
  8
VISIBLE
  6
CONTINUOUS
 62
     7
 10
43.5553301147
 20
60.8486631915
 30
0.0
  0
VERTEX
  5
1AE
  8
VISIBLE
  6
CONTINUOUS
 62
     7
 10
43.5841768599
 20
60.9123333218
 30
0.0
  0
VERTEX
  5
1AF
  8
VISIBLE
  6
CONTINUOUS
 62
     7
 10
43.6129933645
 20
60.9760189777
 30
0.0
  0
VERTEX
  5
1B0
  8
VISIBLE
  6
CONTINUOUS
 62
     7
 10
43.6417792736
 20
61.039719973
 30
0.0
  0
VERTEX
  5
1B1
  8
VISIBLE
  6
CONTINUOUS
 62
     7
 10
43.6705342321
 20
61.1034361218
 30
0.0
  0
VERTEX
  5
1B2
  8
VISIBLE
  6
CONTINUOUS
 62
     7
 10
43.699257885
 20
61.1671672382
 30
0.0
  0
VERTEX
  5
1B3
  8
VISIBLE
  6
CONTINUOUS
 62
     7
 10
43.7279498774
 20
61.230913136
 30
0.0
  0
VERTEX
  5
1B4
  8
VISIBLE
  6
CONTINUOUS
 62
     7
 10
43.7566098541
 20
61.2946736295
 30
0.0
  0
VERTEX
  5
1B5
  8
VISIBLE
  6
CONTINUOUS
 62
     7
 10
43.7852374602
 20
61.3584485325
 30
0.0
  0
VERTEX
  5
1B6
  8
VISIBLE
  6
CONTINUOUS
 62
     7
 10
43.8138323406
 20
61.422237659
 30
0.0
  0
VERTEX
  5
1B7
  8
VISIBLE
  6
CONTINUOUS
 62
     7
 10
43.8423941404
 20
61.4860408232
 30
0.0
  0
VERTEX
  5
1B8
  8
VISIBLE
  6
CONTINUOUS
 62
     7
 10
43.8709225044
 20
61.5498578389
 30
0.0
  0
VERTEX
  5
1B9
  8
VISIBLE
  6
CONTINUOUS
 62
     7
 10
43.8994170777
 20
61.6136885203
 30
0.0
  0
VERTEX
  5
1BA
  8
VISIBLE
  6
CONTINUOUS
 62
     7
 10
43.9278775052
 20
61.6775326813
 30
0.0
  0
VERTEX
  5
1BB
  8
VISIBLE
  6
CONTINUOUS
 62
     7
 10
43.9563034319
 20
61.7413901359
 30
0.0
  0
VERTEX
  5
1BC
  8
VISIBLE
  6
CONTINUOUS
 62
     7
 10
43.9846945029
 20
61.8052606982
 30
0.0
  0
VERTEX
  5
1BD
  8
VISIBLE
  6
CONTINUOUS
 62
     7
 10
44.013050363
 20
61.8691441821
 30
0.0
  0
VERTEX
  5
1BE
  8
VISIBLE
  6
CONTINUOUS
 62
     7
 10
44.0413706573
 20
61.9330404017
 30
0.0
  0
VERTEX
  5
1BF
  8
VISIBLE
  6
CONTINUOUS
 62
     7
 10
44.0696550307
 20
61.996949171
 30
0.0
  0
VERTEX
  5
1C0
  8
VISIBLE
  6
CONTINUOUS
 62
     7
 10
44.0979031282
 20
62.060870304
 30
0.0
  0
VERTEX
  5
1C1
  8
VISIBLE
  6
CONTINUOUS
 62
     7
 10
44.1261145948
 20
62.1248036148
 30
0.0
  0
VERTEX
  5
1C2
  8
VISIBLE
  6
CONTINUOUS
 62
     7
 10
44.1542890755
 20
62.1887489172
 30
0.0
  0
SEQEND
  5
1C3
  8
VISIBLE
  6
CONTINUOUS
 62
     7
  0
LINE
  5
89
  8
VISIBLE
  6
CONTINUOUS
 62
     7
 10
44.1542890755
 20
62.1887489172
 30
0.0
 11
44.1542890755
 21
62.6832804994
 31
0.0
  0
LINE
  5
8A
  8
VISIBLE
  6
CONTINUOUS
 62
     7
 10
44.1542890755
 20
62.6832804994
 30
0.0
 11
46.0305301618
 21
62.6832804994
 31
0.0
  0
LINE
  5
8B
  8
VISIBLE
  6
CONTINUOUS
 62
     7
 10
46.0305301618
 20
62.6832804994
 30
0.0
 11
46.0305301618
 21
62.1887489172
 31
0.0
  0
POLYLINE
  5
8C
  8
VISIBLE
  6
CONTINUOUS
 62
     7
 66
     1
 10
0.0
 20
0.0
 30
0.0
  0
VERTEX
  5
1C4
  8
VISIBLE
  6
CONTINUOUS
 62
     7
 10
46.0305301618
 20
62.1887489172
 30
0.0
  0
VERTEX
  5
1C5
  8
VISIBLE
  6
CONTINUOUS
 62
     7
 10
46.0587147401
 20
62.1247806868
 30
0.0
  0
VERTEX
  5
1C6
  8
VISIBLE
  6
CONTINUOUS
 62
     7
 10
46.0869347806
 20
62.0608279223
 30
0.0
  0
VERTEX
  5
1C7
  8
VISIBLE
  6
CONTINUOUS
 62
     7
 10
46.1151900163
 20
61.9968906078
 30
0.0
  0
VERTEX
  5
1C8
  8
VISIBLE
  6
CONTINUOUS
 62
     7
 10
46.1434801802
 20
61.9329687274
 30
0.0
  0
VERTEX
  5
1C9
  8
VISIBLE
  6
CONTINUOUS
 62
     7
 10
46.1718050053
 20
61.8690622651
 30
0.0
  0
VERTEX
  5
1CA
  8
VISIBLE
  6
CONTINUOUS
 62
     7
 10
46.2001642247
 20
61.8051712052
 30
0.0
  0
VERTEX
  5
1CB
  8
VISIBLE
  6
CONTINUOUS
 62
     7
 10
46.2285575715
 20
61.7412955317
 30
0.0
  0
VERTEX
  5
1CC
  8
VISIBLE
  6
CONTINUOUS
 62
     7
 10
46.2569847785
 20
61.6774352288
 30
0.0
  0
VERTEX
  5
1CD
  8
VISIBLE
  6
CONTINUOUS
 62
     7
 10
46.285445579
 20
61.6135902805
 30
0.0
  0
VERTEX
  5
1CE
  8
VISIBLE
  6
CONTINUOUS
 62
     7
 10
46.3139397058
 20
61.5497606709
 30
0.0
  0
VERTEX
  5
1CF
  8
VISIBLE
  6
CONTINUOUS
 62
     7
 10
46.3424668921
 20
61.4859463843
 30
0.0
  0
VERTEX
  5
1D0
  8
VISIBLE
  6
CONTINUOUS
 62
     7
 10
46.3710268708
 20
61.4221474047
 30
0.0
  0
VERTEX
  5
1D1
  8
VISIBLE
  6
CONTINUOUS
 62
     7
 10
46.3996193751
 20
61.3583637162
 30
0.0
  0
VERTEX
  5
1D2
  8
VISIBLE
  6
CONTINUOUS
 62
     7
 10
46.4282441378
 20
61.2945953029
 30
0.0
  0
VERTEX
  5
1D3
  8
VISIBLE
  6
CONTINUOUS
 62
     7
 10
46.4569008921
 20
61.230842149
 30
0.0
  0
VERTEX
  5
1D4
  8
VISIBLE
  6
CONTINUOUS
 62
     7
 10
46.485589371
 20
61.1671042385
 30
0.0
  0
VERTEX
  5
1D5
  8
VISIBLE
  6
CONTINUOUS
 62
     7
 10
46.5143093075
 20
61.1033815556
 30
0.0
  0
VERTEX
  5
1D6
  8
VISIBLE
  6
CONTINUOUS
 62
     7
 10
46.5430604346
 20
61.0396740845
 30
0.0
  0
VERTEX
  5
1D7
  8
VISIBLE
  6
CONTINUOUS
 62
     7
 10
46.5718424855
 20
60.9759818091
 30
0.0
  0
VERTEX
  5
1D8
  8
VISIBLE
  6
CONTINUOUS
 62
     7
 10
46.600655193
 20
60.9123047136
 30
0.0
  0
VERTEX
  5
1D9
  8
VISIBLE
  6
CONTINUOUS
 62
     7
 10
46.6294982902
 20
60.8486427822
 30
0.0
  0
VERTEX
  5
1DA
  8
VISIBLE
  6
CONTINUOUS
 62
     7
 10
46.6583715103
 20
60.7849959989
 30
0.0
  0
VERTEX
  5
1DB
  8
VISIBLE
  6
CONTINUOUS
 62
     7
 10
46.6872745861
 20
60.7213643479
 30
0.0
  0
VERTEX
  5
1DC
  8
VISIBLE
  6
CONTINUOUS
 62
     7
 10
46.7162072507
 20
60.6577478133
 30
0.0
  0
SEQEND
  5
1DD
  8
VISIBLE
  6
CONTINUOUS
 62
     7
  0
LINE
  5
8D
  8
VISIBLE
  6
CONTINUOUS
 62
     7
 10
46.7162072507
 20
60.6577478133
 30
0.0
 11
49.0424096186
 21
60.6577478133
 31
0.0
  0
LINE
  5
8E
  8
VISIBLE
  6
CONTINUOUS
 62
     7
 10
43.4686119865
 20
64.8707804994
 30
0.0
 11
41.0924096186
 21
64.8707804994
 31
0.0
  0
LINE
  5
8F
  8
VISIBLE
  6
CONTINUOUS
 62
     7
 10
49.0424096186
 20
64.8707804994
 30
0.0
 11
46.7162072507
 21
64.8707804994
 31
0.0
  0
LINE
  5
90
  8
VISIBLE
  6
CONTINUOUS
 62
     7
 10
46.7162072507
 20
64.8707804994
 30
0.0
 11
46.0305301618
 21
64.8707804994
 31
0.0
  0
LINE
  5
91
  8
VISIBLE
  6
CONTINUOUS
 62
     7
 10
46.0305301618
 20
64.8707804994
 30
0.0
 11
44.1542890755
 21
64.8707804994
 31
0.0
  0
LINE
  5
92
  8
VISIBLE
  6
CONTINUOUS
 62
     7
 10
44.1542890755
 20
64.8707804994
 30
0.0
 11
43.4686119865
 21
64.8707804994
 31
0.0
  0
LINE
  5
93
  8
VISIBLE
  6
CONTINUOUS
 62
     7
 10
30.6424096186
 20
91.8707804994
 30
0.0
 11
30.6424096186
 21
67.8707804994
 31
0.0
  0
LINE
  5
94
  8
0
  6
HIDDEN2
 62
     7
 10
45.2315044693
 20
76.2378782006
 30
0.0
 11
45.05362028
 21
76.1957805122
 31
0.0
  0
LINE
  5
95
  8
0
  6
HIDDEN2
 62
     7
 10
45.2315044693
 20
76.2378782006
 30
0.0
 11
45.3481587438
 21
76.2378782006
 31
0.0
  0
LINE
  5
96
  8
0
  6
HIDDEN2
 62
     7
 10
45.5069710618
 20
83.6124708339
 30
0.0
 11
45.5069710618
 21
76.1290901649
 31
0.0
  0
POLYLINE
  5
97
  8
0
  6
HIDDEN2
 62
     7
 66
     1
 10
0.0
 20
0.0
 30
0.0
  0
VERTEX
  5
1DE
  8
0
  6
HIDDEN2
 62
     7
 10
45.3481587438
 20
76.2378782006
 30
0.0
  0
VERTEX
  5
1DF
  8
0
  6
HIDDEN2
 62
     7
 10
45.3502741125
 20
76.2358283832
 30
0.0
  0
VERTEX
  5
1E0
  8
0
  6
HIDDEN2
 62
     7
 10
45.3523376467
 20
76.2338282755
 30
0.0
  0
VERTEX
  5
1E1
  8
0
  6
HIDDEN2
 62
     7
 10
45.3543492573
 20
76.2318779911
 30
0.0
  0
VERTEX
  5
1E2
  8
0
  6
HIDDEN2
 62
     7
 10
45.3563088547
 20
76.2299776434
 30
0.0
  0
VERTEX
  5
1E3
  8
0
  6
HIDDEN2
 62
     7
 10
45.3582163498
 20
76.228127346
 30
0.0
  0
VERTEX
  5
1E4
  8
0
  6
HIDDEN2
 62
     7
 10
45.360071653
 20
76.2263272123
 30
0.0
  0
VERTEX
  5
1E5
  8
0
  6
HIDDEN2
 62
     7
 10
45.3618746753
 20
76.2245773558
 30
0.0
  0
VERTEX
  5
1E6
  8
0
  6
HIDDEN2
 62
     7
 10
45.3636253271
 20
76.2228778901
 30
0.0
  0
VERTEX
  5
1E7
  8
0
  6
HIDDEN2
 62
     7
 10
45.3653235191
 20
76.2212289287
 30
0.0
  0
VERTEX
  5
1E8
  8
0
  6
HIDDEN2
 62
     7
 10
45.3669691621
 20
76.219630585
 30
0.0
  0
VERTEX
  5
1E9
  8
0
  6
HIDDEN2
 62
     7
 10
45.3685621666
 20
76.2180829726
 30
0.0
  0
VERTEX
  5
1EA
  8
0
  6
HIDDEN2
 62
     7
 10
45.3701024433
 20
76.2165862049
 30
0.0
  0
VERTEX
  5
1EB
  8
0
  6
HIDDEN2
 62
     7
 10
45.371589903
 20
76.2151403955
 30
0.0
  0
VERTEX
  5
1EC
  8
0
  6
HIDDEN2
 62
     7
 10
45.3730244562
 20
76.2137456579
 30
0.0
  0
VERTEX
  5
1ED
  8
0
  6
HIDDEN2
 62
     7
 10
45.3744060137
 20
76.2124021055
 30
0.0
  0
VERTEX
  5
1EE
  8
0
  6
HIDDEN2
 62
     7
 10
45.375734486
 20
76.2111098519
 30
0.0
  0
VERTEX
  5
1EF
  8
0
  6
HIDDEN2
 62
     7
 10
45.3770097839
 20
76.2098690105
 30
0.0
  0
VERTEX
  5
1F0
  8
0
  6
HIDDEN2
 62
     7
 10
45.378231818
 20
76.2086796949
 30
0.0
  0
VERTEX
  5
1F1
  8
0
  6
HIDDEN2
 62
     7
 10
45.379400499
 20
76.2075420186
 30
0.0
  0
VERTEX
  5
1F2
  8
0
  6
HIDDEN2
 62
     7
 10
45.3805157375
 20
76.2064560951
 30
0.0
  0
VERTEX
  5
1F3
  8
0
  6
HIDDEN2
 62
     7
 10
45.3815774443
 20
76.2054220378
 30
0.0
  0
VERTEX
  5
1F4
  8
0
  6
HIDDEN2
 62
     7
 10
45.3825855299
 20
76.2044399603
 30
0.0
  0
VERTEX
  5
1F5
  8
0
  6
HIDDEN2
 62
     7
 10
45.383539905
 20
76.2035099761
 30
0.0
  0
VERTEX
  5
1F6
  8
0
  6
HIDDEN2
 62
     7
 10
45.3844404804
 20
76.2026321987
 30
0.0
  0
VERTEX
  5
1F7
  8
0
  6
HIDDEN2
 62
     7
 10
45.3852871666
 20
76.2018067415
 30
0.0
  0
VERTEX
  5
1F8
  8
0
  6
HIDDEN2
 62
     7
 10
45.3860798743
 20
76.2010337182
 30
0.0
  0
VERTEX
  5
1F9
  8
0
  6
HIDDEN2
 62
     7
 10
45.3868185142
 20
76.2003132421
 30
0.0
  0
VERTEX
  5
1FA
  8
0
  6
HIDDEN2
 62
     7
 10
45.387502997
 20
76.1996454268
 30
0.0
  0
VERTEX
  5
1FB
  8
0
  6
HIDDEN2
 62
     7
 10
45.3881332333
 20
76.1990303858
 30
0.0
  0
VERTEX
  5
1FC
  8
0
  6
HIDDEN2
 62
     7
 10
45.3887091337
 20
76.1984682326
 30
0.0
  0
VERTEX
  5
1FD
  8
0
  6
HIDDEN2
 62
     7
 10
45.389230609
 20
76.1979590807
 30
0.0
  0
VERTEX
  5
1FE
  8
0
  6
HIDDEN2
 62
     7
 10
45.3896975698
 20
76.1975030435
 30
0.0
  0
VERTEX
  5
1FF
  8
0
  6
HIDDEN2
 62
     7
 10
45.3901099268
 20
76.1971002347
 30
0.0
  0
VERTEX
  5
200
  8
0
  6
HIDDEN2
 62
     7
 10
45.3904675906
 20
76.1967507677
 30
0.0
  0
VERTEX
  5
201
  8
0
  6
HIDDEN2
 62
     7
 10
45.3907704719
 20
76.196454756
 30
0.0
  0
VERTEX
  5
202
  8
0
  6
HIDDEN2
 62
     7
 10
45.3910184814
 20
76.196212313
 30
0.0
  0
VERTEX
  5
203
  8
0
  6
HIDDEN2
 62
     7
 10
45.3912115296
 20
76.1960235524
 30
0.0
  0
VERTEX
  5
204
  8
0
  6
HIDDEN2
 62
     7
 10
45.3913495274
 20
76.1958885876
 30
0.0
  0
VERTEX
  5
205
  8
0
  6
HIDDEN2
 62
     7
 10
45.3914323853
 20
76.1958075321
 30
0.0
  0
VERTEX
  5
206
  8
0
  6
HIDDEN2
 62
     7
 10
45.3914600141
 20
76.1957804994
 30
0.0
  0
SEQEND
  5
207
  8
0
  6
HIDDEN2
 62
     7
  0
LINE
  5
98
  8
0
  6
HIDDEN2
 62
     7
 10
53.1424096186
 20
76.5457804994
 30
0.0
 11
53.1424096186
 21
80.4464278385
 31
0.0
  0
LINE
  5
99
  8
HIDDEN
  6
HIDDEN2
 62
     7
 10
34.6424096186
 20
87.9707804994
 30
0.0
 11
34.6424096186
 21
71.7707804994
 31
0.0
  0
LINE
  5
9A
  8
0
  6
HIDDEN2
 62
     7
 10
35.3924096186
 20
87.7207804994
 30
0.0
 11
35.3924096186
 21
72.0207804994
 31
0.0
  0
LINE
  5
9B
  8
0
  6
HIDDEN2
 62
     7
 10
46.2569710618
 20
83.6124708339
 30
0.0
 11
46.2569710618
 21
76.1290901649
 31
0.0
  0
LINE
  5
9C
  8
0
  6
HIDDEN2
 62
     7
 10
49.6424096186
 20
76.7589988902
 30
0.0
 11
49.6424096186
 21
76.1957804994
 31
0.0
  0
LINE
  5
9D
  8
0
  6
HIDDEN2
 62
     7
 10
66.638752643
 20
81.1000304994
 30
0.0
 11
66.638752643
 21
78.6415304994
 31
0.0
  0
LINE
  5
9E
  8
0
  6
HIDDEN2
 62
     7
 10
54.2063835598
 20
78.6415304994
 30
0.0
 11
54.2063835598
 21
81.1000304994
 31
0.0
  0
LINE
  5
9F
  8
0
  6
HIDDEN2
 62
     7
 10
53.1424096186
 20
83.1957804994
 30
0.0
 11
53.1424096186
 21
81.5348040397
 31
0.0
  0
LINE
  5
A0
  8
VISIBLE
  6
CONTINUOUS
 62
     7
 10
50.6424096186
 20
62.4082804994
 30
0.0
 11
100.4441862631
 21
69.5228179321
 31
0.0
  0
LINE
  5
A1
  8
VISIBLE
  6
CONTINUOUS
 62
     7
 10
100.4441862631
 20
90.2187430668
 30
0.0
 11
50.6424096186
 21
97.3332804994
 31
0.0
  0
LINE
  5
A2
  8
VISIBLE
  6
CONTINUOUS
 62
     7
 10
49.5424096186
 20
62.4082804994
 30
0.0
 11
50.6424096186
 21
62.4082804994
 31
0.0
  0
LINE
  5
A3
  8
VISIBLE
  6
CONTINUOUS
 62
     7
 10
50.6424096186
 20
97.3332804994
 30
0.0
 11
49.5424096186
 21
97.3332804994
 31
0.0
  0
LINE
  5
A4
  8
HIDDEN
  6
HIDDEN2
 62
     7
 10
95.7674096186
 20
73.6207804994
 30
0.0
 11
100.6513842148
 21
73.6207804994
 31
0.0
  0
LINE
  5
A5
  8
HIDDEN
  6
HIDDEN2
 62
     7
 10
100.6513842148
 20
86.1207804994
 30
0.0
 11
95.7674096186
 21
86.1207804994
 31
0.0
  0
LINE
  5
A6
  8
HIDDEN
  6
HIDDEN2
 62
     7
 10
95.7674096186
 20
86.1207804994
 30
0.0
 11
95.1292956412
 21
85.0587804994
 31
0.0
  0
LINE
  5
A7
  8
HIDDEN
  6
HIDDEN2
 62
     7
 10
95.1292956412
 20
74.6827804994
 30
0.0
 11
95.7674096186
 21
73.6207804994
 31
0.0
  0
LINE
  5
A8
  8
HIDDEN
  6
HIDDEN2
 62
     7
 10
69.0174096186
 20
74.6827804994
 30
0.0
 11
95.1292956412
 21
74.6827804994
 31
0.0
  0
LINE
  5
A9
  8
HIDDEN
  6
HIDDEN2
 62
     7
 10
95.1292956412
 20
85.0587804994
 30
0.0
 11
69.0174096186
 21
85.0587804994
 31
0.0
  0
LINE
  5
AA
  8
0
  6
HIDDEN2
 62
     7
 10
69.0174096186
 20
85.0587804994
 30
0.0
 11
66.638752643
 21
81.1000304994
 31
0.0
  0
LINE
  5
AB
  8
0
  6
HIDDEN2
 62
     7
 10
66.638752643
 20
78.6415304994
 30
0.0
 11
69.0174096186
 21
74.6827804994
 31
0.0
  0
LINE
  5
AC
  8
HIDDEN
  6
HIDDEN2
 62
     7
 10
101.5174096186
 20
86.6207804994
 30
0.0
 11
100.6513842148
 21
86.1207804994
 31
0.0
  0
LINE
  5
AD
  8
HIDDEN
  6
HIDDEN2
 62
     7
 10
100.6513842148
 20
73.6207804994
 30
0.0
 11
101.5174096186
 21
73.1207804994
 31
0.0
  0
ARC
  5
AE
  8
VISIBLE
  6
CONTINUOUS
 62
     7
 10
100.2674096186
 20
88.9813061925
 30
0.0
 40
1.250000000000001
 50
0.0
 51
81.8699
  0
ARC
  5
AF
  8
VISIBLE
  6
CONTINUOUS
 62
     7
 10
100.2674096186
 20
70.7602548064
 30
0.0
 40
1.25
 50
278.1301
 51
0.0
  0
ARC
  5
B0
  8
VISIBLE
  6
CONTINUOUS
 62
     7
 10
49.5424096186
 20
97.8332804994
 30
0.0
 40
0.5000000000000004
 50
205.1220349258
 51
270.0
  0
ARC
  5
B1
  8
VISIBLE
  6
CONTINUOUS
 62
     7
 10
49.5424096186
 20
61.9082804994
 30
0.0
 40
0.5000000000000004
 50
90.0
 51
180.0
  0
LINE
  5
B2
  8
VISIBLE
  6
CONTINUOUS
 62
     7
 10
31.1424096186
 20
67.3707804994
 30
0.0
 11
40.5924096186
 21
67.3707804994
 31
0.0
  0
LINE
  5
B3
  8
VISIBLE
  6
CONTINUOUS
 62
     7
 10
40.5924096186
 20
92.3707804994
 30
0.0
 11
31.1424096186
 21
92.3707804994
 31
0.0
  0
LINE
  5
B4
  8
VISIBLE
  6
CONTINUOUS
 62
     7
 10
31.1424096186
 20
92.3707804994
 30
0.0
 11
30.6424096186
 21
91.8707804994
 31
0.0
  0
LINE
  5
B5
  8
VISIBLE
  6
CONTINUOUS
 62
     7
 10
30.6424096186
 20
67.8707804994
 30
0.0
 11
31.1424096186
 21
67.3707804994
 31
0.0
  0
LINE
  5
B6
  8
0
  6
HIDDEN2
 62
     7
 10
36.1544017642
 20
74.9450769086
 30
0.0
 11
45.057454089
 21
76.1963193137
 31
0.0
  0
LINE
  5
B7
  8
0
  6
HIDDEN2
 62
     7
 10
45.2315044693
 20
83.5207804994
 30
0.0
 11
36.1544017642
 21
84.7964840903
 31
0.0
  0
LINE
  5
B8
  8
0
  6
HIDDEN2
 62
     7
 10
45.5069710618
 20
83.6124708339
 30
0.0
 11
45.3481587438
 21
83.5207804994
 31
0.0
  0
LINE
  5
B9
  8
0
  6
HIDDEN2
 62
     7
 10
45.3911529367
 20
76.1959577906
 30
0.0
 11
45.5069710618
 21
76.1290901649
 31
0.0
  0
LINE
  5
BA
  8
0
  6
HIDDEN2
 62
     7
 10
46.2569710618
 20
76.1290901649
 30
0.0
 11
46.2820202536
 21
76.197912254
 31
0.0
  0
LINE
  5
BB
  8
0
  6
HIDDEN2
 62
     7
 10
46.3474259914
 20
83.3639479573
 30
0.0
 11
46.2569710618
 21
83.6124708339
 31
0.0
  0
LINE
  5
BC
  8
0
  6
HIDDEN2
 62
     7
 10
49.6424096186
 20
76.5457804994
 30
0.0
 11
53.1424096186
 21
76.5457804994
 31
0.0
  0
LINE
  5
BD
  8
0
  6
HIDDEN2
 62
     7
 10
53.1424096186
 20
83.1957804994
 30
0.0
 11
47.5439996291
 21
83.1957804994
 31
0.0
  0
LINE
  5
BE
  8
0
  6
HIDDEN2
 62
     7
 10
45.3481587438
 20
83.5207804994
 30
0.0
 11
45.2315044693
 21
83.5207804994
 31
0.0
  0
LINE
  5
BF
  8
0
  6
HIDDEN2
 62
     7
 10
47.5439996291
 20
83.1957804994
 30
0.0
 11
46.3474259914
 21
83.3639479573
 31
0.0
  0
LINE
  5
C0
  8
HIDDEN
  6
HIDDEN2
 62
     7
 10
34.6424096186
 20
71.7707804994
 30
0.0
 11
35.1424096186
 21
71.7707804994
 31
0.0
  0
LINE
  5
C1
  8
HIDDEN
  6
HIDDEN2
 62
     7
 10
35.1424096186
 20
87.9707804994
 30
0.0
 11
34.6424096186
 21
87.9707804994
 31
0.0
  0
ARC
  5
C2
  8
HIDDEN
  6
HIDDEN2
 62
     7
 10
35.1424096186
 20
72.0207804994
 30
0.0
 40
0.2500000000000002
 50
270.0
 51
0.0
  0
ARC
  5
C3
  8
HIDDEN
  6
HIDDEN2
 62
     7
 10
35.1424096186
 20
87.7207804994
 30
0.0
 40
0.2499999999999985
 50
0.0
 51
90.0
  0
LINE
  5
C4
  8
0
  6
HIDDEN2
 62
     7
 10
35.3924096186
 20
73.6252677975
 30
0.0
 11
36.1544017642
 21
74.9450769086
 31
0.0
  0
LINE
  5
C5
  8
0
  6
HIDDEN2
 62
     7
 10
36.1544017642
 20
84.7964840903
 30
0.0
 11
35.3924096186
 21
86.1162932013
 31
0.0
  0
LINE
  5
C6
  8
0
  6
HIDDEN2
 62
     7
 10
45.5069710618
 20
76.1290901649
 30
0.0
 11
46.2569710618
 21
76.1290901649
 31
0.0
  0
LINE
  5
C7
  8
0
  6
HIDDEN2
 62
     7
 10
46.2569710618
 20
83.6124708339
 30
0.0
 11
45.5069710618
 21
83.6124708339
 31
0.0
  0
LINE
  5
C8
  8
0
  6
HIDDEN2
 62
     7
 10
53.1424096186
 20
76.8707804994
 30
0.0
 11
54.2063835598
 21
78.6415304994
 31
0.0
  0
LINE
  5
C9
  8
0
  6
HIDDEN2
 62
     7
 10
54.2063835598
 20
81.1000304994
 30
0.0
 11
53.1424096186
 21
82.8707804994
 31
0.0
  0
LINE
  5
CA
  8
0
  6
HIDDEN2
 62
     7
 10
46.2812443584
 20
76.1957804994
 30
0.0
 11
49.6424096186
 21
76.1957804994
 31
0.0
  0
ARC
  5
CB
  8
VISIBLE
  6
CONTINUOUS
 62
     7
 10
40.5924096186
 20
66.8707804994
 30
0.0
 40
0.5000000000000004
 50
0.0
 51
90.0
  0
ARC
  5
CC
  8
VISIBLE
  6
CONTINUOUS
 62
     7
 10
40.5924096186
 20
92.8707804994
 30
0.0
 40
0.5000000000000004
 50
270.0
 51
0.0
  0
LINE
  5
CD
  8
HIDDEN
  6
HIDDEN2
 62
     7
 10
95.6171944639
 20
73.8707804994
 30
0.0
 11
77.5174096186
 21
73.8707804994
 31
0.0
  0
LINE
  5
CE
  8
HIDDEN
  6
HIDDEN2
 62
     7
 10
95.6171944639
 20
85.8707804994
 30
0.0
 11
77.5174096186
 21
85.8707804994
 31
0.0
  0
LINE
  5
CF
  8
HIDDEN
  6
HIDDEN2
 62
     7
 10
77.5174096186
 20
85.8707804994
 30
0.0
 11
77.5174096186
 21
73.8707804994
 31
0.0
  0
LINE
  5
D0
  8
HIDDEN
  6
HIDDEN2
 62
     7
 10
30.7001446455
 20
87.8707804994
 30
0.0
 11
34.6424096186
 21
87.8707804994
 31
0.0
  0
LINE
  5
D1
  8
HIDDEN
  6
HIDDEN2
 62
     7
 10
30.7001446455
 20
71.8707804994
 30
0.0
 11
34.6424096186
 21
71.8707804994
 31
0.0
  0
LINE
  5
D2
  8
0
  6
HIDDEN2
 62
     7
 10
54.0437005472
 20
81.3707804994
 30
0.0
 11
66.8014356556
 21
81.3707804994
 31
0.0
  0
LINE
  5
D3
  8
0
  6
HIDDEN2
 62
     7
 10
54.0437005472
 20
78.3707804994
 30
0.0
 11
66.8014356556
 21
78.3707804994
 31
0.0
  0
LINE
  5
D4
  8
VISIBLE
  6
CONTINUOUS
 62
     7
 10
26.8924096186
 20
85.6377677975
 30
0.0
 11
26.8924096186
 21
74.1037932013
 31
0.0
  0
LINE
  5
D5
  8
VISIBLE
  6
CONTINUOUS
 62
     7
 10
29.8924096186
 20
87.3707804994
 30
0.0
 11
29.8924096186
 21
72.3707804994
 31
0.0
  0
LINE
  5
D6
  8
VISIBLE
  6
CONTINUOUS
 62
     7
 10
27.1424096186
 20
73.8707804994
 30
0.0
 11
27.1424096186
 21
74.2886302327
 31
0.0
  0
LINE
  5
D7
  8
VISIBLE
  6
CONTINUOUS
 62
     7
 10
27.1424096186
 20
79.4529307662
 30
0.0
 11
27.1424096186
 21
80.2886302327
 31
0.0
  0
LINE
  5
D8
  8
VISIBLE
  6
CONTINUOUS
 62
     7
 10
27.1424096186
 20
85.4529307662
 30
0.0
 11
27.1424096186
 21
85.8707804994
 31
0.0
  0
ARC
  5
D9
  8
VISIBLE
  6
CONTINUOUS
 62
     7
 10
44.8225193723
 20
82.8707804994
 30
0.0
 40
17.86767418839746
 50
171.6907942754
 51
188.3092057246
  0
ARC
  5
DA
  8
VISIBLE
  6
CONTINUOUS
 62
     7
 10
44.8225193723
 20
76.8707804994
 30
0.0
 40
17.8676741883977
 50
171.6907942754
 51
188.3092057246
  0
LINE
  5
DB
  8
VISIBLE
  6
CONTINUOUS
 62
     7
 10
27.1424096186
 20
73.8707804994
 30
0.0
 11
26.9548458093
 21
73.8707804994
 31
0.0
  0
LINE
  5
DC
  8
VISIBLE
  6
CONTINUOUS
 62
     7
 10
27.1424096186
 20
85.8707804994
 30
0.0
 11
26.9548458093
 21
85.8707804994
 31
0.0
  0
LINE
  5
DD
  8
VISIBLE
  6
CONTINUOUS
 62
     7
 10
27.1424096186
 20
85.8707804994
 30
0.0
 11
29.8924096186
 21
85.8707804994
 31
0.0
  0
LINE
  5
DE
  8
VISIBLE
  6
CONTINUOUS
 62
     7
 10
29.8924096186
 20
73.8707804994
 30
0.0
 11
27.1424096186
 21
73.8707804994
 31
0.0
  0
LINE
  5
DF
  8
VISIBLE
  6
CONTINUOUS
 62
     7
 10
29.8924096186
 20
79.4529307662
 30
0.0
 11
27.1424096186
 21
79.4529307662
 31
0.0
  0
LINE
  5
E0
  8
VISIBLE
  6
CONTINUOUS
 62
     7
 10
27.1424096186
 20
74.2886302327
 30
0.0
 11
29.8924096186
 21
74.2886302327
 31
0.0
  0
LINE
  5
E1
  8
VISIBLE
  6
CONTINUOUS
 62
     7
 10
29.8924096186
 20
85.4529307662
 30
0.0
 11
27.1424096186
 21
85.4529307662
 31
0.0
  0
LINE
  5
E2
  8
VISIBLE
  6
CONTINUOUS
 62
     7
 10
27.1424096186
 20
80.2886302327
 30
0.0
 11
29.8924096186
 21
80.2886302327
 31
0.0
  0
LINE
  5
E3
  8
VISIBLE
  6
CONTINUOUS
 62
     7
 10
26.9548451839
 20
85.8707804994
 30
0.0
 11
26.8924096186
 21
85.6377677975
 31
0.0
  0
LINE
  5
E4
  8
VISIBLE
  6
CONTINUOUS
 62
     7
 10
26.8924096186
 20
74.1037932013
 30
0.0
 11
26.9548451839
 21
73.8707804994
 31
0.0
  0
LINE
  5
E5
  8
VISIBLE
  6
CONTINUOUS
 62
     7
 10
30.0883408815
 20
87.7101434015
 30
0.0
 11
29.8924096186
 21
87.3707804994
 31
0.0
  0
LINE
  5
E6
  8
VISIBLE
  6
CONTINUOUS
 62
     7
 10
29.8924096186
 20
72.3707804994
 30
0.0
 11
29.9179289584
 21
72.3265797064
 31
0.0
  0
LINE
  5
E7
  8
VISIBLE
  6
CONTINUOUS
 62
     7
 10
30.2839992721
 20
71.8707804994
 30
0.0
 11
30.3758199652
 21
71.8707804994
 31
0.0
  0
LINE
  5
E8
  8
VISIBLE
  6
CONTINUOUS
 62
     7
 10
30.642409528
 20
87.8449841677
 30
0.0
 11
30.4216026604
 21
87.4626827764
 31
0.0
  0
LINE
  5
E9
  8
VISIBLE
  6
CONTINUOUS
 62
     7
 10
30.046637538
 20
72.2788179746
 30
0.0
 11
30.280642183
 21
71.8736661518
 31
0.0
  0
ARC
  5
EA
  8
VISIBLE
  6
CONTINUOUS
 62
     7
 10
30.3299095861
 20
87.5175426789
 30
0.0
 40
0.1068511750030521
 50
210.8853280855
 51
329.1166204477
  0
ARC
  5
EB
  8
VISIBLE
  6
CONTINUOUS
 62
     7
 10
30.7049095691
 20
72.2240198678
 30
0.0
 40
0.1068501540875313
 50
127.60390994
 51
149.1228788777
  0
POLYLINE
  5
EC
  8
VISIBLE
  6
CONTINUOUS
 62
     7
 66
     1
 10
0.0
 20
0.0
 30
0.0
  0
VERTEX
  5
208
  8
VISIBLE
  6
CONTINUOUS
 62
     7
 10
29.9204211438
 20
72.3209786159
 30
0.0
  0
VERTEX
  5
209
  8
VISIBLE
  6
CONTINUOUS
 62
     7
 10
29.9243546165
 20
72.3225215157
 30
0.0
  0
VERTEX
  5
20A
  8
VISIBLE
  6
CONTINUOUS
 62
     7
 10
29.9281655432
 20
72.3239890169
 30
0.0
  0
VERTEX
  5
20B
  8
VISIBLE
  6
CONTINUOUS
 62
     7
 10
29.9318779345
 20
72.3253634004
 30
0.0
  0
VERTEX
  5
20C
  8
VISIBLE
  6
CONTINUOUS
 62
     7
 10
29.935515801
 20
72.3266269472
 30
0.0
  0
VERTEX
  5
20D
  8
VISIBLE
  6
CONTINUOUS
 62
     7
 10
29.9391031535
 20
72.3277619383
 30
0.0
  0
VERTEX
  5
20E
  8
VISIBLE
  6
CONTINUOUS
 62
     7
 10
29.9426640025
 20
72.3287506545
 30
0.0
  0
VERTEX
  5
20F
  8
VISIBLE
  6
CONTINUOUS
 62
     7
 10
29.9462223587
 20
72.329575377
 30
0.0
  0
VERTEX
  5
210
  8
VISIBLE
  6
CONTINUOUS
 62
     7
 10
29.9498022327
 20
72.3302183866
 30
0.0
  0
VERTEX
  5
211
  8
VISIBLE
  6
CONTINUOUS
 62
     7
 10
29.9534276352
 20
72.3306619643
 30
0.0
  0
VERTEX
  5
212
  8
VISIBLE
  6
CONTINUOUS
 62
     7
 10
29.9571211696
 20
72.3308894119
 30
0.0
  0
VERTEX
  5
213
  8
VISIBLE
  6
CONTINUOUS
 62
     7
 10
29.960884075
 20
72.3308995308
 30
0.0
  0
VERTEX
  5
214
  8
VISIBLE
  6
CONTINUOUS
 62
     7
 10
29.9647009851
 20
72.3307031697
 30
0.0
  0
VERTEX
  5
215
  8
VISIBLE
  6
CONTINUOUS
 62
     7
 10
29.9685560968
 20
72.3303114937
 30
0.0
  0
VERTEX
  5
216
  8
VISIBLE
  6
CONTINUOUS
 62
     7
 10
29.9724336072
 20
72.3297356681
 30
0.0
  0
VERTEX
  5
217
  8
VISIBLE
  6
CONTINUOUS
 62
     7
 10
29.9763177134
 20
72.3289868582
 30
0.0
  0
VERTEX
  5
218
  8
VISIBLE
  6
CONTINUOUS
 62
     7
 10
29.9801926123
 20
72.3280762292
 30
0.0
  0
VERTEX
  5
219
  8
VISIBLE
  6
CONTINUOUS
 62
     7
 10
29.984042501
 20
72.3270149464
 30
0.0
  0
VERTEX
  5
21A
  8
VISIBLE
  6
CONTINUOUS
 62
     7
 10
29.9878515765
 20
72.325814175
 30
0.0
  0
VERTEX
  5
21B
  8
VISIBLE
  6
CONTINUOUS
 62
     7
 10
29.991604036
 20
72.3244850803
 30
0.0
  0
VERTEX
  5
21C
  8
VISIBLE
  6
CONTINUOUS
 62
     7
 10
29.9952840763
 20
72.3230388275
 30
0.0
  0
VERTEX
  5
21D
  8
VISIBLE
  6
CONTINUOUS
 62
     7
 10
29.9988758946
 20
72.3214865819
 30
0.0
  0
VERTEX
  5
21E
  8
VISIBLE
  6
CONTINUOUS
 62
     7
 10
30.0023636879
 20
72.3198395087
 30
0.0
  0
VERTEX
  5
21F
  8
VISIBLE
  6
CONTINUOUS
 62
     7
 10
30.0057316533
 20
72.3181087732
 30
0.0
  0
VERTEX
  5
220
  8
VISIBLE
  6
CONTINUOUS
 62
     7
 10
30.0089639877
 20
72.3163055406
 30
0.0
  0
VERTEX
  5
221
  8
VISIBLE
  6
CONTINUOUS
 62
     7
 10
30.012044893
 20
72.314440974
 30
0.0
  0
VERTEX
  5
222
  8
VISIBLE
  6
CONTINUOUS
 62
     7
 10
30.0149651948
 20
72.3125232311
 30
0.0
  0
VERTEX
  5
223
  8
VISIBLE
  6
CONTINUOUS
 62
     7
 10
30.0177355112
 20
72.3105514889
 30
0.0
  0
VERTEX
  5
224
  8
VISIBLE
  6
CONTINUOUS
 62
     7
 10
30.0203701416
 20
72.3085232543
 30
0.0
  0
VERTEX
  5
225
  8
VISIBLE
  6
CONTINUOUS
 62
     7
 10
30.0228833851
 20
72.3064360341
 30
0.0
  0
VERTEX
  5
226
  8
VISIBLE
  6
CONTINUOUS
 62
     7
 10
30.0252895409
 20
72.3042873351
 30
0.0
  0
VERTEX
  5
227
  8
VISIBLE
  6
CONTINUOUS
 62
     7
 10
30.0276029082
 20
72.3020746643
 30
0.0
  0
VERTEX
  5
228
  8
VISIBLE
  6
CONTINUOUS
 62
     7
 10
30.0298377862
 20
72.2997955285
 30
0.0
  0
VERTEX
  5
229
  8
VISIBLE
  6
CONTINUOUS
 62
     7
 10
30.032008474
 20
72.2974474346
 30
0.0
  0
VERTEX
  5
22A
  8
VISIBLE
  6
CONTINUOUS
 62
     7
 10
30.0341292709
 20
72.2950278894
 30
0.0
  0
VERTEX
  5
22B
  8
VISIBLE
  6
CONTINUOUS
 62
     7
 10
30.0362144761
 20
72.2925343999
 30
0.0
  0
VERTEX
  5
22C
  8
VISIBLE
  6
CONTINUOUS
 62
     7
 10
30.0382783886
 20
72.2899644727
 30
0.0
  0
VERTEX
  5
22D
  8
VISIBLE
  6
CONTINUOUS
 62
     7
 10
30.0403353078
 20
72.2873156149
 30
0.0
  0
VERTEX
  5
22E
  8
VISIBLE
  6
CONTINUOUS
 62
     7
 10
30.0423995327
 20
72.2845853333
 30
0.0
  0
VERTEX
  5
22F
  8
VISIBLE
  6
CONTINUOUS
 62
     7
 10
30.0444853627
 20
72.2817711348
 30
0.0
  0
VERTEX
  5
230
  8
VISIBLE
  6
CONTINUOUS
 62
     7
 10
30.0466070968
 20
72.2788705261
 30
0.0
  0
SEQEND
  5
231
  8
VISIBLE
  6
CONTINUOUS
 62
     7
  0
LINE
  5
ED
  8
VISIBLE
  6
CONTINUOUS
 62
     7
 10
30.2382037364
 20
87.4627050259
 30
0.0
 11
30.0927427339
 21
87.7145522894
 31
0.0
  0
LINE
  5
EE
  8
VISIBLE
  6
CONTINUOUS
 62
     7
 10
30.3791986534
 20
71.87370341
 30
0.0
 11
30.6132069871
 21
72.2788615981
 31
0.0
  0
LINE
  5
F1
  8
STANDARD
  6
DASHDOT2
 62
     7
 10
26.7635447571
 20
79.8707804994
 30
0.0
 11
102.3107411712
 21
79.8707804994
 31
0.0
  0
ENDBLK
  5
F3
  8
0
  0
BLOCK
  8
0
  2
SE1
 70
     0
 10
0.0
 20
0.0
 30
0.0
  3
SE1
  1

  0
ARC
  5
F6
  8
VISIBLE
  6
CONTINUOUS
 62
     7
 10
143.6566951943
 20
79.8707804994
 30
0.0
 40
24.375
 50
285.2831719632
 51
307.9798724449
  0
CIRCLE
  5
F7
  8
0
  6
HIDDEN2
 62
     7
 10
143.6566951943
 20
79.8707804994
 30
0.0
 40
17.4625
  0
LINE
  5
F8
  8
VISIBLE
  6
CONTINUOUS
 62
     7
 10
150.0816951943
 20
60.0207804994
 30
0.0
 11
150.0816951943
 21
56.357805358
 31
0.0
  0
LINE
  5
F9
  8
VISIBLE
  6
CONTINUOUS
 62
     7
 10
149.0816951943
 20
61.0207804994
 30
0.0
 11
150.0816951943
 21
60.0207804994
 31
0.0
  0
LINE
  5
FA
  8
VISIBLE
  6
CONTINUOUS
 62
     7
 10
138.2316951943
 20
61.0207804994
 30
0.0
 11
149.0816951943
 21
61.0207804994
 31
0.0
  0
LINE
  5
FB
  8
VISIBLE
  6
CONTINUOUS
 62
     7
 10
137.2316951943
 20
60.0207804994
 30
0.0
 11
138.2316951943
 21
61.0207804994
 31
0.0
  0
LINE
  5
FC
  8
VISIBLE
  6
CONTINUOUS
 62
     7
 10
137.2316951943
 20
56.357805358
 30
0.0
 11
137.2316951943
 21
60.0207804994
 31
0.0
  0
ARC
  5
FD
  8
VISIBLE
  6
CONTINUOUS
 62
     7
 10
143.6566951943
 20
79.8707804994
 30
0.0
 40
24.375
 50
105.2831719632
 51
254.7168280368
  0
LINE
  5
FE
  8
VISIBLE
  6
CONTINUOUS
 62
     7
 10
137.2316951943
 20
98.6207804994
 30
0.0
 11
137.2316951943
 21
103.3837556408
 31
0.0
  0
LINE
  5
FF
  8
VISIBLE
  6
CONTINUOUS
 62
     7
 10
138.2316951943
 20
97.6207804994
 30
0.0
 11
137.2316951943
 21
98.6207804994
 31
0.0
  0
LINE
  5
100
  8
VISIBLE
  6
CONTINUOUS
 62
     7
 10
150.0816951943
 20
98.6207804994
 30
0.0
 11
149.0816951943
 21
97.6207804994
 31
0.0
  0
LINE
  5
101
  8
VISIBLE
  6
CONTINUOUS
 62
     7
 10
150.0816951943
 20
103.3837556408
 30
0.0
 11
150.0816951943
 21
98.6207804994
 31
0.0
  0
LINE
  5
102
  8
VISIBLE
  6
CONTINUOUS
 62
     7
 10
149.0816951943
 20
97.6207804994
 30
0.0
 11
138.2316951943
 21
97.6207804994
 31
0.0
  0
ARC
  5
103
  8
VISIBLE
  6
CONTINUOUS
 62
     7
 10
143.6566951943
 20
79.8707804994
 30
0.0
 40
24.375
 50
322.0201275551
 51
74.7168280368
  0
LINE
  5
104
  8
VISIBLE
  6
CONTINUOUS
 62
     7
 10
158.6566951943
 20
64.8707804994
 30
0.0
 11
158.6566951943
 21
60.6577478133
 31
0.0
  0
LINE
  5
105
  8
VISIBLE
  6
CONTINUOUS
 62
     7
 10
162.8697278804
 20
64.8707804994
 30
0.0
 11
158.6566951943
 21
64.8707804994
 31
0.0
  0
CIRCLE
  5
106
  8
VISIBLE
  6
CONTINUOUS
 62
     7
 10
143.6566951943
 20
79.8707804994
 30
0.0
 40
12.49999999999998
  0
CIRCLE
  5
107
  8
VISIBLE
  6
CONTINUOUS
 62
     7
 10
143.6566951943
 20
79.8707804994
 30
0.0
 40
1.5
  0
CIRCLE
  5
108
  8
VISIBLE
  6
CONTINUOUS
 62
     7
 10
143.6566951943
 20
79.8707804994
 30
0.0
 40
3.5
  0
ARC
  5
109
  8
VISIBLE
  6
CONTINUOUS
 62
     7
 10
143.6566951943
 20
79.8707804994
 30
0.0
 40
6.700000000000003
 50
236.4243920788
 51
243.5756079212
  0
CIRCLE
  5
10A
  8
VISIBLE
  6
CONTINUOUS
 62
     7
 10
143.6566951943
 20
79.8707804994
 30
0.0
 40
7.5
  0
ARC
  5
10B
  8
VISIBLE
  6
CONTINUOUS
 62
     7
 10
143.6566951943
 20
79.8707804994
 30
0.0
 40
6.700000000000001
 50
296.4243920788
 51
303.5756079212
  0
ARC
  5
10C
  8
VISIBLE
  6
CONTINUOUS
 62
     7
 10
143.6566951943
 20
79.8707804994
 30
0.0
 40
6.7
 50
356.4243920788
 51
3.5756079212
  0
ARC
  5
10D
  8
VISIBLE
  6
CONTINUOUS
 62
     7
 10
143.6566951943
 20
79.8707804994
 30
0.0
 40
6.7
 50
56.4243920788
 51
63.5756079212
  0
ARC
  5
10E
  8
VISIBLE
  6
CONTINUOUS
 62
     7
 10
143.6566951943
 20
79.8707804994
 30
0.0
 40
6.700000000000001
 50
116.4243920788
 51
123.5756079212
  0
ARC
  5
10F
  8
VISIBLE
  6
CONTINUOUS
 62
     7
 10
143.6566951943
 20
79.8707804994
 30
0.0
 40
6.7
 50
176.4243920788
 51
183.5756079212
  0
LINE
  5
110
  8
VISIBLE
  6
CONTINUOUS
 62
     7
 10
147.3620424654
 20
85.4529307662
 30
0.0
 11
150.3436527685
 21
80.2886302327
 31
0.0
  0
LINE
  5
111
  8
VISIBLE
  6
CONTINUOUS
 62
     7
 10
150.3436527685
 20
79.4529307662
 30
0.0
 11
147.3620424654
 21
74.2886302327
 31
0.0
  0
LINE
  5
112
  8
VISIBLE
  6
CONTINUOUS
 62
     7
 10
146.6383054974
 20
73.8707804994
 30
0.0
 11
140.6750848911
 21
73.8707804994
 31
0.0
  0
LINE
  5
113
  8
VISIBLE
  6
CONTINUOUS
 62
     7
 10
139.9513479231
 20
74.2886302327
 30
0.0
 11
136.96973762
 21
79.4529307662
 31
0.0
  0
LINE
  5
114
  8
VISIBLE
  6
CONTINUOUS
 62
     7
 10
136.96973762
 20
80.2886302327
 30
0.0
 11
139.9513479231
 21
85.4529307662
 31
0.0
  0
LINE
  5
115
  8
VISIBLE
  6
CONTINUOUS
 62
     7
 10
140.6750848911
 20
85.8707804994
 30
0.0
 11
146.6383054974
 21
85.8707804994
 31
0.0
  0
LINE
  5
116
  8
STANDARD
  6
DASHDOT2
 62
     7
 10
144.9066951663
 20
79.8707804994
 30
0.0
 11
142.4066952222
 21
79.8707804994
 31
0.0
  0
LINE
  5
117
  8
STANDARD
  6
DASHDOT2
 62
     7
 10
143.6566951943
 20
81.1207804715
 30
0.0
 11
143.6566951943
 21
78.6207805274
 31
0.0
  0
LINE
  5
118
  8
STANDARD
  6
DASHDOT2
 62
     7
 10
145.5316951523
 20
79.8707804994
 30
0.0
 11
168.9066951943
 21
79.8707804994
 31
0.0
  0
LINE
  5
119
  8
STANDARD
  6
DASHDOT2
 62
     7
 10
143.6566951943
 20
81.7457804575
 30
0.0
 11
143.6566951943
 21
105.1207804994
 31
0.0
  0
LINE
  5
11A
  8
STANDARD
  6
DASHDOT2
 62
     7
 10
141.7816952362
 20
79.8707804994
 30
0.0
 11
118.4066951943
 21
79.8707804994
 31
0.0
  0
LINE
  5
11B
  8
STANDARD
  6
DASHDOT2
 62
     7
 10
143.6566951943
 20
77.9957805413
 30
0.0
 11
143.6566951943
 21
54.6207804994
 31
0.0
  0
ENDBLK
  5
11D
  8
0
  0
BLOCK
  8
0
  2
GDIMGGROUP
 70
     0
 10
0.0
 20
0.0
 30
0.0
  3
GDIMGGROUP
  1

  0
POLYLINE
  5
120
  8
DEFAULT
  6
CONTINUOUS
 62
     7
 66
     1
 10
0.0
 20
0.0
 30
0.0
  0
VERTEX
  5
233
  8
DEFAULT
  6
CONTINUOUS
 62
     7
 10
33.1424095627
 20
49.372454391
 30
0.0
  0
VERTEX
  5
234
  8
DEFAULT
  6
CONTINUOUS
 62
     7
 10
33.1424095627
 20
50.2057877057
 30
0.0
  0
VERTEX
  5
235
  8
DEFAULT
  6
CONTINUOUS
 62
     7
 10
30.6424096186
 20
49.7891210483
 30
0.0
  0
VERTEX
  5
236
  8
DEFAULT
  6
CONTINUOUS
 62
     7
 10
33.1424095627
 20
49.372454391
 30
0.0
  0
SEQEND
  5
232
  8
DEFAULT
  6
CONTINUOUS
 62
     7
  0
POLYLINE
  5
121
  8
DEFAULT
  6
CONTINUOUS
 62
     7
 66
     1
 10
0.0
 20
0.0
 30
0.0
  0
VERTEX
  5
238
  8
DEFAULT
  6
CONTINUOUS
 62
     7
 10
48.1424092275
 20
49.372454391
 30
0.0
  0
VERTEX
  5
239
  8
DEFAULT
  6
CONTINUOUS
 62
     7
 10
48.1424092275
 20
50.2057877057
 30
0.0
  0
VERTEX
  5
23A
  8
DEFAULT
  6
CONTINUOUS
 62
     7
 10
50.6424091716
 20
49.7891210483
 30
0.0
  0
VERTEX
  5
23B
  8
DEFAULT
  6
CONTINUOUS
 62
     7
 10
48.1424092275
 20
49.372454391
 30
0.0
  0
SEQEND
  5
237
  8
DEFAULT
  6
CONTINUOUS
 62
     7
  0
LINE
  5
122
  8
DEFAULT
  6
CONTINUOUS
 62
     7
 10
30.6424096186
 20
67.8707804994
 30
0.0
 11
30.6424096186
 21
48.5391210762
 31
0.0
  0
LINE
  5
123
  8
DEFAULT
  6
CONTINUOUS
 62
     7
 10
50.6424096186
 20
62.4082804994
 30
0.0
 11
50.6424096186
 21
48.5391210762
 31
0.0
  0
LINE
  5
124
  8
DEFAULT
  6
CONTINUOUS
 62
     7
 10
30.6424096186
 20
49.7891210483
 30
0.0
 11
50.6424091716
 21
49.7891210483
 31
0.0
  0
TEXT
  5
125
  8
DEFAULT
  6
CONTINUOUS
 62
     7
 10
38.685887656
 20
50.4141210483
 30
0.0
 40
2.5
  1
40
  7
SEACAD_ARIAL_TTF
 11
38.685887656
 21
52.9141210483
 31
0.0
 73
     3
  0
ENDBLK
  5
127
  8
0
  0
BLOCK
  8
0
  2
GDIMGGROUP1
 70
     0
 10
0.0
 20
0.0
 30
0.0
  3
GDIMGGROUP1
  1

  0
POLYLINE
  5
12A
  8
DEFAULT
  6
CONTINUOUS
 62
     7
 66
     1
 10
0.0
 20
0.0
 30
0.0
  0
VERTEX
  5
23D
  8
DEFAULT
  6
CONTINUOUS
 62
     7
 10
20.0908671049
 20
69.8707804436
 30
0.0
  0
VERTEX
  5
23E
  8
DEFAULT
  6
CONTINUOUS
 62
     7
 10
20.9242004196
 20
69.8707804436
 30
0.0
  0
VERTEX
  5
23F
  8
DEFAULT
  6
CONTINUOUS
 62
     7
 10
20.5075337623
 20
67.3707804994
 30
0.0
  0
VERTEX
  5
240
  8
DEFAULT
  6
CONTINUOUS
 62
     7
 10
20.0908671049
 20
69.8707804436
 30
0.0
  0
SEQEND
  5
23C
  8
DEFAULT
  6
CONTINUOUS
 62
     7
  0
POLYLINE
  5
12B
  8
DEFAULT
  6
CONTINUOUS
 62
     7
 66
     1
 10
0.0
 20
0.0
 30
0.0
  0
VERTEX
  5
242
  8
DEFAULT
  6
CONTINUOUS
 62
     7
 10
20.0908671049
 20
89.8707809278
 30
0.0
  0
VERTEX
  5
243
  8
DEFAULT
  6
CONTINUOUS
 62
     7
 10
20.9242004196
 20
89.8707809278
 30
0.0
  0
VERTEX
  5
244
  8
DEFAULT
  6
CONTINUOUS
 62
     7
 10
20.5075337623
 20
92.370780872
 30
0.0
  0
VERTEX
  5
245
  8
DEFAULT
  6
CONTINUOUS
 62
     7
 10
20.0908671049
 20
89.8707809278
 30
0.0
  0
SEQEND
  5
241
  8
DEFAULT
  6
CONTINUOUS
 62
     7
  0
LINE
  5
12C
  8
DEFAULT
  6
CONTINUOUS
 62
     7
 10
31.1424096186
 20
67.3707804994
 30
0.0
 11
19.2575337902
 21
67.3707804994
 31
0.0
  0
LINE
  5
12D
  8
DEFAULT
  6
CONTINUOUS
 62
     7
 10
31.1424096186
 20
92.3707804994
 30
0.0
 11
19.2575337902
 21
92.3707804994
 31
0.0
  0
LINE
  5
12E
  8
DEFAULT
  6
CONTINUOUS
 62
     7
 10
20.5075337623
 20
67.3707804994
 30
0.0
 11
20.5075337623
 21
92.370780872
 31
0.0
  0
TEXT
  5
12F
  8
DEFAULT
  6
CONTINUOUS
 62
     7
 10
19.8825337623
 20
80.2146975431
 30
0.0
 40
2.5
  1
50
 50
90.0
  7
SEACAD_ARIAL_TTF
 11
17.3825337623
 21
80.2146975431
 31
0.0
 73
     3
  0
TEXT
  5
131
  8
DEFAULT
  6
CONTINUOUS
 62
     7
 10
19.8825337623
 20
75.6138203501
 30
0.0
 40
2.5
  1
O
 50
90.0
  7
SEACAD_SEMECA1_TTF
 11
17.3825337623
 21
75.6138203501
 31
0.0
 73
     3
  0
ENDBLK
  5
133
  8
0
  0
ENDSEC
  0
SECTION
  2
ENTITIES
  0
INSERT
  5
5F
  8
DEFAULT
  2
SEANNOT_GROUP
 10
0.0
 20
0.0
 30
0.0
  0
INSERT
  5
68
  8
DEFAULT
  2
SE
 10
0.0
 20
0.0
 30
0.0
  0
INSERT
  5
F5
  8
DEFAULT
  2
SE1
 10
0.0
 20
0.0
 30
0.0
  0
INSERT
  5
11F
  8
DEFAULT
  2
GDIMGGROUP
 10
0.0
 20
0.0
 30
0.0
  0
INSERT
  5
129
  8
DEFAULT
  2
GDIMGGROUP1
 10
0.0
 20
0.0
 30
0.0
  0
ENDSEC
  0
EOF
