ISO-10303-21;
HEADER;
FILE_DESCRIPTION (( 'STEP AP214' ),
    '1' );
FILE_NAME ('95-1-78766-10.STEP',
    '2025-04-03T13:07:13',
    ( '' ),
    ( '' ),
    'SwSTEP 2.0',
    'SolidWorks 2023',
    '' );
FILE_SCHEMA (( 'AUTOMOTIVE_DESIGN' ));
ENDSEC;

DATA;
#1 = ORIENTED_EDGE ( 'NONE', *, *, #108, .F. ) ;
#2 = ORIENTED_EDGE ( 'NONE', *, *, #89, .F. ) ;
#3 = EDGE_CURVE ( 'NONE', #191, #282, #140, .T. ) ;
#4 = FILL_AREA_STYLE_COLOUR ( '', #74 ) ;
#5 = EDGE_LOOP ( 'NONE', ( #122, #240 ) ) ;
#6 = ORIENTED_EDGE ( 'NONE', *, *, #243, .T. ) ;
#7 = ORIENTED_EDGE ( 'NONE', *, *, #252, .F. ) ;
#8 = CIRCLE ( 'NONE', #32, 5.000000000000009770 ) ;
#9 = DIRECTION ( 'NONE',  ( 0.000000000000000000, 1.000000000000000000, 0.000000000000000000 ) ) ;
#10 = DIRECTION ( 'NONE',  ( 1.110223024625153829E-16, -1.000000000000000000, 0.000000000000000000 ) ) ;
#11 = PRODUCT_DEFINITION_SHAPE ( 'NONE', 'NONE',  #223 ) ;
#12 = DIRECTION ( 'NONE',  ( 1.000000000000000000, 1.224646799147351728E-16, -0.000000000000000000 ) ) ;
#13 = CARTESIAN_POINT ( 'NONE',  ( 13.00000000000001421, -4.999999999999996447, 0.000000000000000000 ) ) ;
#14 = ADVANCED_FACE ( 'NONE', ( #119 ), #105, .T. ) ;
#15 = DIRECTION ( 'NONE',  ( -0.7071067811865465735, 0.7071067811865483499, 8.659560562354945184E-17 ) ) ;
#16 = CYLINDRICAL_SURFACE ( 'NONE', #269, 4.999999999999997335 ) ;
#17 = CIRCLE ( 'NONE', #254, 4.999999999999998224 ) ;
#18 = LINE ( 'NONE', #134, #200 ) ;
#19 = FACE_OUTER_BOUND ( 'NONE', #99, .T. ) ;
#20 = VECTOR ( 'NONE', #245, 999.9999999999998863 ) ;
#21 = ORIENTED_EDGE ( 'NONE', *, *, #164, .T. ) ;
#22 = CONICAL_SURFACE ( 'NONE', #241, 4.999999999999998224, 0.7853981633974497223 ) ;
#23 = ORIENTED_EDGE ( 'NONE', *, *, #120, .F. ) ;
#24 = EDGE_CURVE ( 'NONE', #190, #210, #52, .T. ) ;
#25 = SURFACE_SIDE_STYLE ('',( #293 ) ) ;
#26 = AXIS2_PLACEMENT_3D ( 'NONE', #185, #238, #27 ) ;
#27 = DIRECTION ( 'NONE',  ( -1.084202172485505667E-16, 1.000000000000000000, 0.000000000000000000 ) ) ;
#28 = VERTEX_POINT ( 'NONE', #13 ) ;
#29 = ORIENTED_EDGE ( 'NONE', *, *, #243, .F. ) ;
#30 = CIRCLE ( 'NONE', #232, 5.000000000000009770 ) ;
#31 = DIRECTION ( 'NONE',  ( 0.000000000000000000, -1.000000000000000000, 0.000000000000000000 ) ) ;
#32 = AXIS2_PLACEMENT_3D ( 'NONE', #56, #33, #176 ) ;
#33 = DIRECTION ( 'NONE',  ( -1.000000000000000000, -1.224646799147353207E-16, 0.000000000000000000 ) ) ;
#34 = CARTESIAN_POINT ( 'NONE',  ( -54.99999999999999289, -6.735557395310441826E-15, 0.000000000000000000 ) ) ;
#35 = DIRECTION ( 'NONE',  ( -1.224646799147353454E-16, 1.000000000000000000, 0.000000000000000000 ) ) ;
#36 = EDGE_CURVE ( 'NONE', #282, #191, #130, .T. ) ;
#37 =( GEOMETRIC_REPRESENTATION_CONTEXT ( 3 ) GLOBAL_UNCERTAINTY_ASSIGNED_CONTEXT ( ( #113 ) ) GLOBAL_UNIT_ASSIGNED_CONTEXT ( ( #159, #65, #132 ) ) REPRESENTATION_CONTEXT ( 'NONE', 'WORKASPACE' ) );
#38 = CYLINDRICAL_SURFACE ( 'NONE', #133, 5.999999999999996447 ) ;
#39 = VECTOR ( 'NONE', #15, 1000.000000000000114 ) ;
#40 = DIRECTION ( 'NONE',  ( 1.000000000000000000, 1.224646799147353207E-16, -0.000000000000000000 ) ) ;
#41 = DIRECTION ( 'NONE',  ( 1.000000000000000000, 1.224646799147353207E-16, -0.000000000000000000 ) ) ;
#42 = CARTESIAN_POINT ( 'NONE',  ( 0.000000000000000000, 0.000000000000000000, 0.000000000000000000 ) ) ;
#43 = VECTOR ( 'NONE', #276, 1000.000000000000000 ) ;
#44 = CYLINDRICAL_SURFACE ( 'NONE', #149, 5.999999999999996447 ) ;
#45 = DIRECTION ( 'NONE',  ( 1.000000000000000000, 1.224646799147353207E-16, -0.000000000000000000 ) ) ;
#46 = APPLICATION_CONTEXT ( 'automotive_design' ) ;
#47 = CARTESIAN_POINT ( 'NONE',  ( -0.9999999999999913403, -5.999999999999992895, 7.347880794884112834E-16 ) ) ;
#48 = EDGE_LOOP ( 'NONE', ( #51, #6, #214, #257 ) ) ;
#49 = EDGE_CURVE ( 'NONE', #279, #76, #62, .T. ) ;
#50 = ORIENTED_EDGE ( 'NONE', *, *, #89, .T. ) ;
#51 = ORIENTED_EDGE ( 'NONE', *, *, #294, .F. ) ;
#52 = CIRCLE ( 'NONE', #70, 4.999999999999998224 ) ;
#53 = EDGE_LOOP ( 'NONE', ( #141, #97, #168, #136 ) ) ;
#54 = ORIENTED_EDGE ( 'NONE', *, *, #272, .T. ) ;
#55 = DIRECTION ( 'NONE',  ( 0.000000000000000000, -1.000000000000000000, 0.000000000000000000 ) ) ;
#56 = CARTESIAN_POINT ( 'NONE',  ( -54.99999999999999289, -6.735557395310441826E-15, 0.000000000000000000 ) ) ;
#57 = DIRECTION ( 'NONE',  ( -1.000000000000000000, -1.224646799147353207E-16, 0.000000000000000000 ) ) ;
#58 = CONICAL_SURFACE ( 'NONE', #228, 5.999999999999996447, 0.7853981633974517207 ) ;
#59 = ADVANCED_FACE ( 'NONE', ( #128 ), #114, .T. ) ;
#60 = DIRECTION ( 'NONE',  ( -1.084202172485505667E-16, 1.000000000000000000, 0.000000000000000000 ) ) ;
#61 = FACE_OUTER_BOUND ( 'NONE', #5, .T. ) ;
#62 = LINE ( 'NONE', #86, #256 ) ;
#63 = EDGE_CURVE ( 'NONE', #190, #282, #289, .T. ) ;
#64 = DIRECTION ( 'NONE',  ( 1.224646799147353207E-16, -1.000000000000000000, 0.000000000000000000 ) ) ;
#65 =( NAMED_UNIT ( * ) PLANE_ANGLE_UNIT ( ) SI_UNIT ( $, .RADIAN. ) );
#66 = CARTESIAN_POINT ( 'NONE',  ( -7.347880794884115792E-16, 5.999999999999996447, 0.000000000000000000 ) ) ;
#67 = EDGE_CURVE ( 'NONE', #239, #76, #209, .T. ) ;
#68 = CARTESIAN_POINT ( 'NONE',  ( -6.123233995736764310E-16, 4.999999999999998224, 6.735557395310437093E-16 ) ) ;
#69 = CONICAL_SURFACE ( 'NONE', #255, 5.999999999999996447, 0.7853981633974517207 ) ;
#70 = AXIS2_PLACEMENT_3D ( 'NONE', #148, #153, #195 ) ;
#71 = ORIENTED_EDGE ( 'NONE', *, *, #206, .F. ) ;
#72 = ORIENTED_EDGE ( 'NONE', *, *, #252, .T. ) ;
#73 = ORIENTED_EDGE ( 'NONE', *, *, #280, .T. ) ;
#74 = COLOUR_RGB ( '',0.7921568627450980005, 0.8196078431372548767, 0.9333333333333333481 ) ;
#75 = AXIS2_PLACEMENT_3D ( 'NONE', #222, #127, #102 ) ;
#76 = VERTEX_POINT ( 'NONE', #152 ) ;
#77 = CARTESIAN_POINT ( 'NONE',  ( -0.9999999999999926725, 5.999999999999992895, 0.000000000000000000 ) ) ;
#78 = ORIENTED_EDGE ( 'NONE', *, *, #272, .F. ) ;
#79 = DIRECTION ( 'NONE',  ( 0.000000000000000000, 0.000000000000000000, 1.000000000000000000 ) ) ;
#80 = CARTESIAN_POINT ( 'NONE',  ( -0.9999999999999920064, -1.224646799147343593E-16, 0.000000000000000000 ) ) ;
#81 = EDGE_CURVE ( 'NONE', #281, #227, #249, .T. ) ;
#82 = DIRECTION ( 'NONE',  ( 1.000000000000000000, 1.224646799147351728E-16, -0.000000000000000000 ) ) ;
#83 = DIRECTION ( 'NONE',  ( 1.224646799147353207E-16, -1.000000000000000000, 0.000000000000000000 ) ) ;
#84 = CARTESIAN_POINT ( 'NONE',  ( 0.000000000000000000, 0.000000000000000000, 0.000000000000000000 ) ) ;
#85 =( GEOMETRIC_REPRESENTATION_CONTEXT ( 3 ) GLOBAL_UNCERTAINTY_ASSIGNED_CONTEXT ( ( #91 ) ) GLOBAL_UNIT_ASSIGNED_CONTEXT ( ( #126, #123, #147 ) ) REPRESENTATION_CONTEXT ( 'NONE', 'WORKASPACE' ) );
#86 = CARTESIAN_POINT ( 'NONE',  ( -54.00000000000001421, 5.999999999999989342, 0.000000000000000000 ) ) ;
#87 = DIRECTION ( 'NONE',  ( 1.000000000000000000, 1.224646799147353207E-16, -0.000000000000000000 ) ) ;
#88 = CARTESIAN_POINT ( 'NONE',  ( -6.123233995736763324E-16, 4.999999999999997335, 0.000000000000000000 ) ) ;
#89 = EDGE_CURVE ( 'NONE', #281, #28, #198, .T. ) ;
#90 = FACE_OUTER_BOUND ( 'NONE', #48, .T. ) ;
#91 = UNCERTAINTY_MEASURE_WITH_UNIT (LENGTH_MEASURE( 1.000000000000000082E-05 ), #126, 'distance_accuracy_value', 'NONE');
#92 = CARTESIAN_POINT ( 'NONE',  ( 13.00000000000001421, 4.999999999999999112, 6.123233995736762338E-16 ) ) ;
#93 = VERTEX_POINT ( 'NONE', #288 ) ;
#94 = ORIENTED_EDGE ( 'NONE', *, *, #206, .T. ) ;
#95 = EDGE_LOOP ( 'NONE', ( #143, #117, #193, #167 ) ) ;
#96 = ADVANCED_FACE ( 'NONE', ( #125 ), #16, .T. ) ;
#97 = ORIENTED_EDGE ( 'NONE', *, *, #63, .T. ) ;
#98 = AXIS2_PLACEMENT_3D ( 'NONE', #217, #57, #10 ) ;
#99 = EDGE_LOOP ( 'NONE', ( #213, #121, #261, #145 ) ) ;
#100 = DIRECTION ( 'NONE',  ( -1.000000000000000000, -1.224646799147353207E-16, 0.000000000000000000 ) ) ;
#101 = FACE_OUTER_BOUND ( 'NONE', #95, .T. ) ;
#102 = DIRECTION ( 'NONE',  ( 0.000000000000000000, 1.000000000000000000, 0.000000000000000000 ) ) ;
#103 = ADVANCED_FACE ( 'NONE', ( #61 ), #290, .T. ) ;
#104 = FACE_OUTER_BOUND ( 'NONE', #53, .T. ) ;
#105 = CYLINDRICAL_SURFACE ( 'NONE', #274, 4.999999999999997335 ) ;
#106 = CARTESIAN_POINT ( 'NONE',  ( -54.00000000000001421, -6.613092715395709044E-15, 0.000000000000000000 ) ) ;
#107 = CARTESIAN_POINT ( 'NONE',  ( -54.00000000000001421, -6.000000000000004441, 7.347880794884120722E-16 ) ) ;
#108 = EDGE_CURVE ( 'NONE', #279, #93, #8, .T. ) ;
#109 = DIRECTION ( 'NONE',  ( -1.000000000000000000, -1.224646799147353207E-16, 0.000000000000000000 ) ) ;
#110 = PRODUCT_RELATED_PRODUCT_CATEGORY ( 'part', '', ( #248 ) ) ;
#111 = PRODUCT_DEFINITION_FORMATION_WITH_SPECIFIED_SOURCE ( 'ANY', '', #248, .NOT_KNOWN. ) ;
#112 = LINE ( 'NONE', #138, #43 ) ;
#113 = UNCERTAINTY_MEASURE_WITH_UNIT (LENGTH_MEASURE( 1.000000000000000082E-05 ), #159, 'distance_accuracy_value', 'NONE');
#114 = CONICAL_SURFACE ( 'NONE', #283, 1000.000000000002387, 0.7853981633974495002 ) ;
#115 = EDGE_CURVE ( 'NONE', #76, #239, #179, .T. ) ;
#116 = ORIENTED_EDGE ( 'NONE', *, *, #3, .T. ) ;
#117 = ORIENTED_EDGE ( 'NONE', *, *, #186, .T. ) ;
#118 = DIRECTION ( 'NONE',  ( 1.000000000000000000, 1.224646799147351728E-16, -0.000000000000000000 ) ) ;
#119 = FACE_OUTER_BOUND ( 'NONE', #285, .T. ) ;
#120 = EDGE_CURVE ( 'NONE', #28, #227, #207, .T. ) ;
#121 = ORIENTED_EDGE ( 'NONE', *, *, #67, .T. ) ;
#122 = ORIENTED_EDGE ( 'NONE', *, *, #108, .T. ) ;
#123 =( NAMED_UNIT ( * ) PLANE_ANGLE_UNIT ( ) SI_UNIT ( $, .RADIAN. ) );
#124 = CONICAL_SURFACE ( 'NONE', #173, 4.999999999999998224, 0.7853981633974497223 ) ;
#125 = FACE_OUTER_BOUND ( 'NONE', #235, .T. ) ;
#126 =( LENGTH_UNIT ( ) NAMED_UNIT ( * ) SI_UNIT ( .MILLI., .METRE. ) );
#127 = DIRECTION ( 'NONE',  ( 1.000000000000000000, 1.224646799147353207E-16, -0.000000000000000000 ) ) ;
#128 = FACE_OUTER_BOUND ( 'NONE', #163, .T. ) ;
#129 = DIRECTION ( 'NONE',  ( -0.7071067811865465735, -0.7071067811865484609, 0.000000000000000000 ) ) ;
#130 = CIRCLE ( 'NONE', #299, 5.999999999999992895 ) ;
#131 = CARTESIAN_POINT ( 'NONE',  ( -54.99999999999999289, -6.735557395310441826E-15, 0.000000000000000000 ) ) ;
#132 =( NAMED_UNIT ( * ) SI_UNIT ( $, .STERADIAN. ) SOLID_ANGLE_UNIT ( ) );
#133 = AXIS2_PLACEMENT_3D ( 'NONE', #286, #244, #35 ) ;
#134 = CARTESIAN_POINT ( 'NONE',  ( 6.123233995736763324E-16, -4.999999999999997335, 6.123233995736763324E-16 ) ) ;
#135 = ADVANCED_FACE ( 'NONE', ( #177 ), #233, .T. ) ;
#136 = ORIENTED_EDGE ( 'NONE', *, *, #164, .F. ) ;
#137 = CARTESIAN_POINT ( 'NONE',  ( 7.347880794884115792E-16, -5.999999999999996447, 7.347880794884115792E-16 ) ) ;
#138 = CARTESIAN_POINT ( 'NONE',  ( 6.123233995736764310E-16, -4.999999999999998224, 0.000000000000000000 ) ) ;
#139 = CARTESIAN_POINT ( 'NONE',  ( 0.000000000000000000, 0.000000000000000000, 0.000000000000000000 ) ) ;
#140 = CIRCLE ( 'NONE', #26, 5.999999999999992895 ) ;
#141 = ORIENTED_EDGE ( 'NONE', *, *, #24, .F. ) ;
#142 = ORIENTED_EDGE ( 'NONE', *, *, #49, .T. ) ;
#143 = ORIENTED_EDGE ( 'NONE', *, *, #115, .T. ) ;
#144 = ADVANCED_FACE ( 'NONE', ( #101 ), #38, .T. ) ;
#145 = ORIENTED_EDGE ( 'NONE', *, *, #3, .F. ) ;
#146 = ORIENTED_EDGE ( 'NONE', *, *, #24, .T. ) ;
#147 =( NAMED_UNIT ( * ) SI_UNIT ( $, .STERADIAN. ) SOLID_ANGLE_UNIT ( ) );
#148 = CARTESIAN_POINT ( 'NONE',  ( 0.000000000000000000, 0.000000000000000000, 0.000000000000000000 ) ) ;
#149 = AXIS2_PLACEMENT_3D ( 'NONE', #139, #212, #157 ) ;
#150 = DIRECTION ( 'NONE',  ( 1.224646799147353207E-16, -1.000000000000000000, 0.000000000000000000 ) ) ;
#151 = APPLICATION_PROTOCOL_DEFINITION ( 'draft international standard', 'automotive_design', 1998, #46 ) ;
#152 = CARTESIAN_POINT ( 'NONE',  ( -54.00000000000001421, 5.999999999999989342, 0.000000000000000000 ) ) ;
#153 = DIRECTION ( 'NONE',  ( 1.000000000000000000, 1.224646799147353207E-16, -0.000000000000000000 ) ) ;
#154 = ADVANCED_FACE ( 'NONE', ( #104 ), #124, .T. ) ;
#155 = CARTESIAN_POINT ( 'NONE',  ( -54.00000000000001421, -6.613092715395709044E-15, 0.000000000000000000 ) ) ;
#156 = AXIS2_PLACEMENT_3D ( 'NONE', #155, #82, #262 ) ;
#157 = DIRECTION ( 'NONE',  ( -1.224646799147353454E-16, 1.000000000000000000, 0.000000000000000000 ) ) ;
#158 = APPLICATION_CONTEXT ( 'automotive_design' ) ;
#159 =( LENGTH_UNIT ( ) NAMED_UNIT ( * ) SI_UNIT ( .MILLI., .METRE. ) );
#160 = CARTESIAN_POINT ( 'NONE',  ( -54.00000000000001421, -6.613092715395709044E-15, 0.000000000000000000 ) ) ;
#161 = FACE_OUTER_BOUND ( 'NONE', #170, .T. ) ;
#162 = AXIS2_PLACEMENT_3D ( 'NONE', #229, #237, #9 ) ;
#163 = EDGE_LOOP ( 'NONE', ( #278, #50, #188 ) ) ;
#164 = EDGE_CURVE ( 'NONE', #210, #191, #112, .T. ) ;
#165 = EDGE_LOOP ( 'NONE', ( #215, #78, #21, #116 ) ) ;
#166 = VECTOR ( 'NONE', #271, 1000.000000000000114 ) ;
#167 = ORIENTED_EDGE ( 'NONE', *, *, #260, .F. ) ;
#168 = ORIENTED_EDGE ( 'NONE', *, *, #36, .T. ) ;
#169 = DIRECTION ( 'NONE',  ( 1.000000000000000000, 0.000000000000000000, 0.000000000000000000 ) ) ;
#170 = EDGE_LOOP ( 'NONE', ( #29, #1, #142, #258 ) ) ;
#171 = APPLICATION_PROTOCOL_DEFINITION ( 'draft international standard', 'automotive_design', 1998, #158 ) ;
#172 = DIRECTION ( 'NONE',  ( -1.000000000000000000, -1.224646799147353207E-16, 0.000000000000000000 ) ) ;
#173 = AXIS2_PLACEMENT_3D ( 'NONE', #197, #224, #83 ) ;
#174 = DIRECTION ( 'NONE',  ( -1.224646799147353207E-16, 1.000000000000000000, 0.000000000000000000 ) ) ;
#175 = ADVANCED_FACE ( 'NONE', ( #90 ), #69, .T. ) ;
#176 = DIRECTION ( 'NONE',  ( 0.000000000000000000, -1.000000000000000000, 0.000000000000000000 ) ) ;
#177 = FACE_OUTER_BOUND ( 'NONE', #211, .T. ) ;
#178 = DIRECTION ( 'NONE',  ( 1.000000000000000000, 1.224646799147351728E-16, -0.000000000000000000 ) ) ;
#179 = CIRCLE ( 'NONE', #216, 5.999999999999996447 ) ;
#180 = CARTESIAN_POINT ( 'NONE',  ( 6.123233995736764310E-16, -4.999999999999998224, 0.000000000000000000 ) ) ;
#181 = DIRECTION ( 'NONE',  ( 0.000000000000000000, 1.000000000000000000, 0.000000000000000000 ) ) ;
#182 = DIRECTION ( 'NONE',  ( 0.000000000000000000, 1.000000000000000000, 0.000000000000000000 ) ) ;
#183 = FILL_AREA_STYLE ('',( #4 ) ) ;
#184 = CIRCLE ( 'NONE', #162, 4.999999999999997335 ) ;
#185 = CARTESIAN_POINT ( 'NONE',  ( -0.9999999999999920064, -1.224646799147343593E-16, 0.000000000000000000 ) ) ;
#186 = EDGE_CURVE ( 'NONE', #239, #191, #203, .T. ) ;
#187 = VECTOR ( 'NONE', #87, 1000.000000000000000 ) ;
#188 = ORIENTED_EDGE ( 'NONE', *, *, #120, .T. ) ;
#189 = CARTESIAN_POINT ( 'NONE',  ( 0.000000000000000000, 0.000000000000000000, 0.000000000000000000 ) ) ;
#190 = VERTEX_POINT ( 'NONE', #68 ) ;
#191 = VERTEX_POINT ( 'NONE', #47 ) ;
#192 = VECTOR ( 'NONE', #129, 1000.000000000000000 ) ;
#193 = ORIENTED_EDGE ( 'NONE', *, *, #36, .F. ) ;
#194 = DIRECTION ( 'NONE',  ( 1.000000000000000000, 1.224646799147353207E-16, -0.000000000000000000 ) ) ;
#195 = DIRECTION ( 'NONE',  ( -1.224646799147353207E-16, 1.000000000000000000, 0.000000000000000000 ) ) ;
#196 = ADVANCED_FACE ( 'NONE', ( #161 ), #58, .T. ) ;
#197 = CARTESIAN_POINT ( 'NONE',  ( 0.000000000000000000, 0.000000000000000000, 0.000000000000000000 ) ) ;
#198 = LINE ( 'NONE', #242, #192 ) ;
#199 = DIRECTION ( 'NONE',  ( 1.000000000000000000, 1.224646799147353207E-16, -0.000000000000000000 ) ) ;
#200 = VECTOR ( 'NONE', #208, 1000.000000000000000 ) ;
#201 = VECTOR ( 'NONE', #45, 1000.000000000000000 ) ;
#202 = CARTESIAN_POINT ( 'NONE',  ( 0.000000000000000000, 0.000000000000000000, 0.000000000000000000 ) ) ;
#203 = LINE ( 'NONE', #137, #201 ) ;
#204 = CARTESIAN_POINT ( 'NONE',  ( -54.00000000000001421, -6.613092715395709044E-15, 0.000000000000000000 ) ) ;
#205 = VECTOR ( 'NONE', #41, 1000.000000000000000 ) ;
#206 = EDGE_CURVE ( 'NONE', #190, #227, #273, .T. ) ;
#207 = CIRCLE ( 'NONE', #75, 4.999999999999997335 ) ;
#208 = DIRECTION ( 'NONE',  ( 1.000000000000000000, 1.224646799147353207E-16, -0.000000000000000000 ) ) ;
#209 = CIRCLE ( 'NONE', #156, 5.999999999999996447 ) ;
#210 = VERTEX_POINT ( 'NONE', #180 ) ;
#211 = EDGE_LOOP ( 'NONE', ( #2, #259, #73 ) ) ;
#212 = DIRECTION ( 'NONE',  ( 1.000000000000000000, 1.224646799147353207E-16, -0.000000000000000000 ) ) ;
#213 = ORIENTED_EDGE ( 'NONE', *, *, #186, .F. ) ;
#214 = ORIENTED_EDGE ( 'NONE', *, *, #115, .F. ) ;
#215 = ORIENTED_EDGE ( 'NONE', *, *, #63, .F. ) ;
#216 = AXIS2_PLACEMENT_3D ( 'NONE', #106, #12, #31 ) ;
#217 = CARTESIAN_POINT ( 'NONE',  ( -982.0000000000000000, -1.202603156762700922E-13, 0.000000000000000000 ) ) ;
#218 = CARTESIAN_POINT ( 'NONE',  ( 0.000000000000000000, 0.000000000000000000, 0.000000000000000000 ) ) ;
#219 = ADVANCED_FACE ( 'NONE', ( #231 ), #22, .T. ) ;
#220 = SHAPE_DEFINITION_REPRESENTATION ( #11, #221 ) ;
#221 = ADVANCED_BREP_SHAPE_REPRESENTATION ( '95-1-78766-10', ( #266, #246 ), #85 ) ;
#222 = CARTESIAN_POINT ( 'NONE',  ( 13.00000000000001421, 1.592040838891561068E-15, 0.000000000000000000 ) ) ;
#223 = PRODUCT_DEFINITION ( 'UNKNOWN', '', #111, #275 ) ;
#224 = DIRECTION ( 'NONE',  ( -1.000000000000000000, -1.224646799147353207E-16, 0.000000000000000000 ) ) ;
#225 = DIRECTION ( 'NONE',  ( -1.224646799147353207E-16, 1.000000000000000000, 0.000000000000000000 ) ) ;
#226 = CARTESIAN_POINT ( 'NONE',  ( -54.00000000000001421, -6.000000000000003553, 7.347880794884115792E-16 ) ) ;
#227 = VERTEX_POINT ( 'NONE', #92 ) ;
#228 = AXIS2_PLACEMENT_3D ( 'NONE', #204, #178, #181 ) ;
#229 = CARTESIAN_POINT ( 'NONE',  ( 13.00000000000001421, 1.592040838891561068E-15, 0.000000000000000000 ) ) ;
#230 = ADVANCED_FACE ( 'NONE', ( #19 ), #44, .T. ) ;
#231 = FACE_OUTER_BOUND ( 'NONE', #165, .T. ) ;
#232 = AXIS2_PLACEMENT_3D ( 'NONE', #34, #100, #55 ) ;
#233 = CONICAL_SURFACE ( 'NONE', #98, 1000.000000000002387, 0.7853981633974495002 ) ;
#234 = AXIS2_PLACEMENT_3D ( 'NONE', #131, #265, #150 ) ;
#235 = EDGE_LOOP ( 'NONE', ( #146, #72, #236, #71 ) ) ;
#236 = ORIENTED_EDGE ( 'NONE', *, *, #280, .F. ) ;
#237 = DIRECTION ( 'NONE',  ( 1.000000000000000000, 1.224646799147353207E-16, -0.000000000000000000 ) ) ;
#238 = DIRECTION ( 'NONE',  ( 1.000000000000000000, 1.224646799147353207E-16, -0.000000000000000000 ) ) ;
#239 = VERTEX_POINT ( 'NONE', #107 ) ;
#240 = ORIENTED_EDGE ( 'NONE', *, *, #294, .T. ) ;
#241 = AXIS2_PLACEMENT_3D ( 'NONE', #42, #109, #64 ) ;
#242 = CARTESIAN_POINT ( 'NONE',  ( 18.00000000000000000, 2.449293598294704935E-16, 0.000000000000000000 ) ) ;
#243 = EDGE_CURVE ( 'NONE', #93, #239, #296, .T. ) ;
#244 = DIRECTION ( 'NONE',  ( 1.000000000000000000, 1.224646799147353207E-16, -0.000000000000000000 ) ) ;
#245 = DIRECTION ( 'NONE',  ( -0.7071067811865467956, 0.7071067811865483499, 8.659560562354943952E-17 ) ) ;
#246 = AXIS2_PLACEMENT_3D ( 'NONE', #189, #79, #169 ) ;
#247 = CARTESIAN_POINT ( 'NONE',  ( -6.123233995736764310E-16, 4.999999999999998224, 6.123233995736764310E-16 ) ) ;
#248 = PRODUCT ( '95-1-78766-10', '95-1-78766-10', '', ( #287 ) ) ;
#249 = LINE ( 'NONE', #268, #20 ) ;
#250 = PRESENTATION_STYLE_ASSIGNMENT (( #270 ) ) ;
#251 = CARTESIAN_POINT ( 'NONE',  ( -54.99999999999999289, 5.000000000000002665, 0.000000000000000000 ) ) ;
#252 = EDGE_CURVE ( 'NONE', #210, #28, #18, .T. ) ;
#253 = LINE ( 'NONE', #66, #205 ) ;
#254 = AXIS2_PLACEMENT_3D ( 'NONE', #202, #298, #295 ) ;
#255 = AXIS2_PLACEMENT_3D ( 'NONE', #160, #118, #182 ) ;
#256 = VECTOR ( 'NONE', #292, 1000.000000000000114 ) ;
#257 = ORIENTED_EDGE ( 'NONE', *, *, #49, .F. ) ;
#258 = ORIENTED_EDGE ( 'NONE', *, *, #67, .F. ) ;
#259 = ORIENTED_EDGE ( 'NONE', *, *, #81, .T. ) ;
#260 = EDGE_CURVE ( 'NONE', #76, #282, #253, .T. ) ;
#261 = ORIENTED_EDGE ( 'NONE', *, *, #260, .T. ) ;
#262 = DIRECTION ( 'NONE',  ( 0.000000000000000000, -1.000000000000000000, 0.000000000000000000 ) ) ;
#263 = CARTESIAN_POINT ( 'NONE',  ( -982.0000000000000000, -1.202603156762700922E-13, 0.000000000000000000 ) ) ;
#264 = CLOSED_SHELL ( 'NONE', ( #175, #96, #154, #144, #135, #59, #103, #230, #219, #14, #196 ) ) ;
#265 = DIRECTION ( 'NONE',  ( -1.000000000000000000, -1.224646799147353207E-16, 0.000000000000000000 ) ) ;
#266 = MANIFOLD_SOLID_BREP ( 'Fase1', #264 ) ;
#267 = DIRECTION ( 'NONE',  ( 1.110223024625153829E-16, -1.000000000000000000, 0.000000000000000000 ) ) ;
#268 = CARTESIAN_POINT ( 'NONE',  ( 18.00000000000000000, 4.163799117101000559E-15, 2.399615652258972173E-31 ) ) ;
#269 = AXIS2_PLACEMENT_3D ( 'NONE', #84, #40, #174 ) ;
#270 = SURFACE_STYLE_USAGE ( .BOTH. , #25 ) ;
#271 = DIRECTION ( 'NONE',  ( 0.7071067811865452413, -0.7071067811865499042, 8.659560562354963673E-17 ) ) ;
#272 = EDGE_CURVE ( 'NONE', #210, #190, #17, .T. ) ;
#273 = LINE ( 'NONE', #88, #187 ) ;
#274 = AXIS2_PLACEMENT_3D ( 'NONE', #218, #199, #225 ) ;
#275 = PRODUCT_DEFINITION_CONTEXT ( 'detailed design', #158, 'design' ) ;
#276 = DIRECTION ( 'NONE',  ( -0.7071067811865464625, -0.7071067811865486830, 0.000000000000000000 ) ) ;
#277 = MECHANICAL_DESIGN_GEOMETRIC_PRESENTATION_REPRESENTATION (  '', ( #291 ), #37 ) ;
#278 = ORIENTED_EDGE ( 'NONE', *, *, #81, .F. ) ;
#279 = VERTEX_POINT ( 'NONE', #251 ) ;
#280 = EDGE_CURVE ( 'NONE', #227, #28, #184, .T. ) ;
#281 = VERTEX_POINT ( 'NONE', #284 ) ;
#282 = VERTEX_POINT ( 'NONE', #77 ) ;
#283 = AXIS2_PLACEMENT_3D ( 'NONE', #263, #172, #267 ) ;
#284 = CARTESIAN_POINT ( 'NONE',  ( 18.00000000000000000, 2.449293598294704935E-16, 0.000000000000000000 ) ) ;
#285 = EDGE_LOOP ( 'NONE', ( #7, #54, #94, #23 ) ) ;
#286 = CARTESIAN_POINT ( 'NONE',  ( 0.000000000000000000, 0.000000000000000000, 0.000000000000000000 ) ) ;
#287 = PRODUCT_CONTEXT ( 'NONE', #46, 'mechanical' ) ;
#288 = CARTESIAN_POINT ( 'NONE',  ( -54.99999999999999289, -5.000000000000016875, 6.735557395310446954E-16 ) ) ;
#289 = LINE ( 'NONE', #247, #39 ) ;
#290 = PLANE ( 'NONE',  #234 ) ;
#291 = STYLED_ITEM ( 'NONE', ( #250 ), #266 ) ;
#292 = DIRECTION ( 'NONE',  ( 0.7071067811865450192, 0.7071067811865501263, 0.000000000000000000 ) ) ;
#293 = SURFACE_STYLE_FILL_AREA ( #183 ) ;
#294 = EDGE_CURVE ( 'NONE', #93, #279, #30, .T. ) ;
#295 = DIRECTION ( 'NONE',  ( -1.224646799147353207E-16, 1.000000000000000000, 0.000000000000000000 ) ) ;
#296 = LINE ( 'NONE', #226, #166 ) ;
#297 = PRESENTATION_LAYER_ASSIGNMENT (  '', '', ( #291 ) ) ;
#298 = DIRECTION ( 'NONE',  ( 1.000000000000000000, 1.224646799147353207E-16, -0.000000000000000000 ) ) ;
#299 = AXIS2_PLACEMENT_3D ( 'NONE', #80, #194, #60 ) ;
ENDSEC;
END-ISO-10303-21;
