ISO-10303-21;
HEADER;
FILE_DESCRIPTION (( 'STEP AP203' ),
    '1' );
FILE_NAME ('550.008.00.STEP',
    '2019-01-09T00:40:04',
    ( '' ),
    ( '' ),
    'SwSTEP 2.0',
    'SolidWorks 2019',
    '' );
FILE_SCHEMA (( 'CONFIG_CONTROL_DESIGN' ));
ENDSEC;

DATA;
#1 = CC_DESIGN_SECURITY_CLASSIFICATION ( #6, ( #134 ) ) ;
#2 = ORIENTED_EDGE ( 'NONE', *, *, #203, .F. ) ;
#3 =( NAMED_UNIT ( * ) SI_UNIT ( $, .STERADIAN. ) SOLID_ANGLE_UNIT ( ) );
#4 = CONICAL_SURFACE ( 'NONE', #66, 1.599999999999998535, 0.7853981633974531640 ) ;
#5 = CALENDAR_DATE ( 2019, 9, 1 ) ;
#6 = SECURITY_CLASSIFICATION ( '', '', #63 ) ;
#7 = PLANE ( 'NONE',  #161 ) ;
#8 = COORDINATED_UNIVERSAL_TIME_OFFSET ( 1, 0, .AHEAD. ) ;
#9 = CARTESIAN_POINT ( 'NONE',  ( 0.0000000000000000000, 0.0000000000000000000, 0.0000000000000000000 ) ) ;
#10 = PERSON_AND_ORGANIZATION ( #217, #61 ) ;
#11 = EDGE_LOOP ( 'NONE', ( #26 ) ) ;
#12 = EDGE_CURVE ( 'NONE', #119, #119, #183, .T. ) ;
#13 = AXIS2_PLACEMENT_3D ( 'NONE', #115, #74, #192 ) ;
#14 =( GEOMETRIC_REPRESENTATION_CONTEXT ( 3 ) GLOBAL_UNCERTAINTY_ASSIGNED_CONTEXT ( ( #141 ) ) GLOBAL_UNIT_ASSIGNED_CONTEXT ( ( #176, #18, #3 ) ) REPRESENTATION_CONTEXT ( 'NONE', 'WORKASPACE' ) );
#15 = FACE_OUTER_BOUND ( 'NONE', #212, .T. ) ;
#16 = ORIENTED_EDGE ( 'NONE', *, *, #235, .F. ) ;
#17 = VERTEX_POINT ( 'NONE', #95 ) ;
#18 =( NAMED_UNIT ( * ) PLANE_ANGLE_UNIT ( ) SI_UNIT ( $, .RADIAN. ) );
#19 = DIRECTION ( 'NONE',  ( -6.982962677686266711E-15, 0.0000000000000000000, -1.000000000000000000 ) ) ;
#20 = MANIFOLD_SOLID_BREP ( 'Körper in Z minus drehen[1]', #204 ) ;
#21 = VERTEX_POINT ( 'NONE', #42 ) ;
#22 = TOROIDAL_SURFACE ( 'NONE', #166, 2.374999999999999556, 1.999999999999999112 ) ;
#23 = LOCAL_TIME ( 1, 40, 4.000000000000000000, #8 ) ;
#24 = APPROVAL_DATE_TIME ( #202, #158 ) ;
#25 = ADVANCED_FACE ( 'NONE', ( #33, #94 ), #237, .T. ) ;
#26 = ORIENTED_EDGE ( 'NONE', *, *, #201, .T. ) ;
#27 = EDGE_LOOP ( 'NONE', ( #2 ) ) ;
#28 = APPROVAL_DATE_TIME ( #45, #198 ) ;
#29 = ORIENTED_EDGE ( 'NONE', *, *, #193, .T. ) ;
#30 = CIRCLE ( 'NONE', #242, 0.4000000000000042411 ) ;
#31 = PRODUCT_DEFINITION_SHAPE ( 'NONE', 'NONE',  #138 ) ;
#32 = APPLICATION_PROTOCOL_DEFINITION ( 'international standard', 'config_control_design', 1994, #228 ) ;
#33 = FACE_OUTER_BOUND ( 'NONE', #118, .T. ) ;
#34 = PERSON_AND_ORGANIZATION_ROLE ( 'creator' ) ;
#35 = ADVANCED_FACE ( 'NONE', ( #37, #251 ), #128, .T. ) ;
#36 = ORIENTED_EDGE ( 'NONE', *, *, #177, .T. ) ;
#37 = FACE_OUTER_BOUND ( 'NONE', #154, .T. ) ;
#38 = LOCAL_TIME ( 1, 40, 4.000000000000000000, #129 ) ;
#39 = EDGE_LOOP ( 'NONE', ( #107 ) ) ;
#40 = ADVANCED_FACE ( 'NONE', ( #54 ), #191, .T. ) ;
#41 = DIRECTION ( 'NONE',  ( 7.187567476622472925E-15, -0.0000000000000000000, 1.000000000000000000 ) ) ;
#42 = CARTESIAN_POINT ( 'NONE',  ( -0.4431483474221354912, 0.0000000000000000000, -38.74566690496974530 ) ) ;
#43 = FACE_OUTER_BOUND ( 'NONE', #39, .T. ) ;
#44 = VERTEX_POINT ( 'NONE', #140 ) ;
#45 = DATE_AND_TIME ( #102, #205 ) ;
#46 = CC_DESIGN_APPROVAL ( #158, ( #6 ) ) ;
#47 = CC_DESIGN_APPROVAL ( #198, ( #138 ) ) ;
#48 = CIRCLE ( 'NONE', #96, 1.599999999999998535 ) ;
#49 = PERSON_AND_ORGANIZATION ( #217, #61 ) ;
#50 = PERSON_AND_ORGANIZATION_ROLE ( 'creator' ) ;
#51 = CARTESIAN_POINT ( 'NONE',  ( -2.705595459194676552E-13, 0.0000000000000000000, -38.74566690496974530 ) ) ;
#52 = EDGE_LOOP ( 'NONE', ( #73 ) ) ;
#53 = DIRECTION ( 'NONE',  ( 6.982962677686266711E-15, 0.0000000000000000000, 1.000000000000000000 ) ) ;
#54 = FACE_OUTER_BOUND ( 'NONE', #11, .T. ) ;
#55 = ADVANCED_FACE ( 'NONE', ( #189 ), #7, .T. ) ;
#56 = FACE_OUTER_BOUND ( 'NONE', #169, .T. ) ;
#57 = VERTEX_POINT ( 'NONE', #120 ) ;
#58 = DIRECTION ( 'NONE',  ( -6.982962677686266711E-15, 0.0000000000000000000, -1.000000000000000000 ) ) ;
#59 = ADVANCED_FACE ( 'NONE', ( #15, #136 ), #4, .T. ) ;
#60 = CARTESIAN_POINT ( 'NONE',  ( 0.0000000000000000000, 0.0000000000000000000, 0.0000000000000000000 ) ) ;
#61 = ORGANIZATION ( 'UNSPECIFIED', 'UNSPECIFIED', '' ) ;
#62 = CARTESIAN_POINT ( 'NONE',  ( 1.999999999999774625, 0.0000000000000000000, -32.93541743770059327 ) ) ;
#63 = SECURITY_CLASSIFICATION_LEVEL ( 'unclassified' ) ;
#64 = ADVANCED_FACE ( 'NONE', ( #218 ), #255, .T. ) ;
#65 = DATE_TIME_ROLE ( 'classification_date' ) ;
#66 = AXIS2_PLACEMENT_3D ( 'NONE', #9, #215, #137 ) ;
#67 = LOCAL_TIME ( 1, 40, 4.000000000000000000, #68 ) ;
#68 = COORDINATED_UNIVERSAL_TIME_OFFSET ( 1, 0, .AHEAD. ) ;
#69 = COORDINATED_UNIVERSAL_TIME_OFFSET ( 1, 0, .AHEAD. ) ;
#70 = PRODUCT ( '550.008.00', '550.008.00', '', ( #145 ) ) ;
#71 = DIRECTION ( 'NONE',  ( 7.187567476622472925E-15, -0.0000000000000000000, 1.000000000000000000 ) ) ;
#72 = DATE_AND_TIME ( #230, #67 ) ;
#73 = ORIENTED_EDGE ( 'NONE', *, *, #229, .F. ) ;
#74 = DIRECTION ( 'NONE',  ( -6.982962677686266711E-15, 0.0000000000000000000, -1.000000000000000000 ) ) ;
#75 = EDGE_LOOP ( 'NONE', ( #254 ) ) ;
#76 = CARTESIAN_POINT ( 'NONE',  ( -7.159913721607645914E-31, 0.0000000000000000000, -1.025340396632337501E-16 ) ) ;
#77 = AXIS2_PLACEMENT_3D ( 'NONE', #156, #260, #160 ) ;
#78 = APPROVAL_PERSON_ORGANIZATION ( #49, #198, #147 ) ;
#79 = DIRECTION ( 'NONE',  ( 1.000000000000000000, 0.0000000000000000000, 0.0000000000000000000 ) ) ;
#80 = CARTESIAN_POINT ( 'NONE',  ( 6.056509442254067229E-14, 0.0000000000000000000, 8.673266236417621400 ) ) ;
#81 = CC_DESIGN_PERSON_AND_ORGANIZATION_ASSIGNMENT ( #113, #244, ( #70 ) ) ;
#82 = CARTESIAN_POINT ( 'NONE',  ( -2.705595459194676552E-13, 0.0000000000000000000, -38.74566690496974530 ) ) ;
#83 = DIRECTION ( 'NONE',  ( 1.000000000000000000, 0.0000000000000000000, -6.982962677686267499E-15 ) ) ;
#84 = SHAPE_DEFINITION_REPRESENTATION ( #31, #93 ) ;
#85 = AXIS2_PLACEMENT_3D ( 'NONE', #240, #224, #143 ) ;
#86 = PERSON_AND_ORGANIZATION ( #217, #61 ) ;
#87 = APPROVAL_STATUS ( 'not_yet_approved' ) ;
#88 = CARTESIAN_POINT ( 'NONE',  ( -3.252151283424337100E-13, 0.0000000000000000000, -45.00000000000000000 ) ) ;
#89 = APPROVAL_STATUS ( 'not_yet_approved' ) ;
#90 = ORIENTED_EDGE ( 'NONE', *, *, #146, .T. ) ;
#91 = CARTESIAN_POINT ( 'NONE',  ( -3.142333204958819767E-13, 0.0000000000000000000, -45.00000000000000000 ) ) ;
#92 = DIRECTION ( 'NONE',  ( 1.000000000000000000, 0.0000000000000000000, 0.0000000000000000000 ) ) ;
#93 = ADVANCED_BREP_SHAPE_REPRESENTATION ( '550.008.00', ( #20, #106, #162 ), #14 ) ;
#94 = FACE_OUTER_BOUND ( 'NONE', #150, .T. ) ;
#95 = CARTESIAN_POINT ( 'NONE',  ( 0.3999999999996790567, 0.0000000000000000000, -45.00000000000000000 ) ) ;
#96 = AXIS2_PLACEMENT_3D ( 'NONE', #99, #101, #83 ) ;
#97 = CC_DESIGN_DATE_AND_TIME_ASSIGNMENT ( #108, #65, ( #6 ) ) ;
#98 = VERTEX_POINT ( 'NONE', #164 ) ;
#99 = CARTESIAN_POINT ( 'NONE',  ( 0.0000000000000000000, 0.0000000000000000000, 0.0000000000000000000 ) ) ;
#100 = CIRCLE ( 'NONE', #247, 0.4000000000000041855 ) ;
#101 = DIRECTION ( 'NONE',  ( 6.982962677686266711E-15, 0.0000000000000000000, 1.000000000000000000 ) ) ;
#102 = CALENDAR_DATE ( 2019, 9, 1 ) ;
#103 = EDGE_LOOP ( 'NONE', ( #135 ) ) ;
#104 = CC_DESIGN_PERSON_AND_ORGANIZATION_ASSIGNMENT ( #10, #50, ( #134 ) ) ;
#105 = CC_DESIGN_APPROVAL ( #216, ( #134 ) ) ;
#106 = MANIFOLD_SOLID_BREP ( 'Körper in Z minus drehen[2]', #256 ) ;
#107 = ORIENTED_EDGE ( 'NONE', *, *, #203, .T. ) ;
#108 = DATE_AND_TIME ( #5, #23 ) ;
#109 = APPROVAL_DATE_TIME ( #72, #216 ) ;
#110 = EDGE_LOOP ( 'NONE', ( #194 ) ) ;
#111 = LOCAL_TIME ( 1, 40, 4.000000000000000000, #69 ) ;
#112 = CALENDAR_DATE ( 2019, 9, 1 ) ;
#113 = PERSON_AND_ORGANIZATION ( #217, #61 ) ;
#114 = CARTESIAN_POINT ( 'NONE',  ( -2.299867907414805786E-13, 0.0000000000000000000, -32.93541743770057906 ) ) ;
#115 = CARTESIAN_POINT ( 'NONE',  ( -3.058537652826584567E-13, 0.0000000000000000000, -43.79999999999999716 ) ) ;
#116 = AXIS2_PLACEMENT_3D ( 'NONE', #114, #253, #231 ) ;
#117 = CIRCLE ( 'NONE', #85, 0.3750000000000000000 ) ;
#118 = EDGE_LOOP ( 'NONE', ( #245 ) ) ;
#119 = VERTEX_POINT ( 'NONE', #62 ) ;
#120 = CARTESIAN_POINT ( 'NONE',  ( -0.3750000000002741141, 0.0000000000000000000, -39.26330499517479211 ) ) ;
#121 = CIRCLE ( 'NONE', #262, 0.4431483474218649299 ) ;
#122 = CARTESIAN_POINT ( 'NONE',  ( -3.252151283424337100E-13, 0.0000000000000000000, -45.00000000000000000 ) ) ;
#123 = CARTESIAN_POINT ( 'NONE',  ( -2.741741933839182847E-13, 0.0000000000000000000, -39.26330499517479211 ) ) ;
#124 = CC_DESIGN_DATE_AND_TIME_ASSIGNMENT ( #213, #250, ( #138 ) ) ;
#125 = DIRECTION ( 'NONE',  ( -1.000000000000000000, 0.0000000000000000000, 6.982962677686266711E-15 ) ) ;
#126 = APPROVAL_ROLE ( '' ) ;
#127 = CIRCLE ( 'NONE', #172, 0.3749999999999998890 ) ;
#128 = CONICAL_SURFACE ( 'NONE', #171, 0.4431483474218649299, 0.2617993877991502960 ) ;
#129 = COORDINATED_UNIVERSAL_TIME_OFFSET ( 1, 0, .AHEAD. ) ;
#130 = APPROVAL_STATUS ( 'not_yet_approved' ) ;
#131 = FACE_OUTER_BOUND ( 'NONE', #75, .T. ) ;
#132 = PERSON_AND_ORGANIZATION ( #217, #61 ) ;
#133 = EDGE_LOOP ( 'NONE', ( #29 ) ) ;
#134 = PRODUCT_DEFINITION_FORMATION_WITH_SPECIFIED_SOURCE ( 'ANY', '', #70, .NOT_KNOWN. ) ;
#135 = ORIENTED_EDGE ( 'NONE', *, *, #235, .T. ) ;
#136 = FACE_BOUND ( 'NONE', #234, .T. ) ;
#137 = DIRECTION ( 'NONE',  ( -1.000000000000000000, 0.0000000000000000000, 6.982962677686267499E-15 ) ) ;
#138 = PRODUCT_DEFINITION ( 'UNKNOWN', '', #134, #165 ) ;
#139 = DIRECTION ( 'NONE',  ( -1.000000000000000000, 0.0000000000000000000, 6.982962677686267499E-15 ) ) ;
#140 = CARTESIAN_POINT ( 'NONE',  ( 1.999999999999997335, 0.0000000000000000000, -0.4000000000000115685 ) ) ;
#141 = UNCERTAINTY_MEASURE_WITH_UNIT (LENGTH_MEASURE( 1.000000000000000082E-05 ), #176, 'distance_accuracy_value', 'NONE');
#142 = ADVANCED_FACE ( 'NONE', ( #131 ), #208, .F. ) ;
#143 = DIRECTION ( 'NONE',  ( -1.000000000000000000, 0.0000000000000000000, 0.0000000000000000000 ) ) ;
#144 = VERTEX_POINT ( 'NONE', #222 ) ;
#145 = MECHANICAL_CONTEXT ( 'NONE', #228, 'mechanical' ) ;
#146 = EDGE_CURVE ( 'NONE', #144, #144, #100, .T. ) ;
#147 = APPROVAL_ROLE ( '' ) ;
#148 = CALENDAR_DATE ( 2019, 9, 1 ) ;
#149 = EDGE_LOOP ( 'NONE', ( #187 ) ) ;
#150 = EDGE_LOOP ( 'NONE', ( #167 ) ) ;
#151 = AXIS2_PLACEMENT_3D ( 'NONE', #80, #195, #200 ) ;
#152 = ADVANCED_FACE ( 'NONE', ( #43, #223 ), #22, .F. ) ;
#153 = CARTESIAN_POINT ( 'NONE',  ( 0.3999999999996876054, 0.0000000000000000000, -43.79999999999999005 ) ) ;
#154 = EDGE_LOOP ( 'NONE', ( #249 ) ) ;
#155 = DIRECTION ( 'NONE',  ( 6.982962677686266711E-15, 0.0000000000000000000, 1.000000000000000000 ) ) ;
#156 = CARTESIAN_POINT ( 'NONE',  ( -2.793185071074489724E-15, 0.0000000000000000000, -0.3999999999999975797 ) ) ;
#157 = DIRECTION ( 'NONE',  ( -1.000000000000000000, 0.0000000000000000000, 0.0000000000000000000 ) ) ;
#158 = APPROVAL ( #87, 'UNSPECIFIED' ) ;
#159 = APPLICATION_CONTEXT ( 'configuration controlled 3d designs of mechanical parts and assemblies' ) ;
#160 = DIRECTION ( 'NONE',  ( 1.000000000000000000, 0.0000000000000000000, -6.993104012531503599E-15 ) ) ;
#161 = AXIS2_PLACEMENT_3D ( 'NONE', #153, #53, #173 ) ;
#162 = AXIS2_PLACEMENT_3D ( 'NONE', #263, #227, #188 ) ;
#163 = FACE_OUTER_BOUND ( 'NONE', #133, .T. ) ;
#164 = CARTESIAN_POINT ( 'NONE',  ( 1.599999999999998535, 0.0000000000000000000, -1.117274028429801727E-14 ) ) ;
#165 = DESIGN_CONTEXT ( 'detailed design', #159, 'design' ) ;
#166 = AXIS2_PLACEMENT_3D ( 'NONE', #178, #58, #139 ) ;
#167 = ORIENTED_EDGE ( 'NONE', *, *, #12, .T. ) ;
#168 = COORDINATED_UNIVERSAL_TIME_OFFSET ( 1, 0, .AHEAD. ) ;
#169 = EDGE_LOOP ( 'NONE', ( #206 ) ) ;
#170 = EDGE_LOOP ( 'NONE', ( #90 ) ) ;
#171 = AXIS2_PLACEMENT_3D ( 'NONE', #51, #174, #92 ) ;
#172 = AXIS2_PLACEMENT_3D ( 'NONE', #123, #181, #225 ) ;
#173 = DIRECTION ( 'NONE',  ( 1.000000000000000000, 0.0000000000000000000, -6.982962677686266711E-15 ) ) ;
#174 = DIRECTION ( 'NONE',  ( 6.982962677686266711E-15, 0.0000000000000000000, 1.000000000000000000 ) ) ;
#175 = VERTEX_POINT ( 'NONE', #259 ) ;
#176 =( LENGTH_UNIT ( ) NAMED_UNIT ( * ) SI_UNIT ( .MILLI., .METRE. ) );
#177 = EDGE_CURVE ( 'NONE', #44, #44, #186, .T. ) ;
#178 = CARTESIAN_POINT ( 'NONE',  ( -2.741741933839182847E-13, 0.0000000000000000000, -39.26330499517479211 ) ) ;
#179 = AXIS2_PLACEMENT_3D ( 'NONE', #76, #155, #238 ) ;
#180 = APPROVAL_PERSON_ORGANIZATION ( #232, #216, #190 ) ;
#181 = DIRECTION ( 'NONE',  ( -6.982962677686266711E-15, 0.0000000000000000000, -1.000000000000000000 ) ) ;
#182 = ADVANCED_FACE ( 'NONE', ( #221, #56 ), #241, .T. ) ;
#183 = CIRCLE ( 'NONE', #116, 2.000000000000004441 ) ;
#184 = PERSON_AND_ORGANIZATION_ROLE ( 'classification_officer' ) ;
#185 = PERSON_AND_ORGANIZATION_ROLE ( 'design_supplier' ) ;
#186 = CIRCLE ( 'NONE', #77, 2.000000000000000000 ) ;
#187 = ORIENTED_EDGE ( 'NONE', *, *, #146, .F. ) ;
#188 = DIRECTION ( 'NONE',  ( 1.000000000000000000, 0.0000000000000000000, 0.0000000000000000000 ) ) ;
#189 = FACE_OUTER_BOUND ( 'NONE', #170, .T. ) ;
#190 = APPROVAL_ROLE ( '' ) ;
#191 = PLANE ( 'NONE',  #13 ) ;
#192 = DIRECTION ( 'NONE',  ( -1.000000000000000000, 0.0000000000000000000, 6.982962677686266711E-15 ) ) ;
#193 = EDGE_CURVE ( 'NONE', #17, #17, #30, .T. ) ;
#194 = ORIENTED_EDGE ( 'NONE', *, *, #229, .T. ) ;
#195 = DIRECTION ( 'NONE',  ( 7.187567476622472925E-15, -0.0000000000000000000, 1.000000000000000000 ) ) ;
#196 = FACE_OUTER_BOUND ( 'NONE', #149, .T. ) ;
#197 = DIRECTION ( 'NONE',  ( 1.000000000000000000, 0.0000000000000000000, -7.187567476622472925E-15 ) ) ;
#198 = APPROVAL ( #130, 'UNSPECIFIED' ) ;
#199 = DIRECTION ( 'NONE',  ( 6.982962677686266711E-15, 0.0000000000000000000, 1.000000000000000000 ) ) ;
#200 = DIRECTION ( 'NONE',  ( 1.000000000000000000, 0.0000000000000000000, -8.673617379883943964E-15 ) ) ;
#201 = EDGE_CURVE ( 'NONE', #175, #175, #117, .T. ) ;
#202 = DATE_AND_TIME ( #148, #111 ) ;
#203 = EDGE_CURVE ( 'NONE', #21, #21, #121, .T. ) ;
#204 = CLOSED_SHELL ( 'NONE', ( #25, #64, #59, #182, #152, #35, #40 ) ) ;
#205 = LOCAL_TIME ( 1, 40, 4.000000000000000000, #168 ) ;
#206 = ORIENTED_EDGE ( 'NONE', *, *, #201, .F. ) ;
#207 = PERSON_AND_ORGANIZATION ( #217, #61 ) ;
#208 = PLANE ( 'NONE',  #219 ) ;
#209 = APPLICATION_PROTOCOL_DEFINITION ( 'international standard', 'config_control_design', 1994, #159 ) ;
#210 = PRODUCT_RELATED_PRODUCT_CATEGORY ( 'detail', '', ( #70 ) ) ;
#211 = AXIS2_PLACEMENT_3D ( 'NONE', #60, #239, #125 ) ;
#212 = EDGE_LOOP ( 'NONE', ( #36 ) ) ;
#213 = DATE_AND_TIME ( #112, #38 ) ;
#214 = DIRECTION ( 'NONE',  ( 1.000000000000000000, 0.0000000000000000000, -6.938893903907212600E-15 ) ) ;
#215 = DIRECTION ( 'NONE',  ( -6.982962677686266711E-15, 0.0000000000000000000, -1.000000000000000000 ) ) ;
#216 = APPROVAL ( #89, 'UNSPECIFIED' ) ;
#217 = PERSON ( 'UNSPECIFIED', 'UNSPECIFIED', 'UNSPECIFIED', ('UNSPECIFIED'), ('UNSPECIFIED'), ('UNSPECIFIED') ) ;
#218 = FACE_OUTER_BOUND ( 'NONE', #103, .T. ) ;
#219 = AXIS2_PLACEMENT_3D ( 'NONE', #88, #71, #197 ) ;
#220 = APPROVAL_PERSON_ORGANIZATION ( #248, #158, #126 ) ;
#221 = FACE_OUTER_BOUND ( 'NONE', #110, .T. ) ;
#222 = CARTESIAN_POINT ( 'NONE',  ( 0.3999999999996876054, 0.0000000000000000000, -43.79999999999999005 ) ) ;
#223 = FACE_OUTER_BOUND ( 'NONE', #52, .T. ) ;
#224 = DIRECTION ( 'NONE',  ( -6.982962677686266711E-15, 0.0000000000000000000, -1.000000000000000000 ) ) ;
#225 = DIRECTION ( 'NONE',  ( -1.000000000000000000, 0.0000000000000000000, 0.0000000000000000000 ) ) ;
#226 = CC_DESIGN_PERSON_AND_ORGANIZATION_ASSIGNMENT ( #207, #185, ( #134 ) ) ;
#227 = DIRECTION ( 'NONE',  ( 0.0000000000000000000, 0.0000000000000000000, 1.000000000000000000 ) ) ;
#228 = APPLICATION_CONTEXT ( 'configuration controlled 3d designs of mechanical parts and assemblies' ) ;
#229 = EDGE_CURVE ( 'NONE', #57, #57, #127, .T. ) ;
#230 = CALENDAR_DATE ( 2019, 9, 1 ) ;
#231 = DIRECTION ( 'NONE',  ( 1.000000000000000000, 0.0000000000000000000, -6.938893903907212600E-15 ) ) ;
#232 = PERSON_AND_ORGANIZATION ( #217, #61 ) ;
#233 = AXIS2_PLACEMENT_3D ( 'NONE', #91, #236, #214 ) ;
#234 = EDGE_LOOP ( 'NONE', ( #16 ) ) ;
#235 = EDGE_CURVE ( 'NONE', #98, #98, #48, .T. ) ;
#236 = DIRECTION ( 'NONE',  ( 6.982962677686266711E-15, 0.0000000000000000000, 1.000000000000000000 ) ) ;
#237 = CYLINDRICAL_SURFACE ( 'NONE', #233, 2.000000000000004441 ) ;
#238 = DIRECTION ( 'NONE',  ( 1.000000000000000000, 0.0000000000000000000, -6.982962677686266711E-15 ) ) ;
#239 = DIRECTION ( 'NONE',  ( -6.982962677686266711E-15, 0.0000000000000000000, -1.000000000000000000 ) ) ;
#240 = CARTESIAN_POINT ( 'NONE',  ( -3.058537652826584062E-13, 0.0000000000000000000, -43.79999999999999005 ) ) ;
#241 = CYLINDRICAL_SURFACE ( 'NONE', #211, 0.3749999999999999445 ) ;
#242 = AXIS2_PLACEMENT_3D ( 'NONE', #122, #41, #261 ) ;
#243 = CYLINDRICAL_SURFACE ( 'NONE', #151, 0.4000000000000041855 ) ;
#244 = PERSON_AND_ORGANIZATION_ROLE ( 'design_owner' ) ;
#245 = ORIENTED_EDGE ( 'NONE', *, *, #177, .F. ) ;
#246 = ADVANCED_FACE ( 'NONE', ( #196, #163 ), #243, .T. ) ;
#247 = AXIS2_PLACEMENT_3D ( 'NONE', #257, #199, #79 ) ;
#248 = PERSON_AND_ORGANIZATION ( #217, #61 ) ;
#249 = ORIENTED_EDGE ( 'NONE', *, *, #12, .F. ) ;
#250 = DATE_TIME_ROLE ( 'creation_date' ) ;
#251 = FACE_BOUND ( 'NONE', #27, .T. ) ;
#252 = CC_DESIGN_PERSON_AND_ORGANIZATION_ASSIGNMENT ( #132, #184, ( #6 ) ) ;
#253 = DIRECTION ( 'NONE',  ( 6.982962677686266711E-15, 0.0000000000000000000, 1.000000000000000000 ) ) ;
#254 = ORIENTED_EDGE ( 'NONE', *, *, #193, .F. ) ;
#255 = PLANE ( 'NONE',  #179 ) ;
#256 = CLOSED_SHELL ( 'NONE', ( #246, #142, #55 ) ) ;
#257 = CARTESIAN_POINT ( 'NONE',  ( -3.165900473704867343E-13, 0.0000000000000000000, -43.79999999999999005 ) ) ;
#258 = CC_DESIGN_PERSON_AND_ORGANIZATION_ASSIGNMENT ( #86, #34, ( #138 ) ) ;
#259 = CARTESIAN_POINT ( 'NONE',  ( -0.3750000000003058664, 0.0000000000000000000, -43.79999999999999005 ) ) ;
#260 = DIRECTION ( 'NONE',  ( 6.982962677686266711E-15, 0.0000000000000000000, 1.000000000000000000 ) ) ;
#261 = DIRECTION ( 'NONE',  ( 1.000000000000000000, 0.0000000000000000000, 0.0000000000000000000 ) ) ;
#262 = AXIS2_PLACEMENT_3D ( 'NONE', #82, #19, #157 ) ;
#263 = CARTESIAN_POINT ( 'NONE',  ( 0.0000000000000000000, 0.0000000000000000000, 0.0000000000000000000 ) ) ;
ENDSEC;
END-ISO-10303-21;
18357